  0
SECTION
  2
HEADER
  9
$ACADVER
  1
AC1015
  9
$ACADMAINTVER
 70
     6
  9
$DWGCODEPAGE
  3
ANSI_932
  9
$INSBASE
 10
0.0
 20
0.0
 30
0.0
  9
$EXTMIN
 10
57.08393891596421
 20
97.72791775734381
 30
-0.00000001
  9
$EXTMAX
 10
532.000002
 20
397.0293949973501
 30
0.00000001
  9
$LIMMIN
 10
0.0
 20
0.0
  9
$LIMMAX
 10
594.0
 20
420.0
  9
$ORTHOMODE
 70
     0
  9
$REGENMODE
 70
     1
  9
$FILLMODE
 70
     1
  9
$QTEXTMODE
 70
     0
  9
$MIRRTEXT
 70
     1
  9
$LTSCALE
 40
0.5
  9
$ATTMODE
 70
     1
  9
$TEXTSIZE
 40
0.2
  9
$TRACEWID
 40
0.05
  9
$TEXTSTYLE
  7
STANDARD
  9
$CLAYER
  8
0
  9
$CELTYPE
  6
ByLayer
  9
$CECOLOR
 62
   256
  9
$CELTSCALE
 40
1.0
  9
$DISPSILH
 70
     0
  9
$DIMSCALE
 40
1.0
  9
$DIMASZ
 40
1.0
  9
$DIMEXO
 40
0.0
  9
$DIMDLI
 40
0.5
  9
$DIMRND
 40
0.0
  9
$DIMDLE
 40
0.0
  9
$DIMEXE
 40
0.0
  9
$DIMTP
 40
0.0
  9
$DIMTM
 40
0.0
  9
$DIMTXT
 40
0.18
  9
$DIMCEN
 40
0.0
  9
$DIMTSZ
 40
0.0
  9
$DIMTOL
 70
     0
  9
$DIMLIM
 70
     0
  9
$DIMTIH
 70
     1
  9
$DIMTOH
 70
     1
  9
$DIMSE1
 70
     0
  9
$DIMSE2
 70
     0
  9
$DIMTAD
 70
     0
  9
$DIMZIN
 70
     0
  9
$DIMBLK
  1

  9
$DIMASO
 70
     0
  9
$DIMSHO
 70
     0
  9
$DIMPOST
  1

  9
$DIMAPOST
  1

  9
$DIMALT
 70
     0
  9
$DIMALTD
 70
     0
  9
$DIMALTF
 40
25.4
  9
$DIMLFAC
 40
1.0
  9
$DIMTOFL
 70
     0
  9
$DIMTVP
 40
0.0
  9
$DIMTIX
 70
     0
  9
$DIMSOXD
 70
     0
  9
$DIMSAH
 70
     0
  9
$DIMBLK1
  1

  9
$DIMBLK2
  1

  9
$DIMSTYLE
  2
Standard
  9
$DIMCLRD
 70
     0
  9
$DIMCLRE
 70
     0
  9
$DIMCLRT
 70
     0
  9
$DIMTFAC
 40
1.0
  9
$DIMGAP
 40
0.09
  9
$DIMJUST
 70
     0
  9
$DIMSD1
 70
     0
  9
$DIMSD2
 70
     0
  9
$DIMTOLJ
 70
     1
  9
$DIMTZIN
 70
     0
  9
$DIMALTZ
 70
     0
  9
$DIMALTTZ
 70
     0
  9
$DIMUPT
 70
     0
  9
$DIMDEC
 70
     4
  9
$DIMTDEC
 70
     4
  9
$DIMALTU
 70
     2
  9
$DIMALTTD
 70
     2
  9
$DIMTXSTY
  7
STANDARD
  9
$DIMAUNIT
 70
     0
  9
$DIMADEC
 70
     0
  9
$DIMALTRND
 40
0.0
  9
$DIMAZIN
 70
     0
  9
$DIMDSEP
 70
    46
  9
$DIMATFIT
 70
     3
  9
$DIMFRAC
 70
     0
  9
$DIMLDRBLK
  1

  9
$DIMLUNIT
 70
     2
  9
$DIMLWD
 70
    -2
  9
$DIMLWE
 70
    -2
  9
$DIMTMOVE
 70
     0
  9
$LUNITS
 70
     2
  9
$LUPREC
 70
     2
  9
$SKETCHINC
 40
0.0
  9
$FILLETRAD
 40
0.0
  9
$AUNITS
 70
     1
  9
$AUPREC
 70
     2
  9
$MENU
  1
ACAD
  9
$ELEVATION
 40
0.0
  9
$PELEVATION
 40
0.0
  9
$THICKNESS
 40
0.0
  9
$LIMCHECK
 70
     1
  9
$CHAMFERA
 40
0.0
  9
$CHAMFERB
 40
0.0
  9
$CHAMFERC
 40
0.0
  9
$CHAMFERD
 40
0.0
  9
$SKPOLY
 70
     0
  9
$TDCREATE
 40
2311945.642540544
  9
$TDUCREATE
 40
2311945.267540543
  9
$TDUPDATE
 40
2454796.623767176
  9
$TDUUPDATE
 40
2454796.248767176
  9
$TDINDWG
 40
0.0555714583
  9
$TDUSRTIMER
 40
0.0555701968
  9
$USRTIMER
 70
     1
  9
$ANGBASE
 50
0.0
  9
$ANGDIR
 70
     0
  9
$PDMODE
 70
     0
  9
$PDSIZE
 40
0.0
  9
$PLINEWID
 40
0.0
  9
$SPLFRAME
 70
     0
  9
$SPLINETYPE
 70
     6
  9
$SPLINESEGS
 70
     8
  9
$HANDSEED
  5
A5F
  9
$SURFTAB1
 70
     6
  9
$SURFTAB2
 70
     6
  9
$SURFTYPE
 70
     6
  9
$SURFU
 70
     6
  9
$SURFV
 70
     6
  9
$UCSBASE
  2

  9
$UCSNAME
  2

  9
$UCSORG
 10
0.0
 20
0.0
 30
0.0
  9
$UCSXDIR
 10
1.0
 20
0.0
 30
0.0
  9
$UCSYDIR
 10
0.0
 20
1.0
 30
0.0
  9
$UCSORTHOREF
  2

  9
$UCSORTHOVIEW
 70
     0
  9
$UCSORGTOP
 10
0.0
 20
0.0
 30
0.0
  9
$UCSORGBOTTOM
 10
0.0
 20
0.0
 30
0.0
  9
$UCSORGLEFT
 10
0.0
 20
0.0
 30
0.0
  9
$UCSORGRIGHT
 10
0.0
 20
0.0
 30
0.0
  9
$UCSORGFRONT
 10
0.0
 20
0.0
 30
0.0
  9
$UCSORGBACK
 10
0.0
 20
0.0
 30
0.0
  9
$PUCSBASE
  2

  9
$PUCSNAME
  2

  9
$PUCSORG
 10
0.0
 20
0.0
 30
0.0
  9
$PUCSXDIR
 10
1.0
 20
0.0
 30
0.0
  9
$PUCSYDIR
 10
0.0
 20
1.0
 30
0.0
  9
$PUCSORTHOREF
  2

  9
$PUCSORTHOVIEW
 70
     0
  9
$PUCSORGTOP
 10
0.0
 20
0.0
 30
0.0
  9
$PUCSORGBOTTOM
 10
0.0
 20
0.0
 30
0.0
  9
$PUCSORGLEFT
 10
0.0
 20
0.0
 30
0.0
  9
$PUCSORGRIGHT
 10
0.0
 20
0.0
 30
0.0
  9
$PUCSORGFRONT
 10
0.0
 20
0.0
 30
0.0
  9
$PUCSORGBACK
 10
0.0
 20
0.0
 30
0.0
  9
$USERI1
 70
     0
  9
$USERI2
 70
     0
  9
$USERI3
 70
     0
  9
$USERI4
 70
     0
  9
$USERI5
 70
     0
  9
$USERR1
 40
0.0
  9
$USERR2
 40
0.0
  9
$USERR3
 40
0.0
  9
$USERR4
 40
0.0
  9
$USERR5
 40
0.0
  9
$WORLDVIEW
 70
     1
  9
$SHADEDGE
 70
     3
  9
$SHADEDIF
 70
    70
  9
$TILEMODE
 70
     1
  9
$MAXACTVP
 70
    64
  9
$PINSBASE
 10
0.0
 20
0.0
 30
0.0
  9
$PLIMCHECK
 70
     0
  9
$PEXTMIN
 10
0.0
 20
0.0
 30
0.0
  9
$PEXTMAX
 10
297.0
 20
210.0
 30
0.0
  9
$PLIMMIN
 10
0.0
 20
0.0
  9
$PLIMMAX
 10
12.0
 20
9.0
  9
$UNITMODE
 70
     0
  9
$VISRETAIN
 70
     1
  9
$PLINEGEN
 70
     0
  9
$PSLTSCALE
 70
     1
  9
$TREEDEPTH
 70
  3020
  9
$CMLSTYLE
  2
Standard
  9
$CMLJUST
 70
     0
  9
$CMLSCALE
 40
1.0
  9
$PROXYGRAPHICS
 70
     1
  9
$MEASUREMENT
 70
     0
  9
$CELWEIGHT
370
    -1
  9
$ENDCAPS
280
     0
  9
$JOINSTYLE
280
     0
  9
$LWDISPLAY
290
     0
  9
$INSUNITS
 70
     0
  9
$HYPERLINKBASE
  1

  9
$STYLESHEET
  1

  9
$XEDIT
290
     1
  9
$CEPSNTYPE
380
     0
  9
$PSTYLEMODE
290
     1
  9
$FINGERPRINTGUID
  2
{C31239E9-659E-43C9-9DB8-05ED4F330DCC}
  9
$VERSIONGUID
  2
{7B3F32BB-4B9A-4923-AB20-E4AA1E7CCCAC}
  9
$EXTNAMES
290
     1
  9
$PSVPSCALE
 40
0.0
  9
$OLESTARTUP
290
     0
  0
ENDSEC
  0
SECTION
  2
CLASSES
  0
CLASS
  1
ACDBDICTIONARYWDFLT
  2
AcDbDictionaryWithDefault
  3
AutoCAD 2000
 90
        0
280
     0
281
     0
  0
CLASS
  1
ACDBPLACEHOLDER
  2
AcDbPlaceHolder
  3
AutoCAD 2000
 90
        0
280
     0
281
     0
  0
CLASS
  1
LAYOUT
  2
AcDbLayout
  3
AutoCAD 2000
 90
        0
280
     0
281
     0
  0
ENDSEC
  0
SECTION
  2
TABLES
  0
TABLE
  2
VPORT
  5
8
330
0
100
AcDbSymbolTable
 70
     4
  0
VPORT
  5
A5E
330
8
100
AcDbSymbolTableRecord
100
AcDbViewportTableRecord
  2
*Active
 70
     0
 10
0.0
 20
0.0
 11
1.0
 21
1.0
 12
199.684158516536
 22
223.1360261634236
 13
0.0
 23
0.0
 14
1.0
 24
1.0
 15
0.0
 25
0.0
 16
0.0
 26
0.0
 36
1.0
 17
0.0
 27
0.0
 37
0.0
 40
232.6117387319495
 41
1.461725394896719
 42
50.0
 43
0.0
 44
0.0
 50
0.0
 51
0.0
 71
     0
 72
   100
 73
     1
 74
     1
 75
     0
 76
     0
 77
     0
 78
     0
281
     0
 65
     1
110
0.0
120
0.0
130
0.0
111
1.0
121
0.0
131
0.0
112
0.0
122
1.0
132
0.0
 79
     0
146
0.0
  0
ENDTAB
  0
TABLE
  2
LTYPE
  5
5
330
0
100
AcDbSymbolTable
 70
     7
  0
LTYPE
  5
13
330
5
100
AcDbSymbolTableRecord
100
AcDbLinetypeTableRecord
  2
ByBlock
 70
     0
  3

 72
    65
 73
     0
 40
0.0
  0
LTYPE
  5
14
330
5
100
AcDbSymbolTableRecord
100
AcDbLinetypeTableRecord
  2
ByLayer
 70
     0
  3

 72
    65
 73
     0
 40
0.0
  0
LTYPE
  5
15
330
5
100
AcDbSymbolTableRecord
100
AcDbLinetypeTableRecord
  2
CONTINUOUS
 70
     0
  3
Solid line
 72
    65
 73
     0
 40
0.0
  0
LTYPE
  5
22
330
5
100
AcDbSymbolTableRecord
100
AcDbLinetypeTableRecord
  2
HIDDEN
 70
     0
  3
------------------------
 72
    65
 73
     2
 40
12.6
 49
8.4
 74
     0
 49
-4.2
 74
     0
  0
LTYPE
  5
23
330
5
100
AcDbSymbolTableRecord
100
AcDbLinetypeTableRecord
  2
DOT
 70
     0
  3
････････････････････････
 72
    65
 73
     2
 40
8.0
 49
6.0
 74
     0
 49
-2.0
 74
     0
  0
LTYPE
  5
24
330
5
100
AcDbSymbolTableRecord
100
AcDbLinetypeTableRecord
  2
DASHDOT
 70
     0
  3
--･--･--･--･--･--･--･--
 72
    65
 73
     4
 40
50.5
 49
30.0
 74
     0
 49
-9.0
 74
     0
 49
2.5
 74
     0
 49
-9.0
 74
     0
  0
LTYPE
  5
25
330
5
100
AcDbSymbolTableRecord
100
AcDbLinetypeTableRecord
  2
DIVIDE
 70
     0
  3
--･･--･･--･･--･･--･･--
 72
    65
 73
     6
 40
58.0
 49
30.0
 74
     0
 49
-9.0
 74
     0
 49
2.5
 74
     0
 49
-5.0
 74
     0
 49
2.5
 74
     0
 49
-9.0
 74
     0
  0
LTYPE
  5
88B
330
5
100
AcDbSymbolTableRecord
100
AcDbLinetypeTableRecord
  2
AI9-LType2
 70
     0
  3
Illustrator Dash Style No.2
 72
    65
 73
     4
 40
2.866778089602787
 49
1.911208943525949
 74
     0
 49
-0.3185230486922794
 74
     0
 49
0.3185230486922794
 74
     0
 49
-0.3185230486922794
 74
     0
  0
LTYPE
  5
88C
330
5
100
AcDbSymbolTableRecord
100
AcDbLinetypeTableRecord
  2
AI9-LType3
 70
     0
  3
Illustrator Dash Style No.3
 72
    65
 73
     4
 40
5.733697355786956
 49
3.822453212738036
 74
     0
 49
-0.6370813810163077
 74
     0
 49
0.6370813810163077
 74
     0
 49
-0.6370813810163077
 74
     0
  0
ENDTAB
  0
TABLE
  2
LAYER
  5
2
330
0
100
AcDbSymbolTable
 70
     6
  0
LAYER
  5
10
330
2
100
AcDbSymbolTableRecord
100
AcDbLayerTableRecord
  2
0
 70
     0
 62
     7
  6
CONTINUOUS
370
    -3
390
F
  0
LAYER
  5
26
330
2
100
AcDbSymbolTableRecord
100
AcDbLayerTableRecord
  2
1
 70
     0
 62
     7
  6
CONTINUOUS
370
    -3
390
F
  0
LAYER
  5
791
330
2
100
AcDbSymbolTableRecord
100
AcDbLayerTableRecord
  2
Defpoints
 70
     0
 62
     7
  6
CONTINUOUS
290
     0
370
    -3
390
F
  0
LAYER
  5
88D
330
2
100
AcDbSymbolTableRecord
100
AcDbLayerTableRecord
  2
部品
 70
     0
 62
     5
  6
CONTINUOUS
370
    -3
390
F
  0
LAYER
  5
88E
330
2
100
AcDbSymbolTableRecord
100
AcDbLayerTableRecord
  2
CENTER
 70
     0
 62
     5
  6
CONTINUOUS
370
    -3
390
F
  0
LAYER
  5
88F
330
2
100
AcDbSymbolTableRecord
100
AcDbLayerTableRecord
  2
WIRING
 70
     0
 62
     7
  6
CONTINUOUS
370
    -3
390
F
  0
ENDTAB
  0
TABLE
  2
STYLE
  5
3
330
0
100
AcDbSymbolTable
 70
     4
  0
STYLE
  5
11
330
3
100
AcDbSymbolTableRecord
100
AcDbTextStyleTableRecord
  2
STANDARD
 70
     0
 40
0.0
 41
1.0
 50
0.0
 71
     0
 42
0.2
  3
TXT
  4

  0
STYLE
  5
27
330
3
100
AcDbSymbolTableRecord
100
AcDbTextStyleTableRecord
  2
KANJI
 70
     0
 40
0.0
 41
1.0
 50
0.0
 71
     0
 42
0.2
  3
TXT
  4
BIGFONT
  0
STYLE
  5
890
330
3
100
AcDbSymbolTableRecord
100
AcDbTextStyleTableRecord
  2
STD
 70
     0
 40
0.0
 41
1.0
 50
0.0
 71
     0
 42
0.0
  3
txt
  4

  0
STYLE
  5
891
330
3
100
AcDbSymbolTableRecord
100
AcDbTextStyleTableRecord
  2
KANJISTD
 70
     0
 40
0.0
 41
1.0
 50
0.0
 71
     0
 42
0.0
  3
txt
  4
extfont
  0
ENDTAB
  0
TABLE
  2
VIEW
  5
6
330
0
100
AcDbSymbolTable
 70
     0
  0
ENDTAB
  0
TABLE
  2
UCS
  5
7
330
0
100
AcDbSymbolTable
 70
     0
  0
ENDTAB
  0
TABLE
  2
APPID
  5
9
330
0
100
AcDbSymbolTable
 70
     1
  0
APPID
  5
12
330
9
100
AcDbSymbolTableRecord
100
AcDbRegAppTableRecord
  2
ACAD
 70
     0
  0
ENDTAB
  0
TABLE
  2
DIMSTYLE
  5
A
330
0
100
AcDbSymbolTable
 70
     1
100
AcDbDimStyleTable
 71
     1
340
7B5
  0
DIMSTYLE
105
7B5
330
A
100
AcDbSymbolTableRecord
100
AcDbDimStyleTableRecord
  2
Standard
 70
     0
340
11
  0
ENDTAB
  0
TABLE
  2
BLOCK_RECORD
  5
1
330
0
100
AcDbSymbolTable
 70
    31
  0
BLOCK_RECORD
  5
1E
330
1
100
AcDbSymbolTableRecord
100
AcDbBlockTableRecord
  2
*Model_Space
340
21
  0
BLOCK_RECORD
  5
1A
330
1
100
AcDbSymbolTableRecord
100
AcDbBlockTableRecord
  2
*Paper_Space
340
1D
  0
BLOCK_RECORD
  5
2B
330
1
100
AcDbSymbolTableRecord
100
AcDbBlockTableRecord
  2
*D0
340
0
  0
BLOCK_RECORD
  5
36
330
1
100
AcDbSymbolTableRecord
100
AcDbBlockTableRecord
  2
*D1
340
0
  0
BLOCK_RECORD
  5
41
330
1
100
AcDbSymbolTableRecord
100
AcDbBlockTableRecord
  2
*D2
340
0
  0
BLOCK_RECORD
  5
792
330
1
100
AcDbSymbolTableRecord
100
AcDbBlockTableRecord
  2
*D3
340
0
  0
BLOCK_RECORD
  5
79E
330
1
100
AcDbSymbolTableRecord
100
AcDbBlockTableRecord
  2
*D4
340
0
  0
BLOCK_RECORD
  5
7AA
330
1
100
AcDbSymbolTableRecord
100
AcDbBlockTableRecord
  2
*D5
340
0
  0
BLOCK_RECORD
  5
7DF
330
1
100
AcDbSymbolTableRecord
100
AcDbBlockTableRecord
  2
AI9-BLK4
340
0
102
{BLKREFS
331
936
331
A0F
102
}
  0
BLOCK_RECORD
  5
7EA
330
1
100
AcDbSymbolTableRecord
100
AcDbBlockTableRecord
  2
AI9-BLK5
340
0
102
{BLKREFS
331
7E7
102
}
  0
BLOCK_RECORD
  5
7F0
330
1
100
AcDbSymbolTableRecord
100
AcDbBlockTableRecord
  2
AI9-BLK6
340
0
102
{BLKREFS
331
7E6
102
}
  0
BLOCK_RECORD
  5
7F6
330
1
100
AcDbSymbolTableRecord
100
AcDbBlockTableRecord
  2
AI9-BLK10
340
0
102
{BLKREFS
331
8F6
331
9CF
102
}
  0
BLOCK_RECORD
  5
7FF
330
1
100
AcDbSymbolTableRecord
100
AcDbBlockTableRecord
  2
AI9-BLK11
340
0
102
{BLKREFS
331
7FB
102
}
  0
BLOCK_RECORD
  5
805
330
1
100
AcDbSymbolTableRecord
100
AcDbBlockTableRecord
  2
AI9-BLK12
340
0
102
{BLKREFS
331
7FA
102
}
  0
BLOCK_RECORD
  5
80B
330
1
100
AcDbSymbolTableRecord
100
AcDbBlockTableRecord
  2
AI9-BLK22
340
0
102
{BLKREFS
331
8DF
331
9B8
102
}
  0
BLOCK_RECORD
  5
814
330
1
100
AcDbSymbolTableRecord
100
AcDbBlockTableRecord
  2
AI9-BLK23
340
0
102
{BLKREFS
331
810
102
}
  0
BLOCK_RECORD
  5
81A
330
1
100
AcDbSymbolTableRecord
100
AcDbBlockTableRecord
  2
AI9-BLK24
340
0
102
{BLKREFS
331
80F
102
}
  0
BLOCK_RECORD
  5
820
330
1
100
AcDbSymbolTableRecord
100
AcDbBlockTableRecord
  2
AI9-BLK25
340
0
102
{BLKREFS
331
8B4
331
98D
102
}
  0
BLOCK_RECORD
  5
829
330
1
100
AcDbSymbolTableRecord
100
AcDbBlockTableRecord
  2
AI9-BLK26
340
0
102
{BLKREFS
331
825
102
}
  0
BLOCK_RECORD
  5
82F
330
1
100
AcDbSymbolTableRecord
100
AcDbBlockTableRecord
  2
AI9-BLK27
340
0
102
{BLKREFS
331
824
102
}
  0
BLOCK_RECORD
  5
835
330
1
100
AcDbSymbolTableRecord
100
AcDbBlockTableRecord
  2
AI9-BLK28
340
0
102
{BLKREFS
331
8B5
331
98E
102
}
  0
BLOCK_RECORD
  5
83E
330
1
100
AcDbSymbolTableRecord
100
AcDbBlockTableRecord
  2
AI9-BLK29
340
0
102
{BLKREFS
331
83A
102
}
  0
BLOCK_RECORD
  5
844
330
1
100
AcDbSymbolTableRecord
100
AcDbBlockTableRecord
  2
AI9-BLK30
340
0
102
{BLKREFS
331
839
102
}
  0
BLOCK_RECORD
  5
84A
330
1
100
AcDbSymbolTableRecord
100
AcDbBlockTableRecord
  2
AI9-BLK31
340
0
102
{BLKREFS
331
8B6
331
98F
102
}
  0
BLOCK_RECORD
  5
853
330
1
100
AcDbSymbolTableRecord
100
AcDbBlockTableRecord
  2
AI9-BLK32
340
0
102
{BLKREFS
331
84F
102
}
  0
BLOCK_RECORD
  5
859
330
1
100
AcDbSymbolTableRecord
100
AcDbBlockTableRecord
  2
AI9-BLK33
340
0
102
{BLKREFS
331
84E
102
}
  0
BLOCK_RECORD
  5
85F
330
1
100
AcDbSymbolTableRecord
100
AcDbBlockTableRecord
  2
AI9-BLK34
340
0
102
{BLKREFS
331
8D5
331
9AE
102
}
  0
BLOCK_RECORD
  5
86A
330
1
100
AcDbSymbolTableRecord
100
AcDbBlockTableRecord
  2
AI9-BLK35
340
0
102
{BLKREFS
331
867
102
}
  0
BLOCK_RECORD
  5
870
330
1
100
AcDbSymbolTableRecord
100
AcDbBlockTableRecord
  2
AI9-BLK36
340
0
102
{BLKREFS
331
866
102
}
  0
BLOCK_RECORD
  5
876
330
1
100
AcDbSymbolTableRecord
100
AcDbBlockTableRecord
  2
AI9-BLK37
340
0
102
{BLKREFS
331
898
331
971
102
}
  0
BLOCK_RECORD
  5
87F
330
1
100
AcDbSymbolTableRecord
100
AcDbBlockTableRecord
  2
AI9-BLK38
340
0
102
{BLKREFS
331
87B
102
}
  0
BLOCK_RECORD
  5
885
330
1
100
AcDbSymbolTableRecord
100
AcDbBlockTableRecord
  2
AI9-BLK39
340
0
102
{BLKREFS
331
87A
102
}
  0
ENDTAB
  0
ENDSEC
  0
SECTION
  2
BLOCKS
  0
BLOCK
  5
1F
330
1E
100
AcDbEntity
  8
0
100
AcDbBlockBegin
  2
*Model_Space
 70
     0
 10
0.0
 20
0.0
 30
0.0
  3
*Model_Space
  1

  0
ENDBLK
  5
20
330
1E
100
AcDbEntity
  8
0
100
AcDbBlockEnd
  0
BLOCK
  5
1B
330
1A
100
AcDbEntity
 67
     1
  8
0
100
AcDbBlockBegin
  2
*Paper_Space
 70
     0
 10
0.0
 20
0.0
 30
0.0
  3
*Paper_Space
  1

  0
ENDBLK
  5
1C
330
1A
100
AcDbEntity
 67
     1
  8
0
100
AcDbBlockEnd
  0
BLOCK
  5
2C
330
2B
100
AcDbEntity
  8
1
  6
Continuous
 62
     7
100
AcDbBlockBegin
  2
*D0
 70
     1
 10
0.0
 20
0.0
 30
0.0
  3
*D0
  1

  0
LINE
  5
2D
330
2B
100
AcDbEntity
  8
1
  6
Continuous
 62
     7
100
AcDbLine
 10
290.0
 20
214.5
 30
0.0
 11
290.0
 21
268.5
 31
0.0
  0
LINE
  5
2E
330
2B
100
AcDbEntity
  8
1
  6
Continuous
 62
     7
100
AcDbLine
 10
294.0
 20
214.5
 30
0.0
 11
284.0
 21
214.5
 31
0.0
  0
LINE
  5
2F
330
2B
100
AcDbEntity
  8
1
  6
Continuous
 62
     7
100
AcDbLine
 10
294.0
 20
268.5
 30
0.0
 11
284.0
 21
268.5
 31
0.0
  0
LINE
  5
30
330
2B
100
AcDbEntity
  8
1
  6
Continuous
 62
     7
100
AcDbLine
 10
290.0
 20
214.5
 30
0.0
 11
288.964724
 21
218.3637029999999
 31
0.0
  0
LINE
  5
31
330
2B
100
AcDbEntity
  8
1
  6
Continuous
 62
     7
100
AcDbLine
 10
290.0
 20
214.5
 30
0.0
 11
291.0352759999998
 21
218.3637029999999
 31
0.0
  0
LINE
  5
32
330
2B
100
AcDbEntity
  8
1
  6
Continuous
 62
     7
100
AcDbLine
 10
290.0
 20
268.5
 30
0.0
 11
291.0352759999998
 21
264.636297
 31
0.0
  0
LINE
  5
33
330
2B
100
AcDbEntity
  8
1
  6
Continuous
 62
     7
100
AcDbLine
 10
290.0
 20
268.5
 30
0.0
 11
288.964724
 21
264.636297
 31
0.0
  0
TEXT
  5
34
330
2B
100
AcDbEntity
  8
1
  6
Continuous
 62
     7
100
AcDbText
 10
290.0
 20
237.5
 30
0.0
 40
8.0
  1
54
 50
90.0
 41
0.5
  7
KANJI
100
AcDbText
  0
ENDBLK
  5
35
330
2B
100
AcDbEntity
  8
0
100
AcDbBlockEnd
  0
BLOCK
  5
37
330
36
100
AcDbEntity
  8
1
  6
Continuous
 62
     7
100
AcDbBlockBegin
  2
*D1
 70
     1
 10
0.0
 20
0.0
 30
0.0
  3
*D1
  1

  0
LINE
  5
38
330
36
100
AcDbEntity
  8
1
  6
Continuous
 62
     7
100
AcDbLine
 10
148.0000149999999
 20
190.0
 30
0.0
 11
260.000014
 21
190.0
 31
0.0
  0
LINE
  5
39
330
36
100
AcDbEntity
  8
1
  6
Continuous
 62
     7
100
AcDbLine
 10
148.0000149999999
 20
186.0
 30
0.0
 11
148.0000149999999
 21
196.0
 31
0.0
  0
LINE
  5
3A
330
36
100
AcDbEntity
  8
1
  6
Continuous
 62
     7
100
AcDbLine
 10
260.000014
 20
186.0
 30
0.0
 11
260.000014
 21
196.0
 31
0.0
  0
LINE
  5
3B
330
36
100
AcDbEntity
  8
1
  6
Continuous
 62
     7
100
AcDbLine
 10
148.0000149999999
 20
190.0
 30
0.0
 11
151.8637189999999
 21
191.035276
 31
0.0
  0
LINE
  5
3C
330
36
100
AcDbEntity
  8
1
  6
Continuous
 62
     7
100
AcDbLine
 10
148.0000149999999
 20
190.0
 30
0.0
 11
151.8637189999999
 21
188.964724
 31
0.0
  0
LINE
  5
3D
330
36
100
AcDbEntity
  8
1
  6
Continuous
 62
     7
100
AcDbLine
 10
260.000014
 20
190.0
 30
0.0
 11
256.1363109999999
 21
188.964724
 31
0.0
  0
LINE
  5
3E
330
36
100
AcDbEntity
  8
1
  6
Continuous
 62
     7
100
AcDbLine
 10
260.000014
 20
190.0
 30
0.0
 11
256.1363109999999
 21
191.035276
 31
0.0
  0
TEXT
  5
3F
330
36
100
AcDbEntity
  8
1
  6
Continuous
 62
     7
100
AcDbText
 10
198.000015
 20
190.0
 30
0.0
 40
8.0
  1
112
 41
0.5
  7
KANJI
100
AcDbText
  0
ENDBLK
  5
40
330
36
100
AcDbEntity
  8
0
100
AcDbBlockEnd
  0
BLOCK
  5
42
330
41
100
AcDbEntity
  8
1
  6
Continuous
 62
     7
100
AcDbBlockBegin
  2
*D2
 70
     1
 10
0.0
 20
0.0
 30
0.0
  3
*D2
  1

  0
LINE
  5
43
330
41
100
AcDbEntity
  8
1
  6
Continuous
 62
     7
100
AcDbLine
 10
64.5
 20
190.0
 30
0.0
 11
120.5
 21
190.0
 31
0.0
  0
LINE
  5
44
330
41
100
AcDbEntity
  8
1
  6
Continuous
 62
     7
100
AcDbLine
 10
64.5
 20
186.0
 30
0.0
 11
64.5
 21
196.0
 31
0.0
  0
LINE
  5
45
330
41
100
AcDbEntity
  8
1
  6
Continuous
 62
     7
100
AcDbLine
 10
120.5
 20
186.0
 30
0.0
 11
120.5
 21
196.0
 31
0.0
  0
LINE
  5
46
330
41
100
AcDbEntity
  8
1
  6
Continuous
 62
     7
100
AcDbLine
 10
64.5
 20
190.0
 30
0.0
 11
68.363703
 21
191.035276
 31
0.0
  0
LINE
  5
47
330
41
100
AcDbEntity
  8
1
  6
Continuous
 62
     7
100
AcDbLine
 10
64.5
 20
190.0
 30
0.0
 11
68.363703
 21
188.964724
 31
0.0
  0
LINE
  5
48
330
41
100
AcDbEntity
  8
1
  6
Continuous
 62
     7
100
AcDbLine
 10
120.5
 20
190.0
 30
0.0
 11
116.6362969999999
 21
188.964724
 31
0.0
  0
LINE
  5
49
330
41
100
AcDbEntity
  8
1
  6
Continuous
 62
     7
100
AcDbLine
 10
120.5
 20
190.0
 30
0.0
 11
116.6362969999999
 21
191.035276
 31
0.0
  0
TEXT
  5
4A
330
41
100
AcDbEntity
  8
1
  6
Continuous
 62
     7
100
AcDbText
 10
88.49999999999999
 20
190.0
 30
0.0
 40
8.0
  1
56
 41
0.5
  7
KANJI
100
AcDbText
  0
ENDBLK
  5
4B
330
41
100
AcDbEntity
  8
0
100
AcDbBlockEnd
  0
BLOCK
  5
79B
330
792
100
AcDbEntity
  8
0
100
AcDbBlockBegin
  2
*D3
 70
     1
 10
0.0
 20
0.0
 30
0.0
  3
*D3
  1

  0
LINE
  5
793
330
792
100
AcDbEntity
  8
1
  6
Continuous
 62
     0
370
    -2
100
AcDbLine
 10
284.0
 20
214.5
 30
0.0
 11
290.0
 21
214.5
 31
0.0
  0
LINE
  5
794
330
792
100
AcDbEntity
  8
1
  6
Continuous
 62
     0
370
    -2
100
AcDbLine
 10
284.0
 20
268.5
 30
0.0
 11
290.0
 21
268.5
 31
0.0
  0
LINE
  5
795
330
792
100
AcDbEntity
  8
1
  6
Continuous
 62
     0
370
    -2
100
AcDbLine
 10
290.0
 20
215.5
 30
0.0
 11
290.0
 21
267.5
 31
0.0
  0
SOLID
  5
796
330
792
100
AcDbEntity
  8
1
  6
Continuous
 62
     0
100
AcDbTrace
 10
289.8333333333333
 20
215.5
 30
0.0
 11
290.1666666666666
 21
215.5
 31
0.0
 12
290.0
 22
214.5
 32
0.0
 13
290.0
 23
214.5
 33
0.0
  0
SOLID
  5
797
330
792
100
AcDbEntity
  8
1
  6
Continuous
 62
     0
100
AcDbTrace
 10
289.8333333333333
 20
267.5
 30
0.0
 11
290.1666666666666
 21
267.5
 31
0.0
 12
290.0
 22
268.5
 32
0.0
 13
290.0
 23
268.5
 33
0.0
  0
POINT
  5
798
330
792
100
AcDbEntity
  8
Defpoints
  6
Continuous
 62
     0
100
AcDbPoint
 10
284.0
 20
214.5
 30
0.0
  0
POINT
  5
799
330
792
100
AcDbEntity
  8
Defpoints
  6
Continuous
 62
     0
100
AcDbPoint
 10
284.0
 20
268.5
 30
0.0
  0
POINT
  5
79A
330
792
100
AcDbEntity
  8
Defpoints
  6
Continuous
 62
     0
100
AcDbPoint
 10
290.0
 20
268.5
 30
0.0
  0
ENDBLK
  5
79C
330
792
100
AcDbEntity
  8
0
100
AcDbBlockEnd
  0
BLOCK
  5
7A7
330
79E
100
AcDbEntity
  8
0
100
AcDbBlockBegin
  2
*D4
 70
     1
 10
0.0
 20
0.0
 30
0.0
  3
*D4
  1

  0
LINE
  5
79F
330
79E
100
AcDbEntity
  8
1
  6
Continuous
 62
     0
370
    -2
100
AcDbLine
 10
148.0000149999999
 20
196.0
 30
0.0
 11
148.0000149999999
 21
190.0
 31
0.0
  0
LINE
  5
7A0
330
79E
100
AcDbEntity
  8
1
  6
Continuous
 62
     0
370
    -2
100
AcDbLine
 10
260.000014
 20
196.0
 30
0.0
 11
260.000014
 21
190.0
 31
0.0
  0
LINE
  5
7A1
330
79E
100
AcDbEntity
  8
1
  6
Continuous
 62
     0
370
    -2
100
AcDbLine
 10
149.000015
 20
190.0
 30
0.0
 11
259.000014
 21
190.0
 31
0.0
  0
SOLID
  5
7A2
330
79E
100
AcDbEntity
  8
1
  6
Continuous
 62
     0
100
AcDbTrace
 10
149.000015
 20
190.1666666666665
 30
0.0
 11
149.000015
 21
189.8333333333333
 31
0.0
 12
148.0000149999999
 22
190.0
 32
0.0
 13
148.0000149999999
 23
190.0
 33
0.0
  0
SOLID
  5
7A3
330
79E
100
AcDbEntity
  8
1
  6
Continuous
 62
     0
100
AcDbTrace
 10
259.000014
 20
190.1666666666665
 30
0.0
 11
259.000014
 21
189.8333333333333
 31
0.0
 12
260.000014
 22
190.0
 32
0.0
 13
260.000014
 23
190.0
 33
0.0
  0
POINT
  5
7A4
330
79E
100
AcDbEntity
  8
Defpoints
  6
Continuous
 62
     0
100
AcDbPoint
 10
148.0000149999999
 20
196.0
 30
0.0
  0
POINT
  5
7A5
330
79E
100
AcDbEntity
  8
Defpoints
  6
Continuous
 62
     0
100
AcDbPoint
 10
260.000014
 20
196.0
 30
0.0
  0
POINT
  5
7A6
330
79E
100
AcDbEntity
  8
Defpoints
  6
Continuous
 62
     0
100
AcDbPoint
 10
260.000014
 20
190.0
 30
0.0
  0
ENDBLK
  5
7A8
330
79E
100
AcDbEntity
  8
0
100
AcDbBlockEnd
  0
BLOCK
  5
7B3
330
7AA
100
AcDbEntity
  8
0
100
AcDbBlockBegin
  2
*D5
 70
     1
 10
0.0
 20
0.0
 30
0.0
  3
*D5
  1

  0
LINE
  5
7AB
330
7AA
100
AcDbEntity
  8
1
  6
Continuous
 62
     0
370
    -2
100
AcDbLine
 10
64.5
 20
196.0
 30
0.0
 11
64.5
 21
190.0
 31
0.0
  0
LINE
  5
7AC
330
7AA
100
AcDbEntity
  8
1
  6
Continuous
 62
     0
370
    -2
100
AcDbLine
 10
120.5
 20
196.0
 30
0.0
 11
120.5
 21
190.0
 31
0.0
  0
LINE
  5
7AD
330
7AA
100
AcDbEntity
  8
1
  6
Continuous
 62
     0
370
    -2
100
AcDbLine
 10
65.5
 20
190.0
 30
0.0
 11
119.5
 21
190.0
 31
0.0
  0
SOLID
  5
7AE
330
7AA
100
AcDbEntity
  8
1
  6
Continuous
 62
     0
100
AcDbTrace
 10
65.5
 20
190.1666666666665
 30
0.0
 11
65.5
 21
189.8333333333333
 31
0.0
 12
64.5
 22
190.0
 32
0.0
 13
64.5
 23
190.0
 33
0.0
  0
SOLID
  5
7AF
330
7AA
100
AcDbEntity
  8
1
  6
Continuous
 62
     0
100
AcDbTrace
 10
119.5
 20
190.1666666666665
 30
0.0
 11
119.5
 21
189.8333333333333
 31
0.0
 12
120.5
 22
190.0
 32
0.0
 13
120.5
 23
190.0
 33
0.0
  0
POINT
  5
7B0
330
7AA
100
AcDbEntity
  8
Defpoints
  6
Continuous
 62
     0
100
AcDbPoint
 10
64.5
 20
196.0
 30
0.0
  0
POINT
  5
7B1
330
7AA
100
AcDbEntity
  8
Defpoints
  6
Continuous
 62
     0
100
AcDbPoint
 10
120.5
 20
196.0
 30
0.0
  0
POINT
  5
7B2
330
7AA
100
AcDbEntity
  8
Defpoints
  6
Continuous
 62
     0
100
AcDbPoint
 10
120.5
 20
190.0
 30
0.0
  0
ENDBLK
  5
7B4
330
7AA
100
AcDbEntity
  8
0
100
AcDbBlockEnd
  0
BLOCK
  5
7E8
330
7DF
100
AcDbEntity
  8
WIRING
 62
     7
100
AcDbBlockBegin
  2
AI9-BLK4
 70
     0
 71
     1
 10
0.0
 20
0.0
 30
0.0
  3
AI9-BLK4
  1

  0
LINE
  5
7E0
330
7DF
100
AcDbEntity
  8
WIRING
 62
     7
100
AcDbLine
 10
-3.298334418402776
 20
1.692919921875
 30
0.0
 11
-3.298334418402776
 21
-16.54128146701388
 31
0.0
  0
LINE
  5
7E1
330
7DF
100
AcDbEntity
  8
WIRING
 62
     7
100
AcDbLine
 10
1.272618272569442
 20
16.54128146701388
 30
0.0
 11
1.272618272569442
 21
-16.54128146701388
 31
0.0
  0
LINE
  5
7E2
330
7DF
100
AcDbEntity
  8
WIRING
 62
     7
100
AcDbLine
 10
-5.806363932291666
 20
-15.28726671006944
 30
0.0
 11
-8.314737955729166
 21
-15.28726671006944
 31
0.0
  0
LINE
  5
7E3
330
7DF
100
AcDbEntity
  8
WIRING
 62
     7
100
AcDbLine
 10
3.780647786458331
 20
-15.28726671006944
 30
0.0
 11
6.289021809895832
 21
-15.28726671006944
 31
0.0
  0
MTEXT
  5
7E4
330
7DF
100
AcDbEntity
  8
WIRING
 62
     7
100
AcDbMText
 10
2.338186306423609
 20
-12.75398297430502
 30
0.0
 40
2.006528635938015
 41
0.0
 71
     1
 72
     2
  1
\fMS Gothic|b0|i0|c128;4.56
  7
STD
 73
     1
 44
1.0
  0
LINE
  5
7E5
330
7DF
100
AcDbEntity
  8
WIRING
 62
     7
100
AcDbLine
 10
-3.298334418402776
 20
-15.28726671006944
 30
0.0
 11
1.272618272569442
 21
-15.28726671006944
 31
0.0
  0
INSERT
  5
7E6
330
7DF
100
AcDbEntity
  8
WIRING
 62
     7
100
AcDbBlockReference
  2
AI9-BLK6
 10
-4.552349175347221
 20
-15.28726671006944
 30
0.0
  0
INSERT
  5
7E7
330
7DF
100
AcDbEntity
  8
WIRING
 62
     7
100
AcDbBlockReference
  2
AI9-BLK5
 10
2.526633029513888
 20
-15.28726671006944
 30
0.0
  0
ENDBLK
  5
7E9
330
7DF
100
AcDbEntity
  8
WIRING
100
AcDbBlockEnd
  0
BLOCK
  5
7EE
330
7EA
100
AcDbEntity
  8
WIRING
 62
     7
100
AcDbBlockBegin
  2
AI9-BLK5
 70
     0
 71
     1
 10
0.0
 20
0.0
 30
0.0
  3
AI9-BLK5
  1

  0
LINE
  5
7EB
330
7EA
100
AcDbEntity
  8
WIRING
 62
     7
100
AcDbLine
 10
1.254014756944442
 20
-0.417890082465278
 30
0.0
 11
-1.254014756944442
 21
0.0
 31
0.0
  0
LINE
  5
7EC
330
7EA
100
AcDbEntity
  8
WIRING
 62
     7
100
AcDbLine
 10
-1.254014756944442
 20
0.0
 30
0.0
 11
1.254014756944442
 21
0.417890082465278
 31
0.0
  0
LINE
  5
7ED
330
7EA
100
AcDbEntity
  8
WIRING
 62
     7
100
AcDbLine
 10
-1.254014756944442
 20
0.0
 30
0.0
 11
1.254014756944442
 21
0.0
 31
0.0
  0
ENDBLK
  5
7EF
330
7EA
100
AcDbEntity
  8
WIRING
100
AcDbBlockEnd
  0
BLOCK
  5
7F4
330
7F0
100
AcDbEntity
  8
WIRING
 62
     7
100
AcDbBlockBegin
  2
AI9-BLK6
 70
     0
 71
     1
 10
0.0
 20
0.0
 30
0.0
  3
AI9-BLK6
  1

  0
LINE
  5
7F1
330
7F0
100
AcDbEntity
  8
WIRING
 62
     7
100
AcDbLine
 10
-1.254014756944442
 20
0.417890082465278
 30
0.0
 11
1.254014756944442
 21
0.0
 31
0.0
  0
LINE
  5
7F2
330
7F0
100
AcDbEntity
  8
WIRING
 62
     7
100
AcDbLine
 10
1.254014756944442
 20
0.0
 30
0.0
 11
-1.254014756944442
 21
-0.417890082465278
 31
0.0
  0
LINE
  5
7F3
330
7F0
100
AcDbEntity
  8
WIRING
 62
     7
100
AcDbLine
 10
1.254014756944442
 20
0.0
 30
0.0
 11
-1.254014756944442
 21
0.0
 31
0.0
  0
ENDBLK
  5
7F5
330
7F0
100
AcDbEntity
  8
WIRING
100
AcDbBlockEnd
  0
BLOCK
  5
7FD
330
7F6
100
AcDbEntity
  8
WIRING
 62
     7
100
AcDbBlockBegin
  2
AI9-BLK10
 70
     0
 71
     1
 10
0.0
 20
0.0
 30
0.0
  3
AI9-BLK10
  1

  0
LINE
  5
7F7
330
7F6
100
AcDbEntity
  8
WIRING
 62
     7
100
AcDbLine
 10
-13.55231662326388
 20
12.74151340060763
 30
0.0
 11
13.55231662326388
 21
12.74151340060763
 31
0.0
  0
LINE
  5
7F8
330
7F6
100
AcDbEntity
  8
WIRING
 62
     7
100
AcDbLine
 10
-13.55231662326388
 20
-12.74151340060763
 30
0.0
 11
13.55231662326388
 21
-12.74151340060763
 31
0.0
  0
LINE
  5
7F9
330
7F6
100
AcDbEntity
  8
WIRING
 62
     7
100
AcDbLine
 10
12.29830186631944
 20
10.23313937717013
 30
0.0
 11
12.29830186631944
 21
-10.23348388671875
 31
0.0
  0
INSERT
  5
7FA
330
7F6
100
AcDbEntity
  8
WIRING
 62
     7
100
AcDbBlockReference
  2
AI9-BLK12
 10
12.29847412109374
 20
11.48732638888888
 30
0.0
  0
INSERT
  5
7FB
330
7F6
100
AcDbEntity
  8
WIRING
 62
     7
100
AcDbBlockReference
  2
AI9-BLK11
 10
12.29847412109374
 20
-11.48749864366318
 30
0.0
  0
MTEXT
  5
7FC
330
7F6
100
AcDbEntity
  8
WIRING
 62
     7
100
AcDbMText
 10
9.765018130555032
 20
-4.719608561197916
 30
0.0
 40
2.006528635938015
 41
0.0
 71
     1
 72
     2
  1
\fMS Gothic|b0|i0|c128;1-32UNF
  7
STD
 11
0.0
 21
1.0
 31
0.0
 73
     1
 44
1.0
  0
ENDBLK
  5
7FE
330
7F6
100
AcDbEntity
  8
WIRING
100
AcDbBlockEnd
  0
BLOCK
  5
803
330
7FF
100
AcDbEntity
  8
WIRING
 62
     7
100
AcDbBlockBegin
  2
AI9-BLK11
 70
     0
 71
     1
 10
0.0
 20
0.0
 30
0.0
  3
AI9-BLK11
  1

  0
LINE
  5
800
330
7FF
100
AcDbEntity
  8
WIRING
 62
     7
100
AcDbLine
 10
0.4180623372395833
 20
1.254014756944442
 30
0.0
 11
-0.0001722547743056
 21
-1.254014756944442
 31
0.0
  0
LINE
  5
801
330
7FF
100
AcDbEntity
  8
WIRING
 62
     7
100
AcDbLine
 10
-0.0001722547743056
 20
-1.254014756944442
 30
0.0
 11
-0.4180623372395833
 21
1.254014756944442
 31
0.0
  0
LINE
  5
802
330
7FF
100
AcDbEntity
  8
WIRING
 62
     7
100
AcDbLine
 10
-0.0001722547743056
 20
-1.254014756944442
 30
0.0
 11
-0.0001722547743056
 21
1.254014756944442
 31
0.0
  0
ENDBLK
  5
804
330
7FF
100
AcDbEntity
  8
WIRING
100
AcDbBlockEnd
  0
BLOCK
  5
809
330
805
100
AcDbEntity
  8
WIRING
 62
     7
100
AcDbBlockBegin
  2
AI9-BLK12
 70
     0
 71
     1
 10
0.0
 20
0.0
 30
0.0
  3
AI9-BLK12
  1

  0
LINE
  5
806
330
805
100
AcDbEntity
  8
WIRING
 62
     7
100
AcDbLine
 10
-0.4180623372395833
 20
-1.254187011718749
 30
0.0
 11
-0.0001722547743056
 21
1.254187011718749
 31
0.0
  0
LINE
  5
807
330
805
100
AcDbEntity
  8
WIRING
 62
     7
100
AcDbLine
 10
-0.0001722547743056
 20
1.254187011718749
 30
0.0
 11
0.4180623372395833
 21
-1.254187011718749
 31
0.0
  0
LINE
  5
808
330
805
100
AcDbEntity
  8
WIRING
 62
     7
100
AcDbLine
 10
-0.0001722547743056
 20
1.254187011718749
 30
0.0
 11
-0.0001722547743056
 21
-1.254187011718749
 31
0.0
  0
ENDBLK
  5
80A
330
805
100
AcDbEntity
  8
WIRING
100
AcDbBlockEnd
  0
BLOCK
  5
812
330
80B
100
AcDbEntity
  8
WIRING
 62
     7
100
AcDbBlockBegin
  2
AI9-BLK22
 70
     0
 71
     1
 10
0.0
 20
0.0
 30
0.0
  3
AI9-BLK22
  1

  0
LINE
  5
80C
330
80B
100
AcDbEntity
  8
WIRING
 62
     7
100
AcDbLine
 10
7.379050021701386
 20
17.55724012586805
 30
0.0
 11
-5.819972059461803
 21
17.55724012586805
 31
0.0
  0
LINE
  5
80D
330
80B
100
AcDbEntity
  8
WIRING
 62
     7
100
AcDbLine
 10
7.379050021701386
 20
-17.55724012586805
 30
0.0
 11
-5.819972059461803
 21
-17.55724012586805
 31
0.0
  0
LINE
  5
80E
330
80B
100
AcDbEntity
  8
WIRING
 62
     7
100
AcDbLine
 10
-4.56595730251736
 20
15.04921061197916
 30
0.0
 11
-4.56595730251736
 21
-15.04886610243055
 31
0.0
  0
INSERT
  5
80F
330
80B
100
AcDbEntity
  8
WIRING
 62
     7
100
AcDbBlockReference
  2
AI9-BLK24
 10
-4.56595730251736
 20
16.30322536892361
 30
0.0
  0
INSERT
  5
810
330
80B
100
AcDbEntity
  8
WIRING
 62
     7
100
AcDbBlockReference
  2
AI9-BLK23
 10
-4.56595730251736
 20
-16.3030531141493
 30
0.0
  0
MTEXT
  5
811
330
80B
100
AcDbEntity
  8
WIRING
 62
     7
100
AcDbMText
 10
-7.099241038281767
 20
-2.696476236979166
 30
0.0
 40
2.006528635938015
 41
0.0
 71
     1
 72
     2
  1
\fMS Gothic|b0|i0|c128;φ35
  7
KANJISTD
 11
0.0
 21
1.0
 31
0.0
 73
     1
 44
1.0
  0
ENDBLK
  5
813
330
80B
100
AcDbEntity
  8
WIRING
100
AcDbBlockEnd
  0
BLOCK
  5
818
330
814
100
AcDbEntity
  8
WIRING
 62
     7
100
AcDbBlockBegin
  2
AI9-BLK23
 70
     0
 71
     1
 10
0.0
 20
0.0
 30
0.0
  3
AI9-BLK23
  1

  0
LINE
  5
815
330
814
100
AcDbEntity
  8
WIRING
 62
     7
100
AcDbLine
 10
0.4180623372395833
 20
1.254187011718749
 30
0.0
 11
0.0
 21
-1.254187011718749
 31
0.0
  0
LINE
  5
816
330
814
100
AcDbEntity
  8
WIRING
 62
     7
100
AcDbLine
 10
0.0
 20
-1.254187011718749
 30
0.0
 11
-0.4180623372395833
 21
1.254187011718749
 31
0.0
  0
LINE
  5
817
330
814
100
AcDbEntity
  8
WIRING
 62
     7
100
AcDbLine
 10
0.0
 20
-1.254187011718749
 30
0.0
 11
0.0
 21
1.254187011718749
 31
0.0
  0
ENDBLK
  5
819
330
814
100
AcDbEntity
  8
WIRING
100
AcDbBlockEnd
  0
BLOCK
  5
81E
330
81A
100
AcDbEntity
  8
WIRING
 62
     7
100
AcDbBlockBegin
  2
AI9-BLK24
 70
     0
 71
     1
 10
0.0
 20
0.0
 30
0.0
  3
AI9-BLK24
  1

  0
LINE
  5
81B
330
81A
100
AcDbEntity
  8
WIRING
 62
     7
100
AcDbLine
 10
-0.4180623372395833
 20
-1.254014756944442
 30
0.0
 11
0.0
 21
1.254014756944442
 31
0.0
  0
LINE
  5
81C
330
81A
100
AcDbEntity
  8
WIRING
 62
     7
100
AcDbLine
 10
0.0
 20
1.254014756944442
 30
0.0
 11
0.4180623372395833
 21
-1.254014756944442
 31
0.0
  0
LINE
  5
81D
330
81A
100
AcDbEntity
  8
WIRING
 62
     7
100
AcDbLine
 10
0.0
 20
1.254014756944442
 30
0.0
 11
0.0
 21
-1.254014756944442
 31
0.0
  0
ENDBLK
  5
81F
330
81A
100
AcDbEntity
  8
WIRING
100
AcDbBlockEnd
  0
BLOCK
  5
827
330
820
100
AcDbEntity
  8
WIRING
 62
     7
100
AcDbBlockBegin
  2
AI9-BLK25
 70
     0
 71
     1
 10
0.0
 20
0.0
 30
0.0
  3
AI9-BLK25
  1

  0
LINE
  5
821
330
820
100
AcDbEntity
  8
WIRING
 62
     7
100
AcDbLine
 10
-11.57982720269097
 20
12.29003363715277
 30
0.0
 11
11.57982720269097
 21
12.29003363715277
 31
0.0
  0
LINE
  5
822
330
820
100
AcDbEntity
  8
WIRING
 62
     7
100
AcDbLine
 10
7.357345920138887
 20
-12.29003363715277
 30
0.0
 11
11.57982720269097
 21
-12.29003363715277
 31
0.0
  0
LINE
  5
823
330
820
100
AcDbEntity
  8
WIRING
 62
     7
100
AcDbLine
 10
10.32581244574652
 20
9.782004123263886
 30
0.0
 11
10.32581244574652
 21
-9.781659613715275
 31
0.0
  0
INSERT
  5
824
330
820
100
AcDbEntity
  8
WIRING
 62
     7
100
AcDbBlockReference
  2
AI9-BLK27
 10
10.32581244574652
 20
11.03601888020832
 30
0.0
  0
INSERT
  5
825
330
820
100
AcDbEntity
  8
WIRING
 62
     7
100
AcDbBlockReference
  2
AI9-BLK26
 10
10.32581244574652
 20
-11.03584662543402
 30
0.0
  0
MTEXT
  5
826
330
820
100
AcDbEntity
  8
WIRING
 62
     7
100
AcDbMText
 10
7.792528709982117
 20
-2.696820746527776
 30
0.0
 40
2.006528635938015
 41
0.0
 71
     1
 72
     2
  1
\fMS Gothic|b0|i0|c128;24.5
  7
STD
 11
0.0
 21
1.0
 31
0.0
 73
     1
 44
1.0
  0
ENDBLK
  5
828
330
820
100
AcDbEntity
  8
WIRING
100
AcDbBlockEnd
  0
BLOCK
  5
82D
330
829
100
AcDbEntity
  8
WIRING
 62
     7
100
AcDbBlockBegin
  2
AI9-BLK26
 70
     0
 71
     1
 10
0.0
 20
0.0
 30
0.0
  3
AI9-BLK26
  1

  0
LINE
  5
82A
330
829
100
AcDbEntity
  8
WIRING
 62
     7
100
AcDbLine
 10
0.4180623372395833
 20
1.254187011718749
 30
0.0
 11
0.0
 21
-1.254187011718749
 31
0.0
  0
LINE
  5
82B
330
829
100
AcDbEntity
  8
WIRING
 62
     7
100
AcDbLine
 10
0.0
 20
-1.254187011718749
 30
0.0
 11
-0.4180623372395833
 21
1.254187011718749
 31
0.0
  0
LINE
  5
82C
330
829
100
AcDbEntity
  8
WIRING
 62
     7
100
AcDbLine
 10
0.0
 20
-1.254187011718749
 30
0.0
 11
0.0
 21
1.254187011718749
 31
0.0
  0
ENDBLK
  5
82E
330
829
100
AcDbEntity
  8
WIRING
100
AcDbBlockEnd
  0
BLOCK
  5
833
330
82F
100
AcDbEntity
  8
WIRING
 62
     7
100
AcDbBlockBegin
  2
AI9-BLK27
 70
     0
 71
     1
 10
0.0
 20
0.0
 30
0.0
  3
AI9-BLK27
  1

  0
LINE
  5
830
330
82F
100
AcDbEntity
  8
WIRING
 62
     7
100
AcDbLine
 10
-0.4180623372395833
 20
-1.254014756944442
 30
0.0
 11
0.0
 21
1.254014756944442
 31
0.0
  0
LINE
  5
831
330
82F
100
AcDbEntity
  8
WIRING
 62
     7
100
AcDbLine
 10
0.0
 20
1.254014756944442
 30
0.0
 11
0.4180623372395833
 21
-1.254014756944442
 31
0.0
  0
LINE
  5
832
330
82F
100
AcDbEntity
  8
WIRING
 62
     7
100
AcDbLine
 10
0.0
 20
1.254014756944442
 30
0.0
 11
0.0
 21
-1.254014756944442
 31
0.0
  0
ENDBLK
  5
834
330
82F
100
AcDbEntity
  8
WIRING
100
AcDbBlockEnd
  0
BLOCK
  5
83C
330
835
100
AcDbEntity
  8
WIRING
 62
     7
100
AcDbBlockBegin
  2
AI9-BLK28
 70
     0
 71
     1
 10
0.0
 20
0.0
 30
0.0
  3
AI9-BLK28
  1

  0
LINE
  5
836
330
835
100
AcDbEntity
  8
WIRING
 62
     7
100
AcDbLine
 10
14.94869995117187
 20
-12.96441107855901
 30
0.0
 11
14.94869995117187
 21
11.40550537109374
 31
0.0
  0
LINE
  5
837
330
835
100
AcDbEntity
  8
WIRING
 62
     7
100
AcDbLine
 10
-14.94869995117187
 20
-12.96441107855901
 30
0.0
 11
-14.94869995117187
 21
11.40550537109374
 31
0.0
  0
LINE
  5
838
330
835
100
AcDbEntity
  8
WIRING
 62
     7
100
AcDbLine
 10
12.44049818250868
 20
10.15114610460069
 30
0.0
 11
-12.44049818250868
 21
10.15114610460069
 31
0.0
  0
INSERT
  5
839
330
835
100
AcDbEntity
  8
WIRING
 62
     7
100
AcDbBlockReference
  2
AI9-BLK30
 10
13.69459906684027
 20
10.15131835937499
 30
0.0
  0
INSERT
  5
83A
330
835
100
AcDbEntity
  8
WIRING
 62
     7
100
AcDbBlockReference
  2
AI9-BLK29
 10
-13.69459906684027
 20
10.15131835937499
 30
0.0
  0
MTEXT
  5
83B
330
835
100
AcDbEntity
  8
WIRING
 62
     7
100
AcDbMText
 10
-2.696734619140623
 20
12.6844298403651
 30
0.0
 40
2.006528635938015
 41
0.0
 71
     1
 72
     2
  1
\fMS Gothic|b0|i0|c128;29.8
  7
STD
 73
     1
 44
1.0
  0
ENDBLK
  5
83D
330
835
100
AcDbEntity
  8
WIRING
100
AcDbBlockEnd
  0
BLOCK
  5
842
330
83E
100
AcDbEntity
  8
WIRING
 62
     7
100
AcDbBlockBegin
  2
AI9-BLK29
 70
     0
 71
     1
 10
0.0
 20
0.0
 30
0.0
  3
AI9-BLK29
  1

  0
LINE
  5
83F
330
83E
100
AcDbEntity
  8
WIRING
 62
     7
100
AcDbLine
 10
1.254100884331595
 20
-0.4180623372395833
 30
0.0
 11
-1.254100884331595
 21
-0.0001722547743056
 31
0.0
  0
LINE
  5
840
330
83E
100
AcDbEntity
  8
WIRING
 62
     7
100
AcDbLine
 10
-1.254100884331595
 20
-0.0001722547743056
 30
0.0
 11
1.254100884331595
 21
0.4180623372395833
 31
0.0
  0
LINE
  5
841
330
83E
100
AcDbEntity
  8
WIRING
 62
     7
100
AcDbLine
 10
-1.254100884331595
 20
-0.0001722547743056
 30
0.0
 11
1.254100884331595
 21
-0.0001722547743056
 31
0.0
  0
ENDBLK
  5
843
330
83E
100
AcDbEntity
  8
WIRING
100
AcDbBlockEnd
  0
BLOCK
  5
848
330
844
100
AcDbEntity
  8
WIRING
 62
     7
100
AcDbBlockBegin
  2
AI9-BLK30
 70
     0
 71
     1
 10
0.0
 20
0.0
 30
0.0
  3
AI9-BLK30
  1

  0
LINE
  5
845
330
844
100
AcDbEntity
  8
WIRING
 62
     7
100
AcDbLine
 10
-1.254100884331595
 20
0.4180623372395833
 30
0.0
 11
1.254100884331595
 21
-0.0001722547743056
 31
0.0
  0
LINE
  5
846
330
844
100
AcDbEntity
  8
WIRING
 62
     7
100
AcDbLine
 10
1.254100884331595
 20
-0.0001722547743056
 30
0.0
 11
-1.254100884331595
 21
-0.4180623372395833
 31
0.0
  0
LINE
  5
847
330
844
100
AcDbEntity
  8
WIRING
 62
     7
100
AcDbLine
 10
1.254100884331595
 20
-0.0001722547743056
 30
0.0
 11
-1.254100884331595
 21
-0.0001722547743056
 31
0.0
  0
ENDBLK
  5
849
330
844
100
AcDbEntity
  8
WIRING
100
AcDbBlockEnd
  0
BLOCK
  5
851
330
84A
100
AcDbEntity
  8
WIRING
 62
     7
100
AcDbBlockBegin
  2
AI9-BLK31
 70
     0
 71
     1
 10
0.0
 20
0.0
 30
0.0
  3
AI9-BLK31
  1

  0
LINE
  5
84B
330
84A
100
AcDbEntity
  8
WIRING
 62
     7
100
AcDbLine
 10
-11.22868584526907
 20
-11.49301079644097
 30
0.0
 11
11.22868584526907
 21
-11.49301079644097
 31
0.0
  0
LINE
  5
84C
330
84A
100
AcDbEntity
  8
WIRING
 62
     7
100
AcDbLine
 10
7.006204562717011
 20
11.49301079644097
 30
0.0
 11
11.22868584526907
 21
11.49301079644097
 31
0.0
  0
LINE
  5
84D
330
84A
100
AcDbEntity
  8
WIRING
 62
     7
100
AcDbLine
 10
9.974671088324653
 20
-8.984981282552082
 30
0.0
 11
9.974671088324653
 21
8.984981282552082
 31
0.0
  0
INSERT
  5
84E
330
84A
100
AcDbEntity
  8
WIRING
 62
     7
100
AcDbBlockReference
  2
AI9-BLK33
 10
9.974671088324653
 20
-10.23899603949651
 30
0.0
  0
INSERT
  5
84F
330
84A
100
AcDbEntity
  8
WIRING
 62
     7
100
AcDbBlockReference
  2
AI9-BLK32
 10
9.974671088324653
 20
10.23899603949651
 30
0.0
  0
MTEXT
  5
850
330
84A
100
AcDbEntity
  8
WIRING
 62
     7
100
AcDbMText
 10
7.441559607334547
 20
-2.69664849175347
 30
0.0
 40
2.006528635938015
 41
0.0
 71
     1
 72
     2
  1
\fMS Gothic|b0|i0|c128;22.9
  7
STD
 11
0.0
 21
1.0
 31
0.0
 73
     1
 44
1.0
  0
ENDBLK
  5
852
330
84A
100
AcDbEntity
  8
WIRING
100
AcDbBlockEnd
  0
BLOCK
  5
857
330
853
100
AcDbEntity
  8
WIRING
 62
     7
100
AcDbBlockBegin
  2
AI9-BLK32
 70
     0
 71
     1
 10
0.0
 20
0.0
 30
0.0
  3
AI9-BLK32
  1

  0
LINE
  5
854
330
853
100
AcDbEntity
  8
WIRING
 62
     7
100
AcDbLine
 10
-0.4180623372395833
 20
-1.254014756944442
 30
0.0
 11
0.0
 21
1.254014756944442
 31
0.0
  0
LINE
  5
855
330
853
100
AcDbEntity
  8
WIRING
 62
     7
100
AcDbLine
 10
0.0
 20
1.254014756944442
 30
0.0
 11
0.4180623372395833
 21
-1.254014756944442
 31
0.0
  0
LINE
  5
856
330
853
100
AcDbEntity
  8
WIRING
 62
     7
100
AcDbLine
 10
0.0
 20
1.254014756944442
 30
0.0
 11
0.0
 21
-1.254014756944442
 31
0.0
  0
ENDBLK
  5
858
330
853
100
AcDbEntity
  8
WIRING
100
AcDbBlockEnd
  0
BLOCK
  5
85D
330
859
100
AcDbEntity
  8
WIRING
 62
     7
100
AcDbBlockBegin
  2
AI9-BLK33
 70
     0
 71
     1
 10
0.0
 20
0.0
 30
0.0
  3
AI9-BLK33
  1

  0
LINE
  5
85A
330
859
100
AcDbEntity
  8
WIRING
 62
     7
100
AcDbLine
 10
0.4180623372395833
 20
1.254014756944442
 30
0.0
 11
0.0
 21
-1.254014756944442
 31
0.0
  0
LINE
  5
85B
330
859
100
AcDbEntity
  8
WIRING
 62
     7
100
AcDbLine
 10
0.0
 20
-1.254014756944442
 30
0.0
 11
-0.4180623372395833
 21
1.254014756944442
 31
0.0
  0
LINE
  5
85C
330
859
100
AcDbEntity
  8
WIRING
 62
     7
100
AcDbLine
 10
0.0
 20
-1.254014756944442
 30
0.0
 11
0.0
 21
1.254014756944442
 31
0.0
  0
ENDBLK
  5
85E
330
859
100
AcDbEntity
  8
WIRING
100
AcDbBlockEnd
  0
BLOCK
  5
868
330
85F
100
AcDbEntity
  8
WIRING
 62
     7
100
AcDbBlockBegin
  2
AI9-BLK34
 70
     0
 71
     1
 10
0.0
 20
0.0
 30
0.0
  3
AI9-BLK34
  1

  0
LINE
  5
860
330
85F
100
AcDbEntity
  8
WIRING
 62
     7
100
AcDbLine
 10
2.093412272135414
 20
2.44550103081597
 30
0.0
 11
2.093412272135414
 21
-19.80189208984373
 31
0.0
  0
LINE
  5
861
330
85F
100
AcDbEntity
  8
WIRING
 62
     7
100
AcDbLine
 10
0.8183824327256942
 20
19.80189208984373
 30
0.0
 11
0.8183824327256942
 21
-19.80189208984373
 31
0.0
  0
LINE
  5
862
330
85F
100
AcDbEntity
  8
WIRING
 62
     7
100
AcDbLine
 10
4.601786295572916
 20
-18.5478773328993
 30
0.0
 11
7.109815809461801
 21
-18.5478773328993
 31
0.0
  0
LINE
  5
863
330
85F
100
AcDbEntity
  8
WIRING
 62
     7
100
AcDbLine
 10
-1.689819335937499
 20
-18.5478773328993
 30
0.0
 11
-4.198021104600693
 21
-18.5478773328993
 31
0.0
  0
MTEXT
  5
864
330
85F
100
AcDbEntity
  8
WIRING
 62
     7
100
AcDbMText
 10
-6.894841851128472
 20
-16.01459359713489
 30
0.0
 40
2.006528635938015
 41
0.0
 71
     1
 72
     2
  1
\fMS Gothic|b0|i0|c128;1.27
  7
STD
 73
     1
 44
1.0
  0
LINE
  5
865
330
85F
100
AcDbEntity
  8
WIRING
 62
     7
100
AcDbLine
 10
2.093412272135414
 20
-18.5478773328993
 30
0.0
 11
0.8183824327256942
 21
-18.5478773328993
 31
0.0
  0
INSERT
  5
866
330
85F
100
AcDbEntity
  8
WIRING
 62
     7
100
AcDbBlockReference
  2
AI9-BLK36
 10
3.347599283854166
 20
-18.5478773328993
 30
0.0
  0
INSERT
  5
867
330
85F
100
AcDbEntity
  8
WIRING
 62
     7
100
AcDbBlockReference
  2
AI9-BLK35
 10
-0.4357184516059027
 20
-18.5478773328993
 30
0.0
  0
ENDBLK
  5
869
330
85F
100
AcDbEntity
  8
WIRING
100
AcDbBlockEnd
  0
BLOCK
  5
86E
330
86A
100
AcDbEntity
  8
WIRING
 62
     7
100
AcDbBlockBegin
  2
AI9-BLK35
 70
     0
 71
     1
 10
0.0
 20
0.0
 30
0.0
  3
AI9-BLK35
  1

  0
LINE
  5
86B
330
86A
100
AcDbEntity
  8
WIRING
 62
     7
100
AcDbLine
 10
-1.254100884331595
 20
0.417890082465278
 30
0.0
 11
1.254100884331595
 21
0.0
 31
0.0
  0
LINE
  5
86C
330
86A
100
AcDbEntity
  8
WIRING
 62
     7
100
AcDbLine
 10
1.254100884331595
 20
0.0
 30
0.0
 11
-1.254100884331595
 21
-0.417890082465278
 31
0.0
  0
LINE
  5
86D
330
86A
100
AcDbEntity
  8
WIRING
 62
     7
100
AcDbLine
 10
1.254100884331595
 20
0.0
 30
0.0
 11
-1.254100884331595
 21
0.0
 31
0.0
  0
ENDBLK
  5
86F
330
86A
100
AcDbEntity
  8
WIRING
100
AcDbBlockEnd
  0
BLOCK
  5
874
330
870
100
AcDbEntity
  8
WIRING
 62
     7
100
AcDbBlockBegin
  2
AI9-BLK36
 70
     0
 71
     1
 10
0.0
 20
0.0
 30
0.0
  3
AI9-BLK36
  1

  0
LINE
  5
871
330
870
100
AcDbEntity
  8
WIRING
 62
     7
100
AcDbLine
 10
1.254187011718749
 20
-0.417890082465278
 30
0.0
 11
-1.254187011718749
 21
0.0
 31
0.0
  0
LINE
  5
872
330
870
100
AcDbEntity
  8
WIRING
 62
     7
100
AcDbLine
 10
-1.254187011718749
 20
0.0
 30
0.0
 11
1.254187011718749
 21
0.417890082465278
 31
0.0
  0
LINE
  5
873
330
870
100
AcDbEntity
  8
WIRING
 62
     7
100
AcDbLine
 10
-1.254187011718749
 20
0.0
 30
0.0
 11
1.254187011718749
 21
0.0
 31
0.0
  0
ENDBLK
  5
875
330
870
100
AcDbEntity
  8
WIRING
100
AcDbBlockEnd
  0
BLOCK
  5
87D
330
876
100
AcDbEntity
  8
WIRING
 62
     7
100
AcDbBlockBegin
  2
AI9-BLK37
 70
     0
 71
     1
 10
0.0
 20
0.0
 30
0.0
  3
AI9-BLK37
  1

  0
LINE
  5
877
330
876
100
AcDbEntity
  8
WIRING
 62
     7
100
AcDbLine
 10
-23.07507731119791
 20
9.869681803385416
 30
0.0
 11
-23.07507731119791
 21
-12.3777113172743
 31
0.0
  0
LINE
  5
878
330
876
100
AcDbEntity
  8
WIRING
 62
     7
100
AcDbLine
 10
23.0752495659722
 20
12.3777113172743
 30
0.0
 11
23.0752495659722
 21
-12.3777113172743
 31
0.0
  0
LINE
  5
879
330
876
100
AcDbEntity
  8
WIRING
 62
     7
100
AcDbLine
 10
-20.56670328776041
 20
-11.12369656032986
 30
0.0
 11
20.56722005208333
 21
-11.12369656032986
 31
0.0
  0
INSERT
  5
87A
330
876
100
AcDbEntity
  8
WIRING
 62
     7
100
AcDbBlockReference
  2
AI9-BLK39
 10
-21.82089029947916
 20
-11.12369656032986
 30
0.0
  0
INSERT
  5
87B
330
876
100
AcDbEntity
  8
WIRING
 62
     7
100
AcDbBlockReference
  2
AI9-BLK38
 10
21.82123480902776
 20
-11.12369656032986
 30
0.0
  0
MTEXT
  5
87C
330
876
100
AcDbEntity
  8
WIRING
 62
     7
100
AcDbMText
 10
-1.348065863715275
 20
-8.590412824565452
 30
0.0
 40
2.006528635938015
 41
0.0
 71
     1
 72
     2
  1
\fMS Gothic|b0|i0|c128;46
  7
STD
 73
     1
 44
1.0
  0
ENDBLK
  5
87E
330
876
100
AcDbEntity
  8
WIRING
100
AcDbBlockEnd
  0
BLOCK
  5
883
330
87F
100
AcDbEntity
  8
WIRING
 62
     7
100
AcDbBlockBegin
  2
AI9-BLK38
 70
     0
 71
     1
 10
0.0
 20
0.0
 30
0.0
  3
AI9-BLK38
  1

  0
LINE
  5
880
330
87F
100
AcDbEntity
  8
WIRING
 62
     7
100
AcDbLine
 10
-1.254014756944442
 20
0.417890082465278
 30
0.0
 11
1.254014756944442
 21
0.0
 31
0.0
  0
LINE
  5
881
330
87F
100
AcDbEntity
  8
WIRING
 62
     7
100
AcDbLine
 10
1.254014756944442
 20
0.0
 30
0.0
 11
-1.254014756944442
 21
-0.417890082465278
 31
0.0
  0
LINE
  5
882
330
87F
100
AcDbEntity
  8
WIRING
 62
     7
100
AcDbLine
 10
1.254014756944442
 20
0.0
 30
0.0
 11
-1.254014756944442
 21
0.0
 31
0.0
  0
ENDBLK
  5
884
330
87F
100
AcDbEntity
  8
WIRING
100
AcDbBlockEnd
  0
BLOCK
  5
889
330
885
100
AcDbEntity
  8
WIRING
 62
     7
100
AcDbBlockBegin
  2
AI9-BLK39
 70
     0
 71
     1
 10
0.0
 20
0.0
 30
0.0
  3
AI9-BLK39
  1

  0
LINE
  5
886
330
885
100
AcDbEntity
  8
WIRING
 62
     7
100
AcDbLine
 10
1.254187011718749
 20
-0.417890082465278
 30
0.0
 11
-1.254187011718749
 21
0.0
 31
0.0
  0
LINE
  5
887
330
885
100
AcDbEntity
  8
WIRING
 62
     7
100
AcDbLine
 10
-1.254187011718749
 20
0.0
 30
0.0
 11
1.254187011718749
 21
0.417890082465278
 31
0.0
  0
LINE
  5
888
330
885
100
AcDbEntity
  8
WIRING
 62
     7
100
AcDbLine
 10
-1.254187011718749
 20
0.0
 30
0.0
 11
1.254187011718749
 21
0.0
 31
0.0
  0
ENDBLK
  5
88A
330
885
100
AcDbEntity
  8
WIRING
100
AcDbBlockEnd
  0
ENDSEC
  0
SECTION
  2
ENTITIES
  0
LINE
  5
8A
330
1E
100
AcDbEntity
  8
1
  6
HIDDEN
 62
     7
100
AcDbLine
 10
75.5
 20
268.5
 30
0.0
 11
78.2
 21
276.8
 31
0.0
  0
LINE
  5
8B
330
1E
100
AcDbEntity
  8
1
  6
HIDDEN
 62
     7
100
AcDbLine
 10
78.2
 20
276.8
 30
0.0
 11
106.8
 21
276.8
 31
0.0
  0
LINE
  5
8C
330
1E
100
AcDbEntity
  8
1
  6
HIDDEN
 62
     7
100
AcDbLine
 10
106.8
 20
276.8
 30
0.0
 11
109.4999999999999
 21
268.5
 31
0.0
  0
LINE
  5
8D
330
1E
100
AcDbEntity
  8
1
  6
HIDDEN
 62
     7
100
AcDbLine
 10
80.0
 20
268.5
 30
0.0
 11
80.0
 21
271.3999999999999
 31
0.0
  0
LINE
  5
8E
330
1E
100
AcDbEntity
  8
1
  6
HIDDEN
 62
     7
100
AcDbLine
 10
85.0
 20
268.5
 30
0.0
 11
85.0
 21
271.3999999999999
 31
0.0
  0
ARC
  5
8F
330
1E
100
AcDbEntity
  8
1
  6
HIDDEN
 62
     7
100
AcDbCircle
 10
82.5
 20
271.3999999999999
 30
0.0
 40
2.5
100
AcDbArc
 50
0.0
 51
180.0
  0
LINE
  5
90
330
1E
100
AcDbEntity
  8
1
  6
HIDDEN
 62
     7
100
AcDbLine
 10
88.49999999999999
 20
276.8
 30
0.0
 11
88.49999999999999
 21
271.4999999999999
 31
0.0
  0
LINE
  5
91
330
1E
100
AcDbEntity
  8
1
  6
HIDDEN
 62
     7
100
AcDbLine
 10
88.49999999999999
 20
271.4999999999999
 30
0.0
 11
96.5
 21
271.4999999999999
 31
0.0
  0
LINE
  5
92
330
1E
100
AcDbEntity
  8
1
  6
HIDDEN
 62
     7
100
AcDbLine
 10
96.5
 20
271.4999999999999
 30
0.0
 11
96.5
 21
276.8
 31
0.0
  0
LINE
  5
BE
330
1E
100
AcDbEntity
  8
1
  6
Continuous
 62
     7
100
AcDbLine
 10
205.9921481840607
 20
214.5
 30
0.0
 11
205.9921401840608
 21
268.5
 31
0.0
  0
LINE
  5
BF
330
1E
100
AcDbEntity
  8
1
  6
Continuous
 62
     7
100
AcDbLine
 10
194.9921481840608
 20
215.5
 30
0.0
 11
195.9363991840607
 21
215.027871
 31
0.0
  0
LINE
  5
C0
330
1E
100
AcDbEntity
  8
1
  6
Continuous
 62
     7
100
AcDbLine
 10
198.1724811840608
 20
214.5
 30
0.0
 11
302.4921481840609
 21
214.5
 31
0.0
  0
ARC
  5
C1
330
1E
100
AcDbEntity
  8
1
  6
Continuous
 62
     7
100
AcDbCircle
 10
198.1724811840608
 20
219.4999999999999
 30
0.0
 40
5.0
100
AcDbArc
 50
243.43477
 51
270.0
  0
LINE
  5
C2
330
1E
100
AcDbEntity
  8
1
  6
Continuous
 62
     7
100
AcDbLine
 10
192.4921411840609
 20
263.5
 30
0.0
 11
194.9921481840608
 21
215.5
 31
0.0
  0
LINE
  5
C3
330
1E
100
AcDbEntity
  8
1
  6
Continuous
 62
     7
100
AcDbLine
 10
192.4921411840609
 20
263.5
 30
0.0
 11
192.4921411840609
 21
265.5
 31
0.0
  0
LINE
  5
C4
330
1E
100
AcDbEntity
  8
1
  6
Continuous
 62
     7
100
AcDbLine
 10
192.4921411840609
 20
265.5
 30
0.0
 11
195.7325091840608
 21
267.660249
 31
0.0
  0
LINE
  5
C5
330
1E
100
AcDbEntity
  8
1
  6
Continuous
 62
     7
100
AcDbLine
 10
198.5060131840609
 20
268.5
 30
0.0
 11
302.4921401840609
 21
268.5
 31
0.0
  0
ARC
  5
C6
330
1E
100
AcDbEntity
  8
1
  6
Continuous
 62
     7
100
AcDbCircle
 10
198.5060131840609
 20
263.5
 30
0.0
 40
5.0
100
AcDbArc
 50
90.0
 51
123.6901159999999
  0
LINE
  5
C7
330
1E
100
AcDbEntity
  8
1
  6
Continuous
 62
     7
100
AcDbLine
 10
190.9921481840608
 20
219.4999999999999
 30
0.0
 11
192.4921411840609
 21
263.5
 31
0.0
  0
ARC
  5
C8
330
1E
100
AcDbEntity
  8
1
  6
Continuous
 62
     7
100
AcDbCircle
 10
197.8654251840607
 20
222.3732779999999
 30
0.0
 40
7.449675999999998
100
AcDbArc
 50
202.6866879999999
 51
247.3133199999999
  0
LINE
  5
C9
330
1E
100
AcDbEntity
  8
1
  6
Continuous
 62
     7
100
AcDbLine
 10
190.4921421840608
 20
257.0
 30
0.0
 11
190.4921471840608
 21
226.0
 31
0.0
  0
LINE
  5
CA
330
1E
100
AcDbEntity
  8
1
  6
Continuous
 62
     7
100
AcDbLine
 10
190.4921421840608
 20
257.0
 30
0.0
 11
190.9921421840609
 21
258.0
 31
0.0
  0
LINE
  5
CB
330
1E
100
AcDbEntity
  8
1
  6
Continuous
 62
     7
100
AcDbLine
 10
190.4921471840608
 20
226.0000009999999
 30
0.0
 11
191.1676791840609
 21
224.6489379999999
 31
0.0
  0
LINE
  5
CC
330
1E
100
AcDbEntity
  8
1
  6
Continuous
 62
     7
100
AcDbLine
 10
190.9921421840609
 20
258.0
 30
0.0
 11
192.4921411840609
 21
265.5
 31
0.0
  0
LINE
  5
CD
330
1E
100
AcDbEntity
  8
1
  6
Continuous
 62
     7
100
AcDbLine
 10
302.4921401840609
 20
268.5
 30
0.0
 11
302.4921481840609
 21
214.5
 31
0.0
  0
LINE
  5
CE
330
1E
100
AcDbEntity
  8
1
  6
Continuous
 62
     7
100
AcDbLine
 10
298.9921401840609
 20
268.5
 30
0.0
 11
298.9921411840608
 21
265.5
 31
0.0
  0
LINE
  5
CF
330
1E
100
AcDbEntity
  8
1
  6
Continuous
 62
     7
100
AcDbLine
 10
298.9921411840608
 20
265.5
 30
0.0
 11
297.9921431840608
 21
252.4999999999999
 31
0.0
  0
LINE
  5
D0
330
1E
100
AcDbEntity
  8
1
  6
Continuous
 62
     7
100
AcDbLine
 10
297.9921431840608
 20
252.4999999999999
 30
0.0
 11
297.9921451840608
 21
237.5
 31
0.0
  0
LINE
  5
D1
330
1E
100
AcDbEntity
  8
1
  6
Continuous
 62
     7
100
AcDbLine
 10
297.9921451840608
 20
237.5
 30
0.0
 11
298.9921481840609
 21
214.5
 31
0.0
  0
LINE
  5
F2
330
1E
100
AcDbEntity
  8
1
  6
HIDDEN
 62
     7
100
AcDbLine
 10
222.2421301840609
 20
268.5
 30
0.0
 11
225.2421301840608
 21
276.8
 31
0.0
  0
LINE
  5
F3
330
1E
100
AcDbEntity
  8
1
  6
HIDDEN
 62
     7
100
AcDbLine
 10
225.2421301840608
 20
276.8
 30
0.0
 11
269.2421301840608
 21
276.8
 31
0.0
  0
LINE
  5
F4
330
1E
100
AcDbEntity
  8
1
  6
HIDDEN
 62
     7
100
AcDbLine
 10
269.2421301840608
 20
276.8
 30
0.0
 11
272.2421301840607
 21
268.5
 31
0.0
  0
LINE
  5
F5
330
1E
100
AcDbEntity
  8
1
  6
HIDDEN
 62
     7
100
AcDbLine
 10
222.2421381840609
 20
214.4999869999999
 30
0.0
 11
225.2421401840608
 21
206.199988
 31
0.0
  0
LINE
  5
F6
330
1E
100
AcDbEntity
  8
1
  6
HIDDEN
 62
     7
100
AcDbLine
 10
225.2421401840608
 20
206.199988
 30
0.0
 11
269.2421401840608
 21
206.200001
 31
0.0
  0
LINE
  5
F7
330
1E
100
AcDbEntity
  8
1
  6
HIDDEN
 62
     7
100
AcDbLine
 10
269.2421401840608
 20
206.200001
 30
0.0
 11
272.2421381840608
 21
214.5000009999999
 31
0.0
  0
LINE
  5
F8
330
1E
100
AcDbEntity
  8
1
  6
Continuous
 62
     7
100
AcDbLine
 10
205.9921441840609
 20
244.4999999999999
 30
0.0
 11
297.9921441840609
 21
244.4999999999999
 31
0.0
  0
LINE
  5
F9
330
1E
100
AcDbEntity
  8
1
  6
Continuous
 62
     7
100
AcDbLine
 10
297.9921441840609
 20
243.5
 30
0.0
 11
205.9921441840609
 21
243.5
 31
0.0
  0
LINE
  5
FA
330
1E
100
AcDbEntity
  8
1
  6
Continuous
 62
     7
100
AcDbLine
 10
266.4921411840608
 20
261.8
 30
0.0
 11
266.4921411840608
 21
252.8
 31
0.0
  0
LINE
  5
FB
330
1E
100
AcDbEntity
  8
1
  6
Continuous
 62
     7
100
AcDbLine
 10
266.4921411840608
 20
252.8
 30
0.0
 11
287.4921431840608
 21
252.8
 31
0.0
  0
LINE
  5
FC
330
1E
100
AcDbEntity
  8
1
  6
Continuous
 62
     7
100
AcDbLine
 10
287.4921431840608
 20
252.8
 30
0.0
 11
287.4921431840608
 21
261.8
 31
0.0
  0
LINE
  5
FD
330
1E
100
AcDbEntity
  8
1
  6
Continuous
 62
     7
100
AcDbLine
 10
287.4921431840608
 20
261.8
 30
0.0
 11
266.4921411840608
 21
261.8
 31
0.0
  0
CIRCLE
  5
FE
330
1E
100
AcDbEntity
  8
1
  6
Continuous
 62
     7
100
AcDbCircle
 10
294.4921431840608
 20
249.5
 30
0.0
 40
2.0
  0
CIRCLE
  5
FF
330
1E
100
AcDbEntity
  8
1
  6
Continuous
 62
     7
100
AcDbCircle
 10
294.4921451840608
 20
239.5
 30
0.0
 40
2.0
  0
LINE
  5
100
330
1E
100
AcDbEntity
  8
1
  6
Continuous
 62
     7
100
AcDbLine
 10
293.4921431840608
 20
249.5
 30
0.0
 11
295.4921431840608
 21
249.5
 31
0.0
  0
LINE
  5
101
330
1E
100
AcDbEntity
  8
1
  6
Continuous
 62
     7
100
AcDbLine
 10
294.4921431840608
 20
250.4999999999999
 30
0.0
 11
294.4921431840608
 21
248.4999999999998
 31
0.0
  0
LINE
  5
102
330
1E
100
AcDbEntity
  8
1
  6
Continuous
 62
     7
100
AcDbLine
 10
293.4921451840608
 20
239.5
 30
0.0
 11
295.4921451840608
 21
239.5
 31
0.0
  0
LINE
  5
103
330
1E
100
AcDbEntity
  8
1
  6
Continuous
 62
     7
100
AcDbLine
 10
294.4921451840608
 20
240.5
 30
0.0
 11
294.4921451840608
 21
238.5
 31
0.0
  0
CIRCLE
  5
104
330
1E
100
AcDbEntity
  8
1
  6
Continuous
 62
     7
100
AcDbCircle
 10
210.4921431840608
 20
249.5
 30
0.0
 40
2.0
  0
CIRCLE
  5
105
330
1E
100
AcDbEntity
  8
1
  6
Continuous
 62
     7
100
AcDbCircle
 10
210.4921451840608
 20
239.5
 30
0.0
 40
2.0
  0
LINE
  5
106
330
1E
100
AcDbEntity
  8
1
  6
Continuous
 62
     7
100
AcDbLine
 10
209.4921431840608
 20
249.5
 30
0.0
 11
211.4921431840608
 21
249.5
 31
0.0
  0
LINE
  5
107
330
1E
100
AcDbEntity
  8
1
  6
Continuous
 62
     7
100
AcDbLine
 10
210.4921431840608
 20
250.4999999999999
 30
0.0
 11
210.4921431840608
 21
248.4999999999998
 31
0.0
  0
LINE
  5
108
330
1E
100
AcDbEntity
  8
1
  6
Continuous
 62
     7
100
AcDbLine
 10
209.4921451840607
 20
239.5
 30
0.0
 11
211.4921451840607
 21
239.5
 31
0.0
  0
LINE
  5
109
330
1E
100
AcDbEntity
  8
1
  6
Continuous
 62
     7
100
AcDbLine
 10
210.4921451840608
 20
240.5
 30
0.0
 11
210.4921451840608
 21
238.5
 31
0.0
  0
LINE
  5
13E
330
1E
100
AcDbEntity
  8
1
  6
HIDDEN
 62
     7
100
AcDbLine
 10
75.5
 20
214.5
 30
0.0
 11
78.2
 21
206.1999999999999
 31
0.0
  0
LINE
  5
13F
330
1E
100
AcDbEntity
  8
1
  6
HIDDEN
 62
     7
100
AcDbLine
 10
78.2
 20
206.1999999999999
 30
0.0
 11
106.8
 21
206.1999999999999
 31
0.0
  0
LINE
  5
140
330
1E
100
AcDbEntity
  8
1
  6
HIDDEN
 62
     7
100
AcDbLine
 10
106.8
 20
206.1999999999999
 30
0.0
 11
109.4999999999999
 21
214.5
 31
0.0
  0
LINE
  5
141
330
1E
100
AcDbEntity
  8
1
  6
HIDDEN
 62
     7
100
AcDbLine
 10
80.0
 20
214.5
 30
0.0
 11
80.0
 21
211.6
 31
0.0
  0
LINE
  5
142
330
1E
100
AcDbEntity
  8
1
  6
HIDDEN
 62
     7
100
AcDbLine
 10
85.0
 20
214.5
 30
0.0
 11
85.0
 21
211.6
 31
0.0
  0
ARC
  5
143
330
1E
100
AcDbEntity
  8
1
  6
HIDDEN
 62
     7
100
AcDbCircle
 10
82.5
 20
211.6
 30
0.0
 40
2.5
100
AcDbArc
 50
180.0
 51
0.0
  0
LINE
  5
144
330
1E
100
AcDbEntity
  8
1
  6
HIDDEN
 62
     7
100
AcDbLine
 10
88.49999999999999
 20
206.1999999999999
 30
0.0
 11
88.49999999999999
 21
211.5
 31
0.0
  0
LINE
  5
145
330
1E
100
AcDbEntity
  8
1
  6
HIDDEN
 62
     7
100
AcDbLine
 10
88.49999999999999
 20
211.5
 30
0.0
 11
96.5
 21
211.5
 31
0.0
  0
LINE
  5
146
330
1E
100
AcDbEntity
  8
1
  6
HIDDEN
 62
     7
100
AcDbLine
 10
96.5
 20
211.5
 30
0.0
 11
96.5
 21
206.1999999999999
 31
0.0
  0
LINE
  5
147
330
1E
100
AcDbEntity
  8
1
  6
Continuous
 62
     7
100
AcDbLine
 10
75.0
 20
268.5
 30
0.0
 11
110.0
 21
268.5
 31
0.0
  0
ARC
  5
148
330
1E
100
AcDbEntity
  8
1
  6
Continuous
 62
     7
100
AcDbCircle
 10
68.5
 20
218.5
 30
0.0
 40
4.0
100
AcDbArc
 50
180.0
 51
270.0
  0
LINE
  5
149
330
1E
100
AcDbEntity
  8
1
  6
Continuous
 62
     7
100
AcDbLine
 10
68.5
 20
214.5
 30
0.0
 11
116.5
 21
214.5
 31
0.0
  0
ARC
  5
14A
330
1E
100
AcDbEntity
  8
1
  6
Continuous
 62
     7
100
AcDbCircle
 10
116.5
 20
218.5
 30
0.0
 40
4.0
100
AcDbArc
 50
270.0
 51
0.0
  0
LINE
  5
14B
330
1E
100
AcDbEntity
  8
1
  6
Continuous
 62
     7
100
AcDbLine
 10
64.5
 20
264.745699
 30
0.0
 11
64.5
 21
218.5
 31
0.0
  0
LINE
  5
14C
330
1E
100
AcDbEntity
  8
1
  6
Continuous
 62
     7
100
AcDbLine
 10
65.225279
 20
265.707223
 30
0.0
 11
75.0
 21
268.5
 31
0.0
  0
ARC
  5
14D
330
1E
100
AcDbEntity
  8
1
  6
Continuous
 62
     7
100
AcDbCircle
 10
65.5
 20
264.745699
 30
0.0
 40
1.0
100
AcDbArc
 50
105.9453959999999
 51
180.0
  0
LINE
  5
14E
330
1E
100
AcDbEntity
  8
1
  6
Continuous
 62
     7
100
AcDbLine
 10
120.5
 20
218.5
 30
0.0
 11
120.5
 21
264.745699
 31
0.0
  0
LINE
  5
14F
330
1E
100
AcDbEntity
  8
1
  6
Continuous
 62
     7
100
AcDbLine
 10
110.0
 20
268.5
 30
0.0
 11
119.7747209999999
 21
265.707223
 31
0.0
  0
ARC
  5
150
330
1E
100
AcDbEntity
  8
1
  6
Continuous
 62
     7
100
AcDbCircle
 10
119.5
 20
264.745699
 30
0.0
 40
1.0
100
AcDbArc
 50
0.0
 51
74.05460399999999
  0
ARC
  5
151
330
1E
100
AcDbEntity
  8
1
  6
Continuous
 62
     7
100
AcDbCircle
 10
92.5
 20
290.290558
 30
0.0
 40
27.947781
100
AcDbArc
 50
231.2320479999999
 51
245.7020529999999
  0
ARC
  5
152
330
1E
100
AcDbEntity
  8
1
  6
Continuous
 62
     7
100
AcDbCircle
 10
92.5
 20
241.5
 30
0.0
 40
26.0
100
AcDbArc
 50
63.60001
 51
116.251214
  0
ARC
  5
153
330
1E
100
AcDbEntity
  8
1
  6
Continuous
 62
     7
100
AcDbCircle
 10
92.5
 20
241.5
 30
0.0
 40
25.3
100
AcDbArc
 50
63.00993700000001
 51
116.9900629999999
  0
LINE
  5
155
330
1E
100
AcDbEntity
  8
1
  6
Continuous
 62
     7
100
AcDbLine
 10
79.5
 20
264.762235
 30
0.0
 11
79.5
 21
265.55034
 31
0.0
  0
LINE
  5
156
330
1E
100
AcDbEntity
  8
1
  6
Continuous
 62
     7
100
AcDbLine
 10
105.4999999999999
 20
265.55034
 30
0.0
 11
105.4999999999999
 21
264.762235
 31
0.0
  0
ARC
  5
157
330
1E
100
AcDbEntity
  8
1
  6
Continuous
 62
     7
100
AcDbCircle
 10
92.5
 20
290.2905589999998
 30
0.0
 40
27.947781
100
AcDbArc
 50
294.2979459999999
 51
308.76795
  0
CIRCLE
  5
158
330
1E
100
AcDbEntity
  8
1
  6
Continuous
 62
     7
100
AcDbCircle
 10
92.5
 20
241.5
 30
0.0
 40
12.5
  0
CIRCLE
  5
159
330
1E
100
AcDbEntity
  8
1
  6
Continuous
 62
     7
100
AcDbCircle
 10
92.5
 20
241.5
 30
0.0
 40
15.09999999999999
  0
LINE
  5
15A
330
1E
100
AcDbEntity
  8
1
  6
Continuous
 62
     7
100
AcDbLine
 10
110.4999999999999
 20
265.5
 30
0.0
 11
117.5
 21
263.5
 31
0.0
  0
LINE
  5
15E
330
1E
100
AcDbEntity
  8
1
  6
Continuous
 62
     7
100
AcDbLine
 10
75.0
 20
268.5
 30
0.0
 11
74.5
 21
265.5
 31
0.0
  0
LINE
  5
15F
330
1E
100
AcDbEntity
  8
1
  6
Continuous
 62
     7
100
AcDbLine
 10
110.0
 20
268.5
 30
0.0
 11
110.4999999999999
 21
265.5
 31
0.0
  0
LINE
  5
160
330
1E
100
AcDbEntity
  8
1
  6
Continuous
 62
     7
100
AcDbLine
 10
67.5
 20
263.5
 30
0.0
 11
67.52379399999999
 21
261.406269
 31
0.0
  0
LINE
  5
161
330
1E
100
AcDbEntity
  8
1
  6
Continuous
 62
     7
100
AcDbLine
 10
67.52379399999999
 20
261.406269
 30
0.0
 11
67.59513299999999
 21
259.316524
 31
0.0
  0
LINE
  5
162
330
1E
100
AcDbEntity
  8
1
  6
Continuous
 62
     7
100
AcDbLine
 10
67.59513299999999
 20
259.316524
 30
0.0
 11
67.71387800000001
 21
257.234743
 31
0.0
  0
LINE
  5
163
330
1E
100
AcDbEntity
  8
1
  6
Continuous
 62
     7
100
AcDbLine
 10
67.71387800000001
 20
257.234743
 30
0.0
 11
67.879806
 21
255.164887
 31
0.0
  0
LINE
  5
164
330
1E
100
AcDbEntity
  8
1
  6
Continuous
 62
     7
100
AcDbLine
 10
67.879806
 20
255.164887
 30
0.0
 11
68.0926
 21
253.110899
 31
0.0
  0
LINE
  5
165
330
1E
100
AcDbEntity
  8
1
  6
Continuous
 62
     7
100
AcDbLine
 10
68.0926
 20
253.110899
 30
0.0
 11
68.351854
 21
251.0766859999999
 31
0.0
  0
LINE
  5
166
330
1E
100
AcDbEntity
  8
1
  6
Continuous
 62
     7
100
AcDbLine
 10
68.351854
 20
251.0766859999999
 30
0.0
 11
68.657076
 21
249.066122
 31
0.0
  0
LINE
  5
167
330
1E
100
AcDbEntity
  8
1
  6
Continuous
 62
     7
100
AcDbLine
 10
68.657076
 20
249.066122
 30
0.0
 11
69.007684
 21
247.083033
 31
0.0
  0
LINE
  5
168
330
1E
100
AcDbEntity
  8
1
  6
Continuous
 62
     7
100
AcDbLine
 10
69.007684
 20
247.083033
 30
0.0
 11
69.403012
 21
245.131195
 31
0.0
  0
LINE
  5
169
330
1E
100
AcDbEntity
  8
1
  6
Continuous
 62
     7
100
AcDbLine
 10
69.403012
 20
245.131195
 30
0.0
 11
69.84230500000001
 21
243.214323
 31
0.0
  0
LINE
  5
16A
330
1E
100
AcDbEntity
  8
1
  6
Continuous
 62
     7
100
AcDbLine
 10
69.84230500000001
 20
243.214323
 30
0.0
 11
70.32472900000001
 21
241.3360669999999
 31
0.0
  0
LINE
  5
16B
330
1E
100
AcDbEntity
  8
1
  6
Continuous
 62
     7
100
AcDbLine
 10
70.32472900000001
 20
241.3360669999999
 30
0.0
 11
70.84936500000002
 21
239.5
 31
0.0
  0
LINE
  5
16C
330
1E
100
AcDbEntity
  8
1
  6
Continuous
 62
     7
100
AcDbLine
 10
70.84936500000002
 20
239.5
 30
0.0
 11
71.41521400000002
 21
237.709619
 31
0.0
  0
LINE
  5
16D
330
1E
100
AcDbEntity
  8
1
  6
Continuous
 62
     7
100
AcDbLine
 10
71.41521400000002
 20
237.709619
 30
0.0
 11
72.02119899999998
 21
235.968331
 31
0.0
  0
LINE
  5
16E
330
1E
100
AcDbEntity
  8
1
  6
Continuous
 62
     7
100
AcDbLine
 10
72.02119899999998
 20
235.968331
 30
0.0
 11
72.666166
 21
234.2794509999999
 31
0.0
  0
LINE
  5
16F
330
1E
100
AcDbEntity
  8
1
  6
Continuous
 62
     7
100
AcDbLine
 10
72.666166
 20
234.2794509999999
 30
0.0
 11
73.348889
 21
232.646195
 31
0.0
  0
LINE
  5
170
330
1E
100
AcDbEntity
  8
1
  6
Continuous
 62
     7
100
AcDbLine
 10
73.348889
 20
232.646195
 30
0.0
 11
74.068067
 21
231.0716699999999
 31
0.0
  0
LINE
  5
171
330
1E
100
AcDbEntity
  8
1
  6
Continuous
 62
     7
100
AcDbLine
 10
74.068067
 20
231.0716699999999
 30
0.0
 11
74.82233
 21
229.5588749999999
 31
0.0
  0
LINE
  5
172
330
1E
100
AcDbEntity
  8
1
  6
Continuous
 62
     7
100
AcDbLine
 10
74.82233
 20
229.5588749999999
 30
0.0
 11
75.61024499999998
 21
228.1106879999999
 31
0.0
  0
LINE
  5
173
330
1E
100
AcDbEntity
  8
1
  6
Continuous
 62
     7
100
AcDbLine
 10
75.61024499999998
 20
228.1106879999999
 30
0.0
 11
76.43030999999997
 21
226.7298669999999
 31
0.0
  0
LINE
  5
174
330
1E
100
AcDbEntity
  8
1
  6
Continuous
 62
     7
100
AcDbLine
 10
76.43030999999997
 20
226.7298669999999
 30
0.0
 11
77.280964
 21
225.41904
 31
0.0
  0
LINE
  5
175
330
1E
100
AcDbEntity
  8
1
  6
Continuous
 62
     7
100
AcDbLine
 10
77.280964
 20
225.41904
 30
0.0
 11
78.160589
 21
224.1807019999999
 31
0.0
  0
LINE
  5
176
330
1E
100
AcDbEntity
  8
1
  6
Continuous
 62
     7
100
AcDbLine
 10
78.160589
 20
224.1807019999999
 30
0.0
 11
79.06750999999998
 21
223.0172109999999
 31
0.0
  0
LINE
  5
177
330
1E
100
AcDbEntity
  8
1
  6
Continuous
 62
     7
100
AcDbLine
 10
79.06750999999998
 20
223.0172109999999
 30
0.0
 11
80.0
 21
221.930781
 31
0.0
  0
LINE
  5
178
330
1E
100
AcDbEntity
  8
1
  6
Continuous
 62
     7
100
AcDbLine
 10
80.0
 20
221.930781
 30
0.0
 11
80.956285
 21
220.9234799999999
 31
0.0
  0
LINE
  5
179
330
1E
100
AcDbEntity
  8
1
  6
Continuous
 62
     7
100
AcDbLine
 10
80.956285
 20
220.9234799999999
 30
0.0
 11
81.934543
 21
219.997226
 31
0.0
  0
LINE
  5
17A
330
1E
100
AcDbEntity
  8
1
  6
Continuous
 62
     7
100
AcDbLine
 10
81.934543
 20
219.997226
 30
0.0
 11
82.93291399999999
 21
219.1537819999999
 31
0.0
  0
LINE
  5
17B
330
1E
100
AcDbEntity
  8
1
  6
Continuous
 62
     7
100
AcDbLine
 10
82.93291399999999
 20
219.1537819999999
 30
0.0
 11
83.949496
 21
218.394754
 31
0.0
  0
LINE
  5
17C
330
1E
100
AcDbEntity
  8
1
  6
Continuous
 62
     7
100
AcDbLine
 10
83.949496
 20
218.394754
 30
0.0
 11
84.98235499999998
 21
217.721586
 31
0.0
  0
LINE
  5
17D
330
1E
100
AcDbEntity
  8
1
  6
Continuous
 62
     7
100
AcDbLine
 10
84.98235499999998
 20
217.721586
 30
0.0
 11
86.02952399999997
 21
217.13556
 31
0.0
  0
LINE
  5
17E
330
1E
100
AcDbEntity
  8
1
  6
Continuous
 62
     7
100
AcDbLine
 10
86.02952399999997
 20
217.13556
 30
0.0
 11
87.08901
 21
216.6377919999999
 31
0.0
  0
LINE
  5
17F
330
1E
100
AcDbEntity
  8
1
  6
Continuous
 62
     7
100
AcDbLine
 10
87.08901
 20
216.6377919999999
 30
0.0
 11
88.158796
 21
216.2292279999999
 31
0.0
  0
LINE
  5
180
330
1E
100
AcDbEntity
  8
1
  6
Continuous
 62
     7
100
AcDbLine
 10
88.158796
 20
216.2292279999999
 30
0.0
 11
89.236845
 21
215.910647
 31
0.0
  0
LINE
  5
181
330
1E
100
AcDbEntity
  8
1
  6
Continuous
 62
     7
100
AcDbLine
 10
89.236845
 20
215.910647
 30
0.0
 11
90.32110600000001
 21
215.682654
 31
0.0
  0
LINE
  5
182
330
1E
100
AcDbEntity
  8
1
  6
Continuous
 62
     7
100
AcDbLine
 10
90.32110600000001
 20
215.682654
 30
0.0
 11
91.40951499999999
 21
215.545685
 31
0.0
  0
LINE
  5
183
330
1E
100
AcDbEntity
  8
1
  6
Continuous
 62
     7
100
AcDbLine
 10
91.40951499999999
 20
215.545685
 30
0.0
 11
92.5
 21
215.5
 31
0.0
  0
LINE
  5
184
330
1E
100
AcDbEntity
  8
1
  6
Continuous
 62
     7
100
AcDbLine
 10
92.5
 20
215.5
 30
0.0
 11
93.590485
 21
215.545685
 31
0.0
  0
LINE
  5
185
330
1E
100
AcDbEntity
  8
1
  6
Continuous
 62
     7
100
AcDbLine
 10
93.590485
 20
215.545685
 30
0.0
 11
94.678894
 21
215.682654
 31
0.0
  0
LINE
  5
186
330
1E
100
AcDbEntity
  8
1
  6
Continuous
 62
     7
100
AcDbLine
 10
94.678894
 20
215.682654
 30
0.0
 11
95.76315499999999
 21
215.910647
 31
0.0
  0
LINE
  5
187
330
1E
100
AcDbEntity
  8
1
  6
Continuous
 62
     7
100
AcDbLine
 10
95.76315499999999
 20
215.910647
 30
0.0
 11
96.84120400000001
 21
216.2292279999999
 31
0.0
  0
LINE
  5
188
330
1E
100
AcDbEntity
  8
1
  6
Continuous
 62
     7
100
AcDbLine
 10
96.84120400000001
 20
216.2292279999999
 30
0.0
 11
97.91099
 21
216.6377919999999
 31
0.0
  0
LINE
  5
189
330
1E
100
AcDbEntity
  8
1
  6
Continuous
 62
     7
100
AcDbLine
 10
97.91099
 20
216.6377919999999
 30
0.0
 11
98.970476
 21
217.13556
 31
0.0
  0
LINE
  5
18A
330
1E
100
AcDbEntity
  8
1
  6
Continuous
 62
     7
100
AcDbLine
 10
98.970476
 20
217.13556
 30
0.0
 11
100.017645
 21
217.721586
 31
0.0
  0
LINE
  5
18B
330
1E
100
AcDbEntity
  8
1
  6
Continuous
 62
     7
100
AcDbLine
 10
100.017645
 20
217.721586
 30
0.0
 11
101.0505039999999
 21
218.394754
 31
0.0
  0
LINE
  5
18C
330
1E
100
AcDbEntity
  8
1
  6
Continuous
 62
     7
100
AcDbLine
 10
101.0505039999999
 20
218.394754
 30
0.0
 11
102.067086
 21
219.1537819999999
 31
0.0
  0
LINE
  5
18D
330
1E
100
AcDbEntity
  8
1
  6
Continuous
 62
     7
100
AcDbLine
 10
102.067086
 20
219.1537819999999
 30
0.0
 11
103.065457
 21
219.997226
 31
0.0
  0
LINE
  5
18E
330
1E
100
AcDbEntity
  8
1
  6
Continuous
 62
     7
100
AcDbLine
 10
103.065457
 20
219.997226
 30
0.0
 11
104.043715
 21
220.9234799999999
 31
0.0
  0
LINE
  5
18F
330
1E
100
AcDbEntity
  8
1
  6
Continuous
 62
     7
100
AcDbLine
 10
104.043715
 20
220.9234799999999
 30
0.0
 11
105.0
 21
221.930781
 31
0.0
  0
LINE
  5
190
330
1E
100
AcDbEntity
  8
1
  6
Continuous
 62
     7
100
AcDbLine
 10
105.0
 20
221.930781
 30
0.0
 11
105.9324899999999
 21
223.0172109999999
 31
0.0
  0
LINE
  5
191
330
1E
100
AcDbEntity
  8
1
  6
Continuous
 62
     7
100
AcDbLine
 10
105.9324899999999
 20
223.0172109999999
 30
0.0
 11
106.839411
 21
224.1807019999999
 31
0.0
  0
LINE
  5
192
330
1E
100
AcDbEntity
  8
1
  6
Continuous
 62
     7
100
AcDbLine
 10
106.839411
 20
224.1807019999999
 30
0.0
 11
107.719036
 21
225.41904
 31
0.0
  0
LINE
  5
193
330
1E
100
AcDbEntity
  8
1
  6
Continuous
 62
     7
100
AcDbLine
 10
107.719036
 20
225.41904
 30
0.0
 11
108.56969
 21
226.7298669999999
 31
0.0
  0
LINE
  5
194
330
1E
100
AcDbEntity
  8
1
  6
Continuous
 62
     7
100
AcDbLine
 10
108.56969
 20
226.7298669999999
 30
0.0
 11
109.389755
 21
228.1106879999999
 31
0.0
  0
LINE
  5
195
330
1E
100
AcDbEntity
  8
1
  6
Continuous
 62
     7
100
AcDbLine
 10
109.389755
 20
228.1106879999999
 30
0.0
 11
110.17767
 21
229.5588749999999
 31
0.0
  0
LINE
  5
196
330
1E
100
AcDbEntity
  8
1
  6
Continuous
 62
     7
100
AcDbLine
 10
110.17767
 20
229.5588749999999
 30
0.0
 11
110.9319329999999
 21
231.0716699999999
 31
0.0
  0
LINE
  5
197
330
1E
100
AcDbEntity
  8
1
  6
Continuous
 62
     7
100
AcDbLine
 10
110.9319329999999
 20
231.0716699999999
 30
0.0
 11
111.651111
 21
232.646195
 31
0.0
  0
LINE
  5
198
330
1E
100
AcDbEntity
  8
1
  6
Continuous
 62
     7
100
AcDbLine
 10
111.651111
 20
232.646195
 30
0.0
 11
112.333834
 21
234.2794509999999
 31
0.0
  0
LINE
  5
199
330
1E
100
AcDbEntity
  8
1
  6
Continuous
 62
     7
100
AcDbLine
 10
112.333834
 20
234.2794509999999
 30
0.0
 11
112.978801
 21
235.968331
 31
0.0
  0
LINE
  5
19A
330
1E
100
AcDbEntity
  8
1
  6
Continuous
 62
     7
100
AcDbLine
 10
112.978801
 20
235.968331
 30
0.0
 11
113.584786
 21
237.709619
 31
0.0
  0
LINE
  5
19B
330
1E
100
AcDbEntity
  8
1
  6
Continuous
 62
     7
100
AcDbLine
 10
113.584786
 20
237.709619
 30
0.0
 11
114.150635
 21
239.5
 31
0.0
  0
LINE
  5
19C
330
1E
100
AcDbEntity
  8
1
  6
Continuous
 62
     7
100
AcDbLine
 10
114.150635
 20
239.5
 30
0.0
 11
114.6752709999999
 21
241.3360669999999
 31
0.0
  0
LINE
  5
19D
330
1E
100
AcDbEntity
  8
1
  6
Continuous
 62
     7
100
AcDbLine
 10
114.6752709999999
 20
241.3360669999999
 30
0.0
 11
115.1576949999999
 21
243.214323
 31
0.0
  0
LINE
  5
19E
330
1E
100
AcDbEntity
  8
1
  6
Continuous
 62
     7
100
AcDbLine
 10
115.1576949999999
 20
243.214323
 30
0.0
 11
115.5969879999999
 21
245.131195
 31
0.0
  0
LINE
  5
19F
330
1E
100
AcDbEntity
  8
1
  6
Continuous
 62
     7
100
AcDbLine
 10
115.5969879999999
 20
245.131195
 30
0.0
 11
115.9923159999999
 21
247.083033
 31
0.0
  0
LINE
  5
1A0
330
1E
100
AcDbEntity
  8
1
  6
Continuous
 62
     7
100
AcDbLine
 10
115.9923159999999
 20
247.083033
 30
0.0
 11
116.3429239999999
 21
249.066122
 31
0.0
  0
LINE
  5
1A1
330
1E
100
AcDbEntity
  8
1
  6
Continuous
 62
     7
100
AcDbLine
 10
116.3429239999999
 20
249.066122
 30
0.0
 11
116.6481459999999
 21
251.0766859999999
 31
0.0
  0
LINE
  5
1A2
330
1E
100
AcDbEntity
  8
1
  6
Continuous
 62
     7
100
AcDbLine
 10
116.6481459999999
 20
251.0766859999999
 30
0.0
 11
116.9073999999999
 21
253.110899
 31
0.0
  0
LINE
  5
1A3
330
1E
100
AcDbEntity
  8
1
  6
Continuous
 62
     7
100
AcDbLine
 10
116.9073999999999
 20
253.110899
 30
0.0
 11
117.1201939999999
 21
255.164887
 31
0.0
  0
LINE
  5
1A4
330
1E
100
AcDbEntity
  8
1
  6
Continuous
 62
     7
100
AcDbLine
 10
117.1201939999999
 20
255.164887
 30
0.0
 11
117.2861219999999
 21
257.234743
 31
0.0
  0
LINE
  5
1A5
330
1E
100
AcDbEntity
  8
1
  6
Continuous
 62
     7
100
AcDbLine
 10
117.2861219999999
 20
257.234743
 30
0.0
 11
117.4048669999999
 21
259.316524
 31
0.0
  0
LINE
  5
1A6
330
1E
100
AcDbEntity
  8
1
  6
Continuous
 62
     7
100
AcDbLine
 10
117.4048669999999
 20
259.316524
 30
0.0
 11
117.476206
 21
261.406269
 31
0.0
  0
LINE
  5
1A7
330
1E
100
AcDbEntity
  8
1
  6
Continuous
 62
     7
100
AcDbLine
 10
117.476206
 20
261.406269
 30
0.0
 11
117.5
 21
263.5
 31
0.0
  0
LINE
  5
1A8
330
1E
100
AcDbEntity
  8
1
  6
Continuous
 62
     7
100
AcDbLine
 10
67.5
 20
263.5
 30
0.0
 11
67.52379399999999
 21
261.733415
 31
0.0
  0
LINE
  5
1A9
330
1E
100
AcDbEntity
  8
1
  6
Continuous
 62
     7
100
AcDbLine
 10
67.52379399999999
 20
261.733415
 30
0.0
 11
67.59513299999999
 21
259.970192
 31
0.0
  0
LINE
  5
1AA
330
1E
100
AcDbEntity
  8
1
  6
Continuous
 62
     7
100
AcDbLine
 10
67.59513299999999
 20
259.970192
 30
0.0
 11
67.71387800000001
 21
258.213689
 31
0.0
  0
LINE
  5
1AB
330
1E
100
AcDbEntity
  8
1
  6
Continuous
 62
     7
100
AcDbLine
 10
67.71387800000001
 20
258.213689
 30
0.0
 11
67.879806
 21
256.467249
 31
0.0
  0
LINE
  5
1AC
330
1E
100
AcDbEntity
  8
1
  6
Continuous
 62
     7
100
AcDbLine
 10
67.879806
 20
256.467249
 30
0.0
 11
68.0926
 21
254.734196
 31
0.0
  0
LINE
  5
1AD
330
1E
100
AcDbEntity
  8
1
  6
Continuous
 62
     7
100
AcDbLine
 10
68.0926
 20
254.734196
 30
0.0
 11
68.351854
 21
253.017829
 31
0.0
  0
LINE
  5
1AE
330
1E
100
AcDbEntity
  8
1
  6
Continuous
 62
     7
100
AcDbLine
 10
68.351854
 20
253.017829
 30
0.0
 11
68.657076
 21
251.321415
 31
0.0
  0
LINE
  5
1AF
330
1E
100
AcDbEntity
  8
1
  6
Continuous
 62
     7
100
AcDbLine
 10
68.657076
 20
251.321415
 30
0.0
 11
69.007684
 21
249.6481839999999
 31
0.0
  0
LINE
  5
1B0
330
1E
100
AcDbEntity
  8
1
  6
Continuous
 62
     7
100
AcDbLine
 10
69.007684
 20
249.6481839999999
 30
0.0
 11
69.403012
 21
248.001321
 31
0.0
  0
LINE
  5
1B1
330
1E
100
AcDbEntity
  8
1
  6
Continuous
 62
     7
100
AcDbLine
 10
69.403012
 20
248.001321
 30
0.0
 11
69.84230500000001
 21
246.38396
 31
0.0
  0
LINE
  5
1B2
330
1E
100
AcDbEntity
  8
1
  6
Continuous
 62
     7
100
AcDbLine
 10
69.84230500000001
 20
246.38396
 30
0.0
 11
70.32472900000001
 21
244.7991809999999
 31
0.0
  0
LINE
  5
1B3
330
1E
100
AcDbEntity
  8
1
  6
Continuous
 62
     7
100
AcDbLine
 10
70.32472900000001
 20
244.7991809999999
 30
0.0
 11
70.84936500000002
 21
243.25
 31
0.0
  0
LINE
  5
1B4
330
1E
100
AcDbEntity
  8
1
  6
Continuous
 62
     7
100
AcDbLine
 10
70.84936500000002
 20
243.25
 30
0.0
 11
71.41521400000002
 21
241.739366
 31
0.0
  0
LINE
  5
1B5
330
1E
100
AcDbEntity
  8
1
  6
Continuous
 62
     7
100
AcDbLine
 10
71.41521400000002
 20
241.739366
 30
0.0
 11
72.02119899999998
 21
240.2701539999999
 31
0.0
  0
LINE
  5
1B6
330
1E
100
AcDbEntity
  8
1
  6
Continuous
 62
     7
100
AcDbLine
 10
72.02119899999998
 20
240.2701539999999
 30
0.0
 11
72.666166
 21
238.845162
 31
0.0
  0
LINE
  5
1B7
330
1E
100
AcDbEntity
  8
1
  6
Continuous
 62
     7
100
AcDbLine
 10
72.666166
 20
238.845162
 30
0.0
 11
73.348889
 21
237.467102
 31
0.0
  0
LINE
  5
1B8
330
1E
100
AcDbEntity
  8
1
  6
Continuous
 62
     7
100
AcDbLine
 10
73.348889
 20
237.467102
 30
0.0
 11
74.068067
 21
236.138597
 31
0.0
  0
LINE
  5
1B9
330
1E
100
AcDbEntity
  8
1
  6
Continuous
 62
     7
100
AcDbLine
 10
74.068067
 20
236.138597
 30
0.0
 11
74.82233
 21
234.8621749999999
 31
0.0
  0
LINE
  5
1BA
330
1E
100
AcDbEntity
  8
1
  6
Continuous
 62
     7
100
AcDbLine
 10
74.82233
 20
234.8621749999999
 30
0.0
 11
75.61024499999998
 21
233.640268
 31
0.0
  0
LINE
  5
1BB
330
1E
100
AcDbEntity
  8
1
  6
Continuous
 62
     7
100
AcDbLine
 10
75.61024499999998
 20
233.640268
 30
0.0
 11
76.43030999999997
 21
232.4752
 31
0.0
  0
LINE
  5
1BC
330
1E
100
AcDbEntity
  8
1
  6
Continuous
 62
     7
100
AcDbLine
 10
76.43030999999997
 20
232.4752
 30
0.0
 11
77.280964
 21
231.36919
 31
0.0
  0
LINE
  5
1BD
330
1E
100
AcDbEntity
  8
1
  6
Continuous
 62
     7
100
AcDbLine
 10
77.280964
 20
231.36919
 30
0.0
 11
78.160589
 21
230.324342
 31
0.0
  0
LINE
  5
1BE
330
1E
100
AcDbEntity
  8
1
  6
Continuous
 62
     7
100
AcDbLine
 10
78.160589
 20
230.324342
 30
0.0
 11
79.06750999999998
 21
229.342646
 31
0.0
  0
LINE
  5
1BF
330
1E
100
AcDbEntity
  8
1
  6
Continuous
 62
     7
100
AcDbLine
 10
79.06750999999998
 20
229.342646
 30
0.0
 11
80.0
 21
228.425971
 31
0.0
  0
LINE
  5
1C0
330
1E
100
AcDbEntity
  8
1
  6
Continuous
 62
     7
100
AcDbLine
 10
80.0
 20
228.425971
 30
0.0
 11
80.956285
 21
227.5760609999999
 31
0.0
  0
LINE
  5
1C1
330
1E
100
AcDbEntity
  8
1
  6
Continuous
 62
     7
100
AcDbLine
 10
80.956285
 20
227.5760609999999
 30
0.0
 11
81.934543
 21
226.794535
 31
0.0
  0
LINE
  5
1C2
330
1E
100
AcDbEntity
  8
1
  6
Continuous
 62
     7
100
AcDbLine
 10
81.934543
 20
226.794535
 30
0.0
 11
82.93291399999999
 21
226.082879
 31
0.0
  0
LINE
  5
1C3
330
1E
100
AcDbEntity
  8
1
  6
Continuous
 62
     7
100
AcDbLine
 10
82.93291399999999
 20
226.082879
 30
0.0
 11
83.949496
 21
225.442449
 31
0.0
  0
LINE
  5
1C4
330
1E
100
AcDbEntity
  8
1
  6
Continuous
 62
     7
100
AcDbLine
 10
83.949496
 20
225.442449
 30
0.0
 11
84.98235499999998
 21
224.874463
 31
0.0
  0
LINE
  5
1C5
330
1E
100
AcDbEntity
  8
1
  6
Continuous
 62
     7
100
AcDbLine
 10
84.98235499999998
 20
224.874463
 30
0.0
 11
86.02952399999997
 21
224.3800039999999
 31
0.0
  0
LINE
  5
1C6
330
1E
100
AcDbEntity
  8
1
  6
Continuous
 62
     7
100
AcDbLine
 10
86.02952399999997
 20
224.3800039999999
 30
0.0
 11
87.08901
 21
223.9600119999999
 31
0.0
  0
LINE
  5
1C7
330
1E
100
AcDbEntity
  8
1
  6
Continuous
 62
     7
100
AcDbLine
 10
87.08901
 20
223.9600119999999
 30
0.0
 11
88.158796
 21
223.615286
 31
0.0
  0
LINE
  5
1C8
330
1E
100
AcDbEntity
  8
1
  6
Continuous
 62
     7
100
AcDbLine
 10
88.158796
 20
223.615286
 30
0.0
 11
89.236845
 21
223.3464829999999
 31
0.0
  0
LINE
  5
1C9
330
1E
100
AcDbEntity
  8
1
  6
Continuous
 62
     7
100
AcDbLine
 10
89.236845
 20
223.3464829999999
 30
0.0
 11
90.32110600000001
 21
223.1541149999999
 31
0.0
  0
LINE
  5
1CE
330
1E
100
AcDbEntity
  8
1
  6
Continuous
 62
     7
100
AcDbLine
 10
94.678894
 20
223.1541149999999
 30
0.0
 11
95.76315499999999
 21
223.3464829999999
 31
0.0
  0
LINE
  5
1CF
330
1E
100
AcDbEntity
  8
1
  6
Continuous
 62
     7
100
AcDbLine
 10
95.76315499999999
 20
223.3464829999999
 30
0.0
 11
96.84120400000001
 21
223.615286
 31
0.0
  0
LINE
  5
1D0
330
1E
100
AcDbEntity
  8
1
  6
Continuous
 62
     7
100
AcDbLine
 10
96.84120400000001
 20
223.615286
 30
0.0
 11
97.91099
 21
223.9600119999999
 31
0.0
  0
LINE
  5
1D1
330
1E
100
AcDbEntity
  8
1
  6
Continuous
 62
     7
100
AcDbLine
 10
97.91099
 20
223.9600119999999
 30
0.0
 11
98.970476
 21
224.3800039999999
 31
0.0
  0
LINE
  5
1D2
330
1E
100
AcDbEntity
  8
1
  6
Continuous
 62
     7
100
AcDbLine
 10
98.970476
 20
224.3800039999999
 30
0.0
 11
100.017645
 21
224.874463
 31
0.0
  0
LINE
  5
1D3
330
1E
100
AcDbEntity
  8
1
  6
Continuous
 62
     7
100
AcDbLine
 10
100.017645
 20
224.874463
 30
0.0
 11
101.0505039999999
 21
225.442449
 31
0.0
  0
LINE
  5
1D4
330
1E
100
AcDbEntity
  8
1
  6
Continuous
 62
     7
100
AcDbLine
 10
101.0505039999999
 20
225.442449
 30
0.0
 11
102.067086
 21
226.082879
 31
0.0
  0
LINE
  5
1D5
330
1E
100
AcDbEntity
  8
1
  6
Continuous
 62
     7
100
AcDbLine
 10
102.067086
 20
226.082879
 30
0.0
 11
103.065457
 21
226.794535
 31
0.0
  0
LINE
  5
1D6
330
1E
100
AcDbEntity
  8
1
  6
Continuous
 62
     7
100
AcDbLine
 10
103.065457
 20
226.794535
 30
0.0
 11
104.043715
 21
227.5760609999999
 31
0.0
  0
LINE
  5
1D7
330
1E
100
AcDbEntity
  8
1
  6
Continuous
 62
     7
100
AcDbLine
 10
104.043715
 20
227.5760609999999
 30
0.0
 11
105.0
 21
228.425971
 31
0.0
  0
LINE
  5
1D8
330
1E
100
AcDbEntity
  8
1
  6
Continuous
 62
     7
100
AcDbLine
 10
105.0
 20
228.425971
 30
0.0
 11
105.9324899999999
 21
229.342646
 31
0.0
  0
LINE
  5
1D9
330
1E
100
AcDbEntity
  8
1
  6
Continuous
 62
     7
100
AcDbLine
 10
105.9324899999999
 20
229.342646
 30
0.0
 11
106.839411
 21
230.324342
 31
0.0
  0
LINE
  5
1DA
330
1E
100
AcDbEntity
  8
1
  6
Continuous
 62
     7
100
AcDbLine
 10
106.839411
 20
230.324342
 30
0.0
 11
107.719036
 21
231.36919
 31
0.0
  0
LINE
  5
1DB
330
1E
100
AcDbEntity
  8
1
  6
Continuous
 62
     7
100
AcDbLine
 10
107.719036
 20
231.36919
 30
0.0
 11
108.56969
 21
232.4752
 31
0.0
  0
LINE
  5
1DC
330
1E
100
AcDbEntity
  8
1
  6
Continuous
 62
     7
100
AcDbLine
 10
108.56969
 20
232.4752
 30
0.0
 11
109.389755
 21
233.640268
 31
0.0
  0
LINE
  5
1DD
330
1E
100
AcDbEntity
  8
1
  6
Continuous
 62
     7
100
AcDbLine
 10
109.389755
 20
233.640268
 30
0.0
 11
110.17767
 21
234.8621749999999
 31
0.0
  0
LINE
  5
1DE
330
1E
100
AcDbEntity
  8
1
  6
Continuous
 62
     7
100
AcDbLine
 10
110.17767
 20
234.8621749999999
 30
0.0
 11
110.9319329999999
 21
236.138597
 31
0.0
  0
LINE
  5
1DF
330
1E
100
AcDbEntity
  8
1
  6
Continuous
 62
     7
100
AcDbLine
 10
110.9319329999999
 20
236.138597
 30
0.0
 11
111.651111
 21
237.467102
 31
0.0
  0
LINE
  5
1E0
330
1E
100
AcDbEntity
  8
1
  6
Continuous
 62
     7
100
AcDbLine
 10
111.651111
 20
237.467102
 30
0.0
 11
112.333834
 21
238.845162
 31
0.0
  0
LINE
  5
1E1
330
1E
100
AcDbEntity
  8
1
  6
Continuous
 62
     7
100
AcDbLine
 10
112.333834
 20
238.845162
 30
0.0
 11
112.978801
 21
240.2701539999999
 31
0.0
  0
LINE
  5
1E2
330
1E
100
AcDbEntity
  8
1
  6
Continuous
 62
     7
100
AcDbLine
 10
112.978801
 20
240.2701539999999
 30
0.0
 11
113.584786
 21
241.739366
 31
0.0
  0
LINE
  5
1E3
330
1E
100
AcDbEntity
  8
1
  6
Continuous
 62
     7
100
AcDbLine
 10
113.584786
 20
241.739366
 30
0.0
 11
114.150635
 21
243.25
 31
0.0
  0
LINE
  5
1E4
330
1E
100
AcDbEntity
  8
1
  6
Continuous
 62
     7
100
AcDbLine
 10
114.150635
 20
243.25
 30
0.0
 11
114.6752709999999
 21
244.7991809999999
 31
0.0
  0
LINE
  5
1E5
330
1E
100
AcDbEntity
  8
1
  6
Continuous
 62
     7
100
AcDbLine
 10
114.6752709999999
 20
244.7991809999999
 30
0.0
 11
115.1576949999999
 21
246.38396
 31
0.0
  0
LINE
  5
1E6
330
1E
100
AcDbEntity
  8
1
  6
Continuous
 62
     7
100
AcDbLine
 10
115.1576949999999
 20
246.38396
 30
0.0
 11
115.5969879999999
 21
248.001321
 31
0.0
  0
LINE
  5
1E7
330
1E
100
AcDbEntity
  8
1
  6
Continuous
 62
     7
100
AcDbLine
 10
115.5969879999999
 20
248.001321
 30
0.0
 11
115.9923159999999
 21
249.6481839999999
 31
0.0
  0
LINE
  5
1E8
330
1E
100
AcDbEntity
  8
1
  6
Continuous
 62
     7
100
AcDbLine
 10
115.9923159999999
 20
249.6481839999999
 30
0.0
 11
116.3429239999999
 21
251.321415
 31
0.0
  0
LINE
  5
1E9
330
1E
100
AcDbEntity
  8
1
  6
Continuous
 62
     7
100
AcDbLine
 10
116.3429239999999
 20
251.321415
 30
0.0
 11
116.6481459999999
 21
253.017829
 31
0.0
  0
LINE
  5
1EA
330
1E
100
AcDbEntity
  8
1
  6
Continuous
 62
     7
100
AcDbLine
 10
116.6481459999999
 20
253.017829
 30
0.0
 11
116.9073999999999
 21
254.734196
 31
0.0
  0
LINE
  5
1EB
330
1E
100
AcDbEntity
  8
1
  6
Continuous
 62
     7
100
AcDbLine
 10
116.9073999999999
 20
254.734196
 30
0.0
 11
117.1201939999999
 21
256.467249
 31
0.0
  0
LINE
  5
1EC
330
1E
100
AcDbEntity
  8
1
  6
Continuous
 62
     7
100
AcDbLine
 10
117.1201939999999
 20
256.467249
 30
0.0
 11
117.2861219999999
 21
258.213689
 31
0.0
  0
LINE
  5
1ED
330
1E
100
AcDbEntity
  8
1
  6
Continuous
 62
     7
100
AcDbLine
 10
117.2861219999999
 20
258.213689
 30
0.0
 11
117.4048669999999
 21
259.970192
 31
0.0
  0
LINE
  5
1EE
330
1E
100
AcDbEntity
  8
1
  6
Continuous
 62
     7
100
AcDbLine
 10
117.4048669999999
 20
259.970192
 30
0.0
 11
117.476206
 21
261.733415
 31
0.0
  0
LINE
  5
1EF
330
1E
100
AcDbEntity
  8
1
  6
Continuous
 62
     7
100
AcDbLine
 10
117.476206
 20
261.733415
 30
0.0
 11
117.5
 21
263.5
 31
0.0
  0
LINE
  5
1F0
330
1E
100
AcDbEntity
  8
1
  6
Continuous
 62
     7
100
AcDbLine
 10
64.710612
 20
265.359593
 30
0.0
 11
67.5
 21
263.5
 31
0.0
  0
LINE
  5
1F1
330
1E
100
AcDbEntity
  8
1
  6
Continuous
 62
     7
100
AcDbLine
 10
117.5
 20
263.5
 30
0.0
 11
120.2893889999999
 21
265.359592
 31
0.0
  0
LINE
  5
1F2
330
1E
100
AcDbEntity
  8
1
  6
Continuous
 62
     7
100
AcDbLine
 10
92.05845399999999
 20
266.796147
 30
0.0
 11
91.850812
 21
266.2915019999999
 31
0.0
  0
LINE
  5
1F3
330
1E
100
AcDbEntity
  8
1
  6
Continuous
 62
     7
100
AcDbLine
 10
92.941546
 20
266.796147
 30
0.0
 11
93.14918799999999
 21
266.2915019999999
 31
0.0
  0
LINE
  5
1F4
330
1E
100
AcDbEntity
  8
1
  6
Continuous
 62
     7
100
AcDbLine
 10
95.36404199999999
 20
266.637368
 30
0.0
 11
95.09230700000001
 21
266.164143
 31
0.0
  0
LINE
  5
1F5
330
1E
100
AcDbEntity
  8
1
  6
Continuous
 62
     7
100
AcDbLine
 10
96.23958000000001
 20
266.5221009999999
 30
0.0
 11
96.379576
 21
265.9946709999999
 31
0.0
  0
LINE
  5
1F6
330
1E
100
AcDbEntity
  8
1
  6
Continuous
 62
     7
100
AcDbLine
 10
99.473628
 20
265.81992
 30
0.0
 11
99.543583
 21
265.278729
 31
0.0
  0
LINE
  5
1F7
330
1E
100
AcDbEntity
  8
1
  6
Continuous
 62
     7
100
AcDbLine
 10
98.62062600000001
 20
266.0484819999999
 30
0.0
 11
98.289447
 21
265.614774
 31
0.0
  0
LINE
  5
1F8
330
1E
100
AcDbEntity
  8
1
  6
Continuous
 62
     7
100
AcDbLine
 10
101.7724819999999
 20
265.0395649999999
 30
0.0
 11
101.387526
 21
264.652795
 31
0.0
  0
LINE
  5
1F9
330
1E
100
AcDbEntity
  8
1
  6
Continuous
 62
     7
100
AcDbLine
 10
102.5883529999999
 20
264.7016199999999
 30
0.0
 11
102.58707
 21
264.155927
 31
0.0
  0
LINE
  5
1FA
330
1E
100
AcDbEntity
  8
1
  6
Continuous
 62
     7
100
AcDbLine
 10
89.63595600000003
 20
266.637368
 30
0.0
 11
89.907692
 21
266.164143
 31
0.0
  0
LINE
  5
1FB
330
1E
100
AcDbEntity
  8
1
  6
Continuous
 62
     7
100
AcDbLine
 10
88.76041999999998
 20
266.5221009999999
 30
0.0
 11
88.620423
 21
265.9946709999999
 31
0.0
  0
LINE
  5
1FC
330
1E
100
AcDbEntity
  8
1
  6
Continuous
 62
     7
100
AcDbLine
 10
86.379373
 20
266.0484809999999
 30
0.0
 11
86.71055200000003
 21
265.614774
 31
0.0
  0
LINE
  5
1FD
330
1E
100
AcDbEntity
  8
1
  6
Continuous
 62
     7
100
AcDbLine
 10
85.52637199999997
 20
265.81992
 30
0.0
 11
85.45641600000001
 21
265.278729
 31
0.0
  0
LINE
  5
1FE
330
1E
100
AcDbEntity
  8
1
  6
Continuous
 62
     7
100
AcDbLine
 10
83.227522
 20
265.0395669999999
 30
0.0
 11
83.61247799999999
 21
264.652797
 31
0.0
  0
LINE
  5
1FF
330
1E
100
AcDbEntity
  8
1
  6
Continuous
 62
     7
100
AcDbLine
 10
82.41165200000002
 20
264.701622
 30
0.0
 11
82.41293399999998
 21
264.1559299999999
 31
0.0
  0
ARC
  5
200
330
1E
100
AcDbEntity
  8
1
  6
Continuous
 62
     7
100
AcDbCircle
 10
92.5
 20
241.5
 30
0.0
 40
24.8
100
AcDbArc
 50
113.9999909999999
 51
116.012358
  0
ARC
  5
201
330
1E
100
AcDbEntity
  8
1
  6
Continuous
 62
     7
100
AcDbCircle
 10
92.5
 20
241.5
 30
0.0
 40
24.8
100
AcDbArc
 50
106.500007
 51
110.9999909999999
  0
ARC
  5
202
330
1E
100
AcDbEntity
  8
1
  6
Continuous
 62
     7
100
AcDbCircle
 10
92.5
 20
241.5
 30
0.0
 40
24.8
100
AcDbArc
 50
99.000005
 51
103.5000069999999
  0
ARC
  5
203
330
1E
100
AcDbEntity
  8
1
  6
Continuous
 62
     7
100
AcDbCircle
 10
92.5
 20
241.5
 30
0.0
 40
24.8
100
AcDbArc
 50
91.5
 51
96.000005
  0
ARC
  5
204
330
1E
100
AcDbEntity
  8
1
  6
Continuous
 62
     7
100
AcDbCircle
 10
92.5
 20
241.5
 30
0.0
 40
24.8
100
AcDbArc
 50
63.987642
 51
65.999996
  0
ARC
  5
205
330
1E
100
AcDbEntity
  8
1
  6
Continuous
 62
     7
100
AcDbCircle
 10
92.5
 20
241.5
 30
0.0
 40
24.8
100
AcDbArc
 50
76.49999499999998
 51
80.999996
  0
ARC
  5
206
330
1E
100
AcDbEntity
  8
1
  6
Continuous
 62
     7
100
AcDbCircle
 10
92.5
 20
241.5
 30
0.0
 40
24.8
100
AcDbArc
 50
68.999998
 51
73.499993
  0
ARC
  5
207
330
1E
100
AcDbEntity
  8
1
  6
Continuous
 62
     7
100
AcDbCircle
 10
92.5
 20
241.5
 30
0.0
 40
24.8
100
AcDbArc
 50
83.99999800000001
 51
88.49999999999999
  0
TEXT
  5
39F
330
1E
100
AcDbEntity
  8
1
  6
Continuous
 62
     7
100
AcDbText
 10
266.9921301840608
 20
246.1999999999999
 30
0.0
 40
5.0
  1
DAY
 41
0.4
  7
KANJI
100
AcDbText
  0
TEXT
  5
3A0
330
1E
100
AcDbEntity
  8
1
  6
Continuous
 62
     7
100
AcDbText
 10
276.4921301840609
 20
246.1999999999999
 30
0.0
 40
5.0
  1
NIGHT
 41
0.4
  7
KANJI
100
AcDbText
  0
ARC
  5
3A1
330
1E
100
AcDbEntity
  8
1
  6
Continuous
 62
     7
100
AcDbCircle
 10
274.4921301840609
 20
247.49375
 30
0.0
 40
1.80625
100
AcDbArc
 50
33.855026
 51
146.1449739999999
  0
ARC
  5
3A2
330
1E
100
AcDbEntity
  8
1
  6
Continuous
 62
     7
100
AcDbCircle
 10
274.4921301840609
 20
249.5062499999999
 30
0.0
 40
1.80625
100
AcDbArc
 50
213.855026
 51
326.1449739999998
  0
LINE
  5
3A7
330
1E
100
AcDbEntity
  8
1
  6
Continuous
 62
     7
100
AcDbLine
 10
303.3921441840608
 20
237.9
 30
0.0
 11
302.4921451840609
 21
237.9
 31
0.0
  0
ARC
  5
3A8
330
1E
100
AcDbEntity
  8
1
  6
Continuous
 62
     7
100
AcDbCircle
 10
303.3921441840608
 20
238.3999999999999
 30
0.0
 40
0.5
100
AcDbArc
 50
270.0
 51
0.0
  0
LINE
  5
3A9
330
1E
100
AcDbEntity
  8
1
  6
Continuous
 62
     7
100
AcDbLine
 10
303.8921441840608
 20
240.6
 30
0.0
 11
303.8921441840608
 21
238.3999999999999
 31
0.0
  0
LINE
  5
3AA
330
1E
100
AcDbEntity
  8
1
  6
Continuous
 62
     7
100
AcDbLine
 10
302.4921441840609
 20
241.1
 30
0.0
 11
303.3921441840608
 21
241.1
 31
0.0
  0
ARC
  5
3AB
330
1E
100
AcDbEntity
  8
1
  6
Continuous
 62
     7
100
AcDbCircle
 10
303.3921441840608
 20
240.6
 30
0.0
 40
0.5
100
AcDbArc
 50
0.0
 51
90.0
  0
LINE
  5
3AC
330
1E
100
AcDbEntity
  8
1
  6
Continuous
 62
     7
100
AcDbLine
 10
302.4921451840609
 20
235.0
 30
0.0
 11
308.0921451840608
 21
235.0
 31
0.0
  0
LINE
  5
3AD
330
1E
100
AcDbEntity
  8
1
  6
Continuous
 62
     7
100
AcDbLine
 10
308.0921451840608
 20
235.0
 30
0.0
 11
308.0921451840608
 21
222.5
 31
0.0
  0
LINE
  5
3AE
330
1E
100
AcDbEntity
  8
1
  6
Continuous
 62
     7
100
AcDbLine
 10
308.0921451840608
 20
222.5
 30
0.0
 11
302.4921471840609
 21
222.5
 31
0.0
  0
LINE
  5
3AF
330
1E
100
AcDbEntity
  8
1
  6
Continuous
 62
     7
100
AcDbLine
 10
302.4921461840609
 20
232.5
 30
0.0
 11
308.0921451840608
 21
232.5
 31
0.0
  0
LINE
  5
3B0
330
1E
100
AcDbEntity
  8
1
  6
Continuous
 62
     7
100
AcDbLine
 10
302.4921461840609
 20
227.4999999999999
 30
0.0
 11
308.0921451840608
 21
227.4999999999999
 31
0.0
  0
LINE
  5
3B1
330
1E
100
AcDbEntity
  8
1
  6
Continuous
 62
     7
100
AcDbLine
 10
305.0921461840609
 20
232.5
 30
0.0
 11
305.0921461840609
 21
228.5
 31
0.0
  0
LINE
  5
3B2
330
1E
100
AcDbEntity
  8
1
  6
Continuous
 62
     7
100
AcDbLine
 10
305.0921461840609
 20
228.5
 30
0.0
 11
306.5921461840609
 21
228.5
 31
0.0
  0
LINE
  5
3B3
330
1E
100
AcDbEntity
  8
1
  6
Continuous
 62
     7
100
AcDbLine
 10
306.5921461840609
 20
228.5
 30
0.0
 11
306.5921461840609
 21
232.5
 31
0.0
  0
LINE
  5
3B4
330
1E
100
AcDbEntity
  8
1
  6
Continuous
 62
     7
100
AcDbLine
 10
305.0921461840609
 20
227.4999999999999
 30
0.0
 11
305.0921461840609
 21
223.4999999999998
 31
0.0
  0
LINE
  5
3B5
330
1E
100
AcDbEntity
  8
1
  6
Continuous
 62
     7
100
AcDbLine
 10
305.0921461840609
 20
223.4999999999998
 30
0.0
 11
306.5921461840609
 21
223.4999999999998
 31
0.0
  0
LINE
  5
3B6
330
1E
100
AcDbEntity
  8
1
  6
Continuous
 62
     7
100
AcDbLine
 10
306.5921461840609
 20
223.4999999999998
 30
0.0
 11
306.5921461840609
 21
227.4999999999999
 31
0.0
  0
ARC
  5
3B8
330
1E
100
AcDbEntity
  8
1
  6
Continuous
 62
     7
100
AcDbCircle
 10
302.5890171840609
 20
258.3
 30
0.0
 40
1.503125
100
AcDbArc
 50
266.3047879999999
 51
93.69522900000001
  0
LINE
  5
3B9
330
1E
100
AcDbEntity
  8
1
  6
Continuous
 62
     7
100
AcDbLine
 10
302.4921431840608
 20
252.5999999999999
 30
0.0
 11
308.9921431840608
 21
252.5999999999999
 31
0.0
  0
ARC
  5
3BA
330
1E
100
AcDbEntity
  8
1
  6
Continuous
 62
     7
100
AcDbCircle
 10
308.9921431840608
 20
250.5999999999999
 30
0.0
 40
2.0
100
AcDbArc
 50
0.000008
 51
90.0
  0
LINE
  5
3BB
330
1E
100
AcDbEntity
  8
1
  6
Continuous
 62
     7
100
AcDbLine
 10
310.9921431840608
 20
250.5999999999999
 30
0.0
 11
310.9921441840609
 21
246.3999999999999
 31
0.0
  0
LINE
  5
3BC
330
1E
100
AcDbEntity
  8
1
  6
Continuous
 62
     7
100
AcDbLine
 10
308.9921441840609
 20
244.3999999999999
 30
0.0
 11
302.4921441840609
 21
244.3999999999999
 31
0.0
  0
ARC
  5
3BD
330
1E
100
AcDbEntity
  8
1
  6
Continuous
 62
     7
100
AcDbCircle
 10
308.9921441840609
 20
246.3999999999999
 30
0.0
 40
2.0
100
AcDbArc
 50
270.0
 51
0.000008
  0
LINE
  5
3BE
330
1E
100
AcDbEntity
  8
1
  6
Continuous
 62
     7
100
AcDbLine
 10
308.0921451840608
 20
231.8
 30
0.0
 11
315.1921461840609
 21
231.8
 31
0.0
  0
LINE
  5
3BF
330
1E
100
AcDbEntity
  8
1
  6
Continuous
 62
     7
100
AcDbLine
 10
315.1921461840609
 20
231.8
 30
0.0
 11
315.1921461840609
 21
222.1999999999999
 31
0.0
  0
LINE
  5
3C0
330
1E
100
AcDbEntity
  8
1
  6
Continuous
 62
     7
100
AcDbLine
 10
315.1921461840609
 20
222.1999999999999
 30
0.0
 11
302.4921471840609
 21
222.1999999999999
 31
0.0
  0
LINE
  5
3C1
330
1E
100
AcDbEntity
  8
1
  6
Continuous
 62
     7
100
AcDbLine
 10
311.9421471840608
 20
223.0402
 30
0.0
 11
311.9421471840608
 21
223.0402009999999
 31
0.0
  0
LINE
  5
3C2
330
1E
100
AcDbEntity
  8
1
  6
Continuous
 62
     7
100
AcDbLine
 10
311.9421471840608
 20
223.0402009999999
 30
0.0
 11
311.9414331840608
 21
223.0633329999999
 31
0.0
  0
LINE
  5
3C3
330
1E
100
AcDbEntity
  8
1
  6
Continuous
 62
     7
100
AcDbLine
 10
311.9414331840608
 20
223.0633329999999
 30
0.0
 11
311.9392931840608
 21
223.086422
 31
0.0
  0
LINE
  5
3C4
330
1E
100
AcDbEntity
  8
1
  6
Continuous
 62
     7
100
AcDbLine
 10
311.9392931840608
 20
223.086422
 30
0.0
 11
311.9357311840608
 21
223.109422
 31
0.0
  0
LINE
  5
3C5
330
1E
100
AcDbEntity
  8
1
  6
Continuous
 62
     7
100
AcDbLine
 10
311.9357311840608
 20
223.109422
 30
0.0
 11
311.9307531840608
 21
223.132291
 31
0.0
  0
LINE
  5
3C6
330
1E
100
AcDbEntity
  8
1
  6
Continuous
 62
     7
100
AcDbLine
 10
311.9307531840608
 20
223.132291
 30
0.0
 11
311.9243691840609
 21
223.1549849999999
 31
0.0
  0
LINE
  5
3C7
330
1E
100
AcDbEntity
  8
1
  6
Continuous
 62
     7
100
AcDbLine
 10
311.9243691840609
 20
223.1549849999999
 30
0.0
 11
311.9165911840608
 21
223.17746
 31
0.0
  0
LINE
  5
3C8
330
1E
100
AcDbEntity
  8
1
  6
Continuous
 62
     7
100
AcDbLine
 10
311.9165911840608
 20
223.17746
 30
0.0
 11
311.9074351840608
 21
223.199674
 31
0.0
  0
LINE
  5
3C9
330
1E
100
AcDbEntity
  8
1
  6
Continuous
 62
     7
100
AcDbLine
 10
311.9074351840608
 20
223.199674
 30
0.0
 11
311.8969171840608
 21
223.2215839999999
 31
0.0
  0
LINE
  5
3CA
330
1E
100
AcDbEntity
  8
1
  6
Continuous
 62
     7
100
AcDbLine
 10
311.8969171840608
 20
223.2215839999999
 30
0.0
 11
311.8850571840608
 21
223.243149
 31
0.0
  0
LINE
  5
3CB
330
1E
100
AcDbEntity
  8
1
  6
Continuous
 62
     7
100
AcDbLine
 10
311.8850571840608
 20
223.243149
 30
0.0
 11
311.8718781840609
 21
223.264327
 31
0.0
  0
LINE
  5
3CC
330
1E
100
AcDbEntity
  8
1
  6
Continuous
 62
     7
100
AcDbLine
 10
311.8718781840609
 20
223.264327
 30
0.0
 11
311.8574051840608
 21
223.285079
 31
0.0
  0
LINE
  5
3CD
330
1E
100
AcDbEntity
  8
1
  6
Continuous
 62
     7
100
AcDbLine
 10
311.8574051840608
 20
223.285079
 30
0.0
 11
311.8416661840608
 21
223.305365
 31
0.0
  0
LINE
  5
3CE
330
1E
100
AcDbEntity
  8
1
  6
Continuous
 62
     7
100
AcDbLine
 10
311.8416661840608
 20
223.305365
 30
0.0
 11
311.8246911840608
 21
223.3251459999999
 31
0.0
  0
LINE
  5
3CF
330
1E
100
AcDbEntity
  8
1
  6
Continuous
 62
     7
100
AcDbLine
 10
311.8246911840608
 20
223.3251459999999
 30
0.0
 11
311.8065111840609
 21
223.344385
 31
0.0
  0
LINE
  5
3D0
330
1E
100
AcDbEntity
  8
1
  6
Continuous
 62
     7
100
AcDbLine
 10
311.8065111840609
 20
223.344385
 30
0.0
 11
311.7871621840608
 21
223.363045
 31
0.0
  0
LINE
  5
3D1
330
1E
100
AcDbEntity
  8
1
  6
Continuous
 62
     7
100
AcDbLine
 10
311.7871621840608
 20
223.363045
 30
0.0
 11
311.7666801840608
 21
223.3810899999999
 31
0.0
  0
LINE
  5
3D2
330
1E
100
AcDbEntity
  8
1
  6
Continuous
 62
     7
100
AcDbLine
 10
311.7666801840608
 20
223.3810899999999
 30
0.0
 11
311.7451051840608
 21
223.398486
 31
0.0
  0
LINE
  5
3D3
330
1E
100
AcDbEntity
  8
1
  6
Continuous
 62
     7
100
AcDbLine
 10
311.7451051840608
 20
223.398486
 30
0.0
 11
311.7224771840608
 21
223.4151999999999
 31
0.0
  0
LINE
  5
3D4
330
1E
100
AcDbEntity
  8
1
  6
Continuous
 62
     7
100
AcDbLine
 10
311.7224771840608
 20
223.4151999999999
 30
0.0
 11
311.6988401840608
 21
223.4312
 31
0.0
  0
LINE
  5
3D5
330
1E
100
AcDbEntity
  8
1
  6
Continuous
 62
     7
100
AcDbLine
 10
311.6988401840608
 20
223.4312
 30
0.0
 11
311.6742381840609
 21
223.4464569999999
 31
0.0
  0
LINE
  5
3D6
330
1E
100
AcDbEntity
  8
1
  6
Continuous
 62
     7
100
AcDbLine
 10
311.6742381840609
 20
223.4464569999999
 30
0.0
 11
311.6487181840609
 21
223.460939
 31
0.0
  0
LINE
  5
3D7
330
1E
100
AcDbEntity
  8
1
  6
Continuous
 62
     7
100
AcDbLine
 10
311.6487181840609
 20
223.460939
 30
0.0
 11
311.6223291840608
 21
223.4746209999999
 31
0.0
  0
LINE
  5
3D8
330
1E
100
AcDbEntity
  8
1
  6
Continuous
 62
     7
100
AcDbLine
 10
311.6223291840608
 20
223.4746209999999
 30
0.0
 11
311.5951221840608
 21
223.4874759999999
 31
0.0
  0
LINE
  5
3D9
330
1E
100
AcDbEntity
  8
1
  6
Continuous
 62
     7
100
AcDbLine
 10
311.5951221840608
 20
223.4874759999999
 30
0.0
 11
311.5671471840609
 21
223.499479
 31
0.0
  0
LINE
  5
3DA
330
1E
100
AcDbEntity
  8
1
  6
Continuous
 62
     7
100
AcDbLine
 10
311.5671471840609
 20
223.499479
 30
0.0
 11
311.5384591840609
 21
223.5106089999999
 31
0.0
  0
LINE
  5
3DB
330
1E
100
AcDbEntity
  8
1
  6
Continuous
 62
     7
100
AcDbLine
 10
311.5384591840609
 20
223.5106089999999
 30
0.0
 11
311.5091111840608
 21
223.5208419999999
 31
0.0
  0
LINE
  5
3DC
330
1E
100
AcDbEntity
  8
1
  6
Continuous
 62
     7
100
AcDbLine
 10
311.5091111840608
 20
223.5208419999999
 30
0.0
 11
311.4791601840608
 21
223.530161
 31
0.0
  0
LINE
  5
3DD
330
1E
100
AcDbEntity
  8
1
  6
Continuous
 62
     7
100
AcDbLine
 10
311.4791601840608
 20
223.530161
 30
0.0
 11
311.4486621840608
 21
223.538547
 31
0.0
  0
LINE
  5
3DE
330
1E
100
AcDbEntity
  8
1
  6
Continuous
 62
     7
100
AcDbLine
 10
311.4486621840608
 20
223.538547
 30
0.0
 11
311.4176761840608
 21
223.545985
 31
0.0
  0
LINE
  5
3DF
330
1E
100
AcDbEntity
  8
1
  6
Continuous
 62
     7
100
AcDbLine
 10
311.4176761840608
 20
223.545985
 30
0.0
 11
311.3862611840609
 21
223.552459
 31
0.0
  0
LINE
  5
3E0
330
1E
100
AcDbEntity
  8
1
  6
Continuous
 62
     7
100
AcDbLine
 10
311.3862611840609
 20
223.552459
 30
0.0
 11
311.3544771840608
 21
223.5579589999999
 31
0.0
  0
LINE
  5
3E1
330
1E
100
AcDbEntity
  8
1
  6
Continuous
 62
     7
100
AcDbLine
 10
311.3544771840608
 20
223.5579589999999
 30
0.0
 11
311.3223831840608
 21
223.562473
 31
0.0
  0
LINE
  5
3E2
330
1E
100
AcDbEntity
  8
1
  6
Continuous
 62
     7
100
AcDbLine
 10
311.3223831840608
 20
223.562473
 30
0.0
 11
311.2900421840608
 21
223.565993
 31
0.0
  0
LINE
  5
3E3
330
1E
100
AcDbEntity
  8
1
  6
Continuous
 62
     7
100
AcDbLine
 10
311.2900421840608
 20
223.565993
 30
0.0
 11
311.2575141840608
 21
223.5685119999998
 31
0.0
  0
LINE
  5
3E4
330
1E
100
AcDbEntity
  8
1
  6
Continuous
 62
     7
100
AcDbLine
 10
311.2575141840608
 20
223.5685119999998
 30
0.0
 11
311.2248621840608
 21
223.5700249999999
 31
0.0
  0
LINE
  5
3E5
330
1E
100
AcDbEntity
  8
1
  6
Continuous
 62
     7
100
AcDbLine
 10
311.2248621840608
 20
223.5700249999999
 30
0.0
 11
311.1921471840608
 21
223.5705299999999
 31
0.0
  0
LINE
  5
3E6
330
1E
100
AcDbEntity
  8
1
  6
Continuous
 62
     7
100
AcDbLine
 10
311.1921471840608
 20
223.5705299999999
 30
0.0
 11
311.1594331840608
 21
223.5700249999999
 31
0.0
  0
LINE
  5
3E7
330
1E
100
AcDbEntity
  8
1
  6
Continuous
 62
     7
100
AcDbLine
 10
311.1594331840608
 20
223.5700249999999
 30
0.0
 11
311.1267801840609
 21
223.5685119999998
 31
0.0
  0
LINE
  5
3E8
330
1E
100
AcDbEntity
  8
1
  6
Continuous
 62
     7
100
AcDbLine
 10
311.1267801840609
 20
223.5685119999998
 30
0.0
 11
311.0942521840609
 21
223.565993
 31
0.0
  0
LINE
  5
3E9
330
1E
100
AcDbEntity
  8
1
  6
Continuous
 62
     7
100
AcDbLine
 10
311.0942521840609
 20
223.565993
 30
0.0
 11
311.0619111840608
 21
223.562473
 31
0.0
  0
LINE
  5
3EA
330
1E
100
AcDbEntity
  8
1
  6
Continuous
 62
     7
100
AcDbLine
 10
311.0619111840608
 20
223.562473
 30
0.0
 11
311.0298171840609
 21
223.5579589999999
 31
0.0
  0
LINE
  5
3EB
330
1E
100
AcDbEntity
  8
1
  6
Continuous
 62
     7
100
AcDbLine
 10
311.0298171840609
 20
223.5579589999999
 30
0.0
 11
310.9980331840608
 21
223.552459
 31
0.0
  0
LINE
  5
3EC
330
1E
100
AcDbEntity
  8
1
  6
Continuous
 62
     7
100
AcDbLine
 10
310.9980331840608
 20
223.552459
 30
0.0
 11
310.9666181840609
 21
223.545985
 31
0.0
  0
LINE
  5
3ED
330
1E
100
AcDbEntity
  8
1
  6
Continuous
 62
     7
100
AcDbLine
 10
310.9666181840609
 20
223.545985
 30
0.0
 11
310.9356321840609
 21
223.538547
 31
0.0
  0
LINE
  5
3EE
330
1E
100
AcDbEntity
  8
1
  6
Continuous
 62
     7
100
AcDbLine
 10
310.9356321840609
 20
223.538547
 30
0.0
 11
310.9051351840608
 21
223.530161
 31
0.0
  0
LINE
  5
3EF
330
1E
100
AcDbEntity
  8
1
  6
Continuous
 62
     7
100
AcDbLine
 10
310.9051351840608
 20
223.530161
 30
0.0
 11
310.8751831840608
 21
223.5208419999999
 31
0.0
  0
LINE
  5
3F0
330
1E
100
AcDbEntity
  8
1
  6
Continuous
 62
     7
100
AcDbLine
 10
310.8751831840608
 20
223.5208419999999
 30
0.0
 11
310.8458361840608
 21
223.510608
 31
0.0
  0
LINE
  5
3F1
330
1E
100
AcDbEntity
  8
1
  6
Continuous
 62
     7
100
AcDbLine
 10
310.8458361840608
 20
223.510608
 30
0.0
 11
310.8171471840608
 21
223.499479
 31
0.0
  0
LINE
  5
3F2
330
1E
100
AcDbEntity
  8
1
  6
Continuous
 62
     7
100
AcDbLine
 10
310.8171471840608
 20
223.499479
 30
0.0
 11
310.7891721840608
 21
223.4874759999999
 31
0.0
  0
LINE
  5
3F3
330
1E
100
AcDbEntity
  8
1
  6
Continuous
 62
     7
100
AcDbLine
 10
310.7891721840608
 20
223.4874759999999
 30
0.0
 11
310.7619651840608
 21
223.4746209999999
 31
0.0
  0
LINE
  5
3F4
330
1E
100
AcDbEntity
  8
1
  6
Continuous
 62
     7
100
AcDbLine
 10
310.7619651840608
 20
223.4746209999999
 30
0.0
 11
310.7355761840608
 21
223.460939
 31
0.0
  0
LINE
  5
3F5
330
1E
100
AcDbEntity
  8
1
  6
Continuous
 62
     7
100
AcDbLine
 10
310.7355761840608
 20
223.460939
 30
0.0
 11
310.7100561840608
 21
223.446456
 31
0.0
  0
LINE
  5
3F6
330
1E
100
AcDbEntity
  8
1
  6
Continuous
 62
     7
100
AcDbLine
 10
310.7100561840608
 20
223.446456
 30
0.0
 11
310.6854541840609
 21
223.4312
 31
0.0
  0
LINE
  5
3F7
330
1E
100
AcDbEntity
  8
1
  6
Continuous
 62
     7
100
AcDbLine
 10
310.6854541840609
 20
223.4312
 30
0.0
 11
310.6618171840608
 21
223.4151999999999
 31
0.0
  0
LINE
  5
3F8
330
1E
100
AcDbEntity
  8
1
  6
Continuous
 62
     7
100
AcDbLine
 10
310.6618171840608
 20
223.4151999999999
 30
0.0
 11
310.6391891840607
 21
223.398486
 31
0.0
  0
LINE
  5
3F9
330
1E
100
AcDbEntity
  8
1
  6
Continuous
 62
     7
100
AcDbLine
 10
310.6391891840607
 20
223.398486
 30
0.0
 11
310.6176141840608
 21
223.3810899999999
 31
0.0
  0
LINE
  5
3FA
330
1E
100
AcDbEntity
  8
1
  6
Continuous
 62
     7
100
AcDbLine
 10
310.6176141840608
 20
223.3810899999999
 30
0.0
 11
310.5971321840609
 21
223.363045
 31
0.0
  0
LINE
  5
3FB
330
1E
100
AcDbEntity
  8
1
  6
Continuous
 62
     7
100
AcDbLine
 10
310.5971321840609
 20
223.363045
 30
0.0
 11
310.5777831840608
 21
223.344385
 31
0.0
  0
LINE
  5
3FC
330
1E
100
AcDbEntity
  8
1
  6
Continuous
 62
     7
100
AcDbLine
 10
310.5777831840608
 20
223.344385
 30
0.0
 11
310.5596031840609
 21
223.3251459999999
 31
0.0
  0
LINE
  5
3FD
330
1E
100
AcDbEntity
  8
1
  6
Continuous
 62
     7
100
AcDbLine
 10
310.5596031840609
 20
223.3251459999999
 30
0.0
 11
310.5426281840609
 21
223.305365
 31
0.0
  0
LINE
  5
3FE
330
1E
100
AcDbEntity
  8
1
  6
Continuous
 62
     7
100
AcDbLine
 10
310.5426281840609
 20
223.305365
 30
0.0
 11
310.5268891840609
 21
223.285079
 31
0.0
  0
LINE
  5
3FF
330
1E
100
AcDbEntity
  8
1
  6
Continuous
 62
     7
100
AcDbLine
 10
310.5268891840609
 20
223.285079
 30
0.0
 11
310.5124161840608
 21
223.264327
 31
0.0
  0
LINE
  5
400
330
1E
100
AcDbEntity
  8
1
  6
Continuous
 62
     7
100
AcDbLine
 10
310.5124161840608
 20
223.264327
 30
0.0
 11
310.4992371840608
 21
223.243149
 31
0.0
  0
LINE
  5
401
330
1E
100
AcDbEntity
  8
1
  6
Continuous
 62
     7
100
AcDbLine
 10
310.4992371840608
 20
223.243149
 30
0.0
 11
310.4873781840609
 21
223.2215839999999
 31
0.0
  0
LINE
  5
402
330
1E
100
AcDbEntity
  8
1
  6
Continuous
 62
     7
100
AcDbLine
 10
310.4873781840609
 20
223.2215839999999
 30
0.0
 11
310.4768591840609
 21
223.199673
 31
0.0
  0
LINE
  5
403
330
1E
100
AcDbEntity
  8
1
  6
Continuous
 62
     7
100
AcDbLine
 10
310.4768591840609
 20
223.199673
 30
0.0
 11
310.4677031840608
 21
223.17746
 31
0.0
  0
LINE
  5
404
330
1E
100
AcDbEntity
  8
1
  6
Continuous
 62
     7
100
AcDbLine
 10
310.4677031840608
 20
223.17746
 30
0.0
 11
310.4599251840609
 21
223.1549849999999
 31
0.0
  0
LINE
  5
405
330
1E
100
AcDbEntity
  8
1
  6
Continuous
 62
     7
100
AcDbLine
 10
310.4599251840609
 20
223.1549849999999
 30
0.0
 11
310.4535411840608
 21
223.132291
 31
0.0
  0
LINE
  5
406
330
1E
100
AcDbEntity
  8
1
  6
Continuous
 62
     7
100
AcDbLine
 10
310.4535411840608
 20
223.132291
 30
0.0
 11
310.4485631840609
 21
223.109422
 31
0.0
  0
LINE
  5
407
330
1E
100
AcDbEntity
  8
1
  6
Continuous
 62
     7
100
AcDbLine
 10
310.4485631840609
 20
223.109422
 30
0.0
 11
310.4450011840609
 21
223.086422
 31
0.0
  0
LINE
  5
408
330
1E
100
AcDbEntity
  8
1
  6
Continuous
 62
     7
100
AcDbLine
 10
310.4450011840609
 20
223.086422
 30
0.0
 11
310.4428611840609
 21
223.0633329999999
 31
0.0
  0
LINE
  5
409
330
1E
100
AcDbEntity
  8
1
  6
Continuous
 62
     7
100
AcDbLine
 10
310.4428611840609
 20
223.0633329999999
 30
0.0
 11
310.4421471840609
 21
223.0402
 31
0.0
  0
LINE
  5
40A
330
1E
100
AcDbEntity
  8
1
  6
Continuous
 62
     7
100
AcDbLine
 10
310.4421471840609
 20
223.0402
 30
0.0
 11
310.4428611840609
 21
223.017068
 31
0.0
  0
LINE
  5
40B
330
1E
100
AcDbEntity
  8
1
  6
Continuous
 62
     7
100
AcDbLine
 10
310.4428611840609
 20
223.017068
 30
0.0
 11
310.4450011840609
 21
222.9939789999999
 31
0.0
  0
LINE
  5
40C
330
1E
100
AcDbEntity
  8
1
  6
Continuous
 62
     7
100
AcDbLine
 10
310.4450011840609
 20
222.9939789999999
 30
0.0
 11
310.4485631840609
 21
222.9709779999999
 31
0.0
  0
LINE
  5
40D
330
1E
100
AcDbEntity
  8
1
  6
Continuous
 62
     7
100
AcDbLine
 10
310.4485631840609
 20
222.9709779999999
 30
0.0
 11
310.4535411840608
 21
222.9481089999999
 31
0.0
  0
LINE
  5
40E
330
1E
100
AcDbEntity
  8
1
  6
Continuous
 62
     7
100
AcDbLine
 10
310.4535411840608
 20
222.9481089999999
 30
0.0
 11
310.4599251840609
 21
222.9254159999999
 31
0.0
  0
LINE
  5
40F
330
1E
100
AcDbEntity
  8
1
  6
Continuous
 62
     7
100
AcDbLine
 10
310.4599251840609
 20
222.9254159999999
 30
0.0
 11
310.4677031840608
 21
222.902941
 31
0.0
  0
LINE
  5
410
330
1E
100
AcDbEntity
  8
1
  6
Continuous
 62
     7
100
AcDbLine
 10
310.4677031840608
 20
222.902941
 30
0.0
 11
310.4768591840609
 21
222.880727
 31
0.0
  0
LINE
  5
411
330
1E
100
AcDbEntity
  8
1
  6
Continuous
 62
     7
100
AcDbLine
 10
310.4768591840609
 20
222.880727
 30
0.0
 11
310.4873771840608
 21
222.858817
 31
0.0
  0
LINE
  5
412
330
1E
100
AcDbEntity
  8
1
  6
Continuous
 62
     7
100
AcDbLine
 10
310.4873771840608
 20
222.858817
 30
0.0
 11
310.4992371840608
 21
222.837252
 31
0.0
  0
LINE
  5
413
330
1E
100
AcDbEntity
  8
1
  6
Continuous
 62
     7
100
AcDbLine
 10
310.4992371840608
 20
222.837252
 30
0.0
 11
310.5124161840608
 21
222.8160729999999
 31
0.0
  0
LINE
  5
414
330
1E
100
AcDbEntity
  8
1
  6
Continuous
 62
     7
100
AcDbLine
 10
310.5124161840608
 20
222.8160729999999
 30
0.0
 11
310.5268891840609
 21
222.7953209999999
 31
0.0
  0
LINE
  5
415
330
1E
100
AcDbEntity
  8
1
  6
Continuous
 62
     7
100
AcDbLine
 10
310.5268891840609
 20
222.7953209999999
 30
0.0
 11
310.5426281840609
 21
222.7750349999999
 31
0.0
  0
LINE
  5
416
330
1E
100
AcDbEntity
  8
1
  6
Continuous
 62
     7
100
AcDbLine
 10
310.5426281840609
 20
222.7750349999999
 30
0.0
 11
310.5596031840609
 21
222.755254
 31
0.0
  0
LINE
  5
417
330
1E
100
AcDbEntity
  8
1
  6
Continuous
 62
     7
100
AcDbLine
 10
310.5596031840609
 20
222.755254
 30
0.0
 11
310.5777831840608
 21
222.7360159999999
 31
0.0
  0
LINE
  5
418
330
1E
100
AcDbEntity
  8
1
  6
Continuous
 62
     7
100
AcDbLine
 10
310.5777831840608
 20
222.7360159999999
 30
0.0
 11
310.5971321840609
 21
222.717356
 31
0.0
  0
LINE
  5
419
330
1E
100
AcDbEntity
  8
1
  6
Continuous
 62
     7
100
AcDbLine
 10
310.5971321840609
 20
222.717356
 30
0.0
 11
310.6176141840608
 21
222.6993109999999
 31
0.0
  0
LINE
  5
41A
330
1E
100
AcDbEntity
  8
1
  6
Continuous
 62
     7
100
AcDbLine
 10
310.6176141840608
 20
222.6993109999999
 30
0.0
 11
310.6391891840607
 21
222.681915
 31
0.0
  0
LINE
  5
41B
330
1E
100
AcDbEntity
  8
1
  6
Continuous
 62
     7
100
AcDbLine
 10
310.6391891840607
 20
222.681915
 30
0.0
 11
310.6618171840608
 21
222.6652009999999
 31
0.0
  0
LINE
  5
41C
330
1E
100
AcDbEntity
  8
1
  6
Continuous
 62
     7
100
AcDbLine
 10
310.6618171840608
 20
222.6652009999999
 30
0.0
 11
310.6854541840609
 21
222.6491999999999
 31
0.0
  0
LINE
  5
41D
330
1E
100
AcDbEntity
  8
1
  6
Continuous
 62
     7
100
AcDbLine
 10
310.6854541840609
 20
222.6491999999999
 30
0.0
 11
310.7100561840608
 21
222.6339439999999
 31
0.0
  0
LINE
  5
41E
330
1E
100
AcDbEntity
  8
1
  6
Continuous
 62
     7
100
AcDbLine
 10
310.7100561840608
 20
222.6339439999999
 30
0.0
 11
310.7355761840608
 21
222.6194609999999
 31
0.0
  0
LINE
  5
41F
330
1E
100
AcDbEntity
  8
1
  6
Continuous
 62
     7
100
AcDbLine
 10
310.7355761840608
 20
222.6194609999999
 30
0.0
 11
310.7619651840608
 21
222.6057799999999
 31
0.0
  0
LINE
  5
420
330
1E
100
AcDbEntity
  8
1
  6
Continuous
 62
     7
100
AcDbLine
 10
310.7619651840608
 20
222.6057799999999
 30
0.0
 11
310.7891721840608
 21
222.592925
 31
0.0
  0
LINE
  5
421
330
1E
100
AcDbEntity
  8
1
  6
Continuous
 62
     7
100
AcDbLine
 10
310.7891721840608
 20
222.592925
 30
0.0
 11
310.8171471840608
 21
222.5809209999999
 31
0.0
  0
LINE
  5
422
330
1E
100
AcDbEntity
  8
1
  6
Continuous
 62
     7
100
AcDbLine
 10
310.8171471840608
 20
222.5809209999999
 30
0.0
 11
310.8458361840608
 21
222.5697919999999
 31
0.0
  0
LINE
  5
423
330
1E
100
AcDbEntity
  8
1
  6
Continuous
 62
     7
100
AcDbLine
 10
310.8458361840608
 20
222.5697919999999
 30
0.0
 11
310.8751831840608
 21
222.559558
 31
0.0
  0
LINE
  5
424
330
1E
100
AcDbEntity
  8
1
  6
Continuous
 62
     7
100
AcDbLine
 10
310.8751831840608
 20
222.559558
 30
0.0
 11
310.9051341840608
 21
222.5502389999999
 31
0.0
  0
LINE
  5
425
330
1E
100
AcDbEntity
  8
1
  6
Continuous
 62
     7
100
AcDbLine
 10
310.9051341840608
 20
222.5502389999999
 30
0.0
 11
310.9356321840609
 21
222.5418529999999
 31
0.0
  0
LINE
  5
426
330
1E
100
AcDbEntity
  8
1
  6
Continuous
 62
     7
100
AcDbLine
 10
310.9356321840609
 20
222.5418529999999
 30
0.0
 11
310.9666181840609
 21
222.534416
 31
0.0
  0
LINE
  5
427
330
1E
100
AcDbEntity
  8
1
  6
Continuous
 62
     7
100
AcDbLine
 10
310.9666181840609
 20
222.534416
 30
0.0
 11
310.9980331840608
 21
222.527941
 31
0.0
  0
LINE
  5
428
330
1E
100
AcDbEntity
  8
1
  6
Continuous
 62
     7
100
AcDbLine
 10
310.9980331840608
 20
222.527941
 30
0.0
 11
311.0298171840609
 21
222.522441
 31
0.0
  0
LINE
  5
429
330
1E
100
AcDbEntity
  8
1
  6
Continuous
 62
     7
100
AcDbLine
 10
311.0298171840609
 20
222.522441
 30
0.0
 11
311.0619111840608
 21
222.517927
 31
0.0
  0
LINE
  5
42A
330
1E
100
AcDbEntity
  8
1
  6
Continuous
 62
     7
100
AcDbLine
 10
311.0619111840608
 20
222.517927
 30
0.0
 11
311.0942521840609
 21
222.514408
 31
0.0
  0
LINE
  5
42B
330
1E
100
AcDbEntity
  8
1
  6
Continuous
 62
     7
100
AcDbLine
 10
311.0942521840609
 20
222.514408
 30
0.0
 11
311.1267801840609
 21
222.511889
 31
0.0
  0
LINE
  5
42C
330
1E
100
AcDbEntity
  8
1
  6
Continuous
 62
     7
100
AcDbLine
 10
311.1267801840609
 20
222.511889
 30
0.0
 11
311.1594331840608
 21
222.510375
 31
0.0
  0
LINE
  5
42D
330
1E
100
AcDbEntity
  8
1
  6
Continuous
 62
     7
100
AcDbLine
 10
311.1594331840608
 20
222.510375
 30
0.0
 11
311.1921471840608
 21
222.509871
 31
0.0
  0
LINE
  5
42E
330
1E
100
AcDbEntity
  8
1
  6
Continuous
 62
     7
100
AcDbLine
 10
311.1921471840608
 20
222.509871
 30
0.0
 11
311.2248621840608
 21
222.510375
 31
0.0
  0
LINE
  5
42F
330
1E
100
AcDbEntity
  8
1
  6
Continuous
 62
     7
100
AcDbLine
 10
311.2248621840608
 20
222.510375
 30
0.0
 11
311.2575141840608
 21
222.511889
 31
0.0
  0
LINE
  5
430
330
1E
100
AcDbEntity
  8
1
  6
Continuous
 62
     7
100
AcDbLine
 10
311.2575141840608
 20
222.511889
 30
0.0
 11
311.2900421840608
 21
222.514408
 31
0.0
  0
LINE
  5
431
330
1E
100
AcDbEntity
  8
1
  6
Continuous
 62
     7
100
AcDbLine
 10
311.2900421840608
 20
222.514408
 30
0.0
 11
311.3223831840608
 21
222.5179279999999
 31
0.0
  0
LINE
  5
432
330
1E
100
AcDbEntity
  8
1
  6
Continuous
 62
     7
100
AcDbLine
 10
311.3223831840608
 20
222.5179279999999
 30
0.0
 11
311.3544771840608
 21
222.5224419999999
 31
0.0
  0
LINE
  5
433
330
1E
100
AcDbEntity
  8
1
  6
Continuous
 62
     7
100
AcDbLine
 10
311.3544771840608
 20
222.5224419999999
 30
0.0
 11
311.3862611840609
 21
222.527941
 31
0.0
  0
LINE
  5
434
330
1E
100
AcDbEntity
  8
1
  6
Continuous
 62
     7
100
AcDbLine
 10
311.3862611840609
 20
222.527941
 30
0.0
 11
311.4176761840608
 21
222.534416
 31
0.0
  0
LINE
  5
435
330
1E
100
AcDbEntity
  8
1
  6
Continuous
 62
     7
100
AcDbLine
 10
311.4176761840608
 20
222.534416
 30
0.0
 11
311.4486621840608
 21
222.5418529999999
 31
0.0
  0
LINE
  5
436
330
1E
100
AcDbEntity
  8
1
  6
Continuous
 62
     7
100
AcDbLine
 10
311.4486621840608
 20
222.5418529999999
 30
0.0
 11
311.4791601840608
 21
222.5502399999999
 31
0.0
  0
LINE
  5
437
330
1E
100
AcDbEntity
  8
1
  6
Continuous
 62
     7
100
AcDbLine
 10
311.4791601840608
 20
222.5502399999999
 30
0.0
 11
311.5091111840608
 21
222.559558
 31
0.0
  0
LINE
  5
438
330
1E
100
AcDbEntity
  8
1
  6
Continuous
 62
     7
100
AcDbLine
 10
311.5091111840608
 20
222.559558
 30
0.0
 11
311.5384591840609
 21
222.5697919999999
 31
0.0
  0
LINE
  5
439
330
1E
100
AcDbEntity
  8
1
  6
Continuous
 62
     7
100
AcDbLine
 10
311.5384591840609
 20
222.5697919999999
 30
0.0
 11
311.5671471840609
 21
222.5809209999999
 31
0.0
  0
LINE
  5
43A
330
1E
100
AcDbEntity
  8
1
  6
Continuous
 62
     7
100
AcDbLine
 10
311.5671471840609
 20
222.5809209999999
 30
0.0
 11
311.5951221840608
 21
222.592925
 31
0.0
  0
LINE
  5
43B
330
1E
100
AcDbEntity
  8
1
  6
Continuous
 62
     7
100
AcDbLine
 10
311.5951221840608
 20
222.592925
 30
0.0
 11
311.6223291840608
 21
222.6057799999999
 31
0.0
  0
LINE
  5
43C
330
1E
100
AcDbEntity
  8
1
  6
Continuous
 62
     7
100
AcDbLine
 10
311.6223291840608
 20
222.6057799999999
 30
0.0
 11
311.6487181840609
 21
222.619462
 31
0.0
  0
LINE
  5
43D
330
1E
100
AcDbEntity
  8
1
  6
Continuous
 62
     7
100
AcDbLine
 10
311.6487181840609
 20
222.619462
 30
0.0
 11
311.6742381840609
 21
222.6339439999999
 31
0.0
  0
LINE
  5
43E
330
1E
100
AcDbEntity
  8
1
  6
Continuous
 62
     7
100
AcDbLine
 10
311.6742381840609
 20
222.6339439999999
 30
0.0
 11
311.6988401840608
 21
222.6491999999999
 31
0.0
  0
LINE
  5
43F
330
1E
100
AcDbEntity
  8
1
  6
Continuous
 62
     7
100
AcDbLine
 10
311.6988401840608
 20
222.6491999999999
 30
0.0
 11
311.7224771840608
 21
222.6652009999999
 31
0.0
  0
LINE
  5
440
330
1E
100
AcDbEntity
  8
1
  6
Continuous
 62
     7
100
AcDbLine
 10
311.7224771840608
 20
222.6652009999999
 30
0.0
 11
311.7451051840608
 21
222.681915
 31
0.0
  0
LINE
  5
441
330
1E
100
AcDbEntity
  8
1
  6
Continuous
 62
     7
100
AcDbLine
 10
311.7451051840608
 20
222.681915
 30
0.0
 11
311.7666811840608
 21
222.6993109999999
 31
0.0
  0
LINE
  5
442
330
1E
100
AcDbEntity
  8
1
  6
Continuous
 62
     7
100
AcDbLine
 10
311.7666811840608
 20
222.6993109999999
 30
0.0
 11
311.7871621840608
 21
222.717356
 31
0.0
  0
LINE
  5
443
330
1E
100
AcDbEntity
  8
1
  6
Continuous
 62
     7
100
AcDbLine
 10
311.7871621840608
 20
222.717356
 30
0.0
 11
311.8065111840609
 21
222.7360159999999
 31
0.0
  0
LINE
  5
444
330
1E
100
AcDbEntity
  8
1
  6
Continuous
 62
     7
100
AcDbLine
 10
311.8065111840609
 20
222.7360159999999
 30
0.0
 11
311.8246911840608
 21
222.755254
 31
0.0
  0
LINE
  5
445
330
1E
100
AcDbEntity
  8
1
  6
Continuous
 62
     7
100
AcDbLine
 10
311.8246911840608
 20
222.755254
 30
0.0
 11
311.8416661840608
 21
222.7750359999999
 31
0.0
  0
LINE
  5
446
330
1E
100
AcDbEntity
  8
1
  6
Continuous
 62
     7
100
AcDbLine
 10
311.8416661840608
 20
222.7750359999999
 30
0.0
 11
311.8574051840608
 21
222.7953209999999
 31
0.0
  0
LINE
  5
447
330
1E
100
AcDbEntity
  8
1
  6
Continuous
 62
     7
100
AcDbLine
 10
311.8574051840608
 20
222.7953209999999
 30
0.0
 11
311.8718781840609
 21
222.8160729999999
 31
0.0
  0
LINE
  5
448
330
1E
100
AcDbEntity
  8
1
  6
Continuous
 62
     7
100
AcDbLine
 10
311.8718781840609
 20
222.8160729999999
 30
0.0
 11
311.8850571840608
 21
222.837252
 31
0.0
  0
LINE
  5
449
330
1E
100
AcDbEntity
  8
1
  6
Continuous
 62
     7
100
AcDbLine
 10
311.8850571840608
 20
222.837252
 30
0.0
 11
311.8969171840608
 21
222.858817
 31
0.0
  0
LINE
  5
44A
330
1E
100
AcDbEntity
  8
1
  6
Continuous
 62
     7
100
AcDbLine
 10
311.8969171840608
 20
222.858817
 30
0.0
 11
311.9074351840608
 21
222.880727
 31
0.0
  0
LINE
  5
44B
330
1E
100
AcDbEntity
  8
1
  6
Continuous
 62
     7
100
AcDbLine
 10
311.9074351840608
 20
222.880727
 30
0.0
 11
311.9165921840608
 21
222.902941
 31
0.0
  0
LINE
  5
44C
330
1E
100
AcDbEntity
  8
1
  6
Continuous
 62
     7
100
AcDbLine
 10
311.9165921840608
 20
222.902941
 30
0.0
 11
311.9243691840609
 21
222.9254159999999
 31
0.0
  0
LINE
  5
44D
330
1E
100
AcDbEntity
  8
1
  6
Continuous
 62
     7
100
AcDbLine
 10
311.9243691840609
 20
222.9254159999999
 30
0.0
 11
311.9307531840608
 21
222.94811
 31
0.0
  0
LINE
  5
44E
330
1E
100
AcDbEntity
  8
1
  6
Continuous
 62
     7
100
AcDbLine
 10
311.9307531840608
 20
222.94811
 30
0.0
 11
311.9357311840608
 21
222.970979
 31
0.0
  0
LINE
  5
44F
330
1E
100
AcDbEntity
  8
1
  6
Continuous
 62
     7
100
AcDbLine
 10
311.9357311840608
 20
222.970979
 30
0.0
 11
311.9392931840608
 21
222.9939789999999
 31
0.0
  0
LINE
  5
450
330
1E
100
AcDbEntity
  8
1
  6
Continuous
 62
     7
100
AcDbLine
 10
311.9392931840608
 20
222.9939789999999
 30
0.0
 11
311.9414331840608
 21
223.017068
 31
0.0
  0
LINE
  5
451
330
1E
100
AcDbEntity
  8
1
  6
Continuous
 62
     7
100
AcDbLine
 10
311.9414331840608
 20
223.017068
 30
0.0
 11
311.9421471840608
 21
223.0402009999999
 31
0.0
  0
LINE
  5
452
330
1E
100
AcDbEntity
  8
1
  6
Continuous
 62
     7
100
AcDbLine
 10
311.9421471840608
 20
223.6475749999999
 30
0.0
 11
311.9414331840608
 21
223.670707
 31
0.0
  0
LINE
  5
453
330
1E
100
AcDbEntity
  8
1
  6
Continuous
 62
     7
100
AcDbLine
 10
311.9414331840608
 20
223.670707
 30
0.0
 11
311.9392931840608
 21
223.693796
 31
0.0
  0
LINE
  5
454
330
1E
100
AcDbEntity
  8
1
  6
Continuous
 62
     7
100
AcDbLine
 10
311.9392931840608
 20
223.693796
 30
0.0
 11
311.9357311840608
 21
223.7167959999999
 31
0.0
  0
LINE
  5
455
330
1E
100
AcDbEntity
  8
1
  6
Continuous
 62
     7
100
AcDbLine
 10
311.9357311840608
 20
223.7167959999999
 30
0.0
 11
311.9307531840608
 21
223.7396649999999
 31
0.0
  0
LINE
  5
456
330
1E
100
AcDbEntity
  8
1
  6
Continuous
 62
     7
100
AcDbLine
 10
311.9307531840608
 20
223.7396649999999
 30
0.0
 11
311.9243691840609
 21
223.7623589999999
 31
0.0
  0
LINE
  5
457
330
1E
100
AcDbEntity
  8
1
  6
Continuous
 62
     7
100
AcDbLine
 10
311.9243691840609
 20
223.7623589999999
 30
0.0
 11
311.9165911840608
 21
223.7848339999999
 31
0.0
  0
LINE
  5
458
330
1E
100
AcDbEntity
  8
1
  6
Continuous
 62
     7
100
AcDbLine
 10
311.9165911840608
 20
223.7848339999999
 30
0.0
 11
311.9074351840608
 21
223.807048
 31
0.0
  0
LINE
  5
459
330
1E
100
AcDbEntity
  8
1
  6
Continuous
 62
     7
100
AcDbLine
 10
311.9074351840608
 20
223.807048
 30
0.0
 11
311.8969171840608
 21
223.828958
 31
0.0
  0
LINE
  5
45A
330
1E
100
AcDbEntity
  8
1
  6
Continuous
 62
     7
100
AcDbLine
 10
311.8969171840608
 20
223.828958
 30
0.0
 11
311.8850571840608
 21
223.850523
 31
0.0
  0
LINE
  5
45B
330
1E
100
AcDbEntity
  8
1
  6
Continuous
 62
     7
100
AcDbLine
 10
311.8850571840608
 20
223.850523
 30
0.0
 11
311.8718781840609
 21
223.871702
 31
0.0
  0
LINE
  5
45C
330
1E
100
AcDbEntity
  8
1
  6
Continuous
 62
     7
100
AcDbLine
 10
311.8718781840609
 20
223.871702
 30
0.0
 11
311.8574051840608
 21
223.892454
 31
0.0
  0
LINE
  5
45D
330
1E
100
AcDbEntity
  8
1
  6
Continuous
 62
     7
100
AcDbLine
 10
311.8574051840608
 20
223.892454
 30
0.0
 11
311.8416661840608
 21
223.912739
 31
0.0
  0
LINE
  5
45E
330
1E
100
AcDbEntity
  8
1
  6
Continuous
 62
     7
100
AcDbLine
 10
311.8416661840608
 20
223.912739
 30
0.0
 11
311.8246911840608
 21
223.93252
 31
0.0
  0
LINE
  5
45F
330
1E
100
AcDbEntity
  8
1
  6
Continuous
 62
     7
100
AcDbLine
 10
311.8246911840608
 20
223.93252
 30
0.0
 11
311.8065111840609
 21
223.9517589999999
 31
0.0
  0
LINE
  5
460
330
1E
100
AcDbEntity
  8
1
  6
Continuous
 62
     7
100
AcDbLine
 10
311.8065111840609
 20
223.9517589999999
 30
0.0
 11
311.7871621840608
 21
223.9704189999999
 31
0.0
  0
LINE
  5
461
330
1E
100
AcDbEntity
  8
1
  6
Continuous
 62
     7
100
AcDbLine
 10
311.7871621840608
 20
223.9704189999999
 30
0.0
 11
311.7666801840608
 21
223.988464
 31
0.0
  0
LINE
  5
462
330
1E
100
AcDbEntity
  8
1
  6
Continuous
 62
     7
100
AcDbLine
 10
311.7666801840608
 20
223.988464
 30
0.0
 11
311.7451051840608
 21
224.00586
 31
0.0
  0
LINE
  5
463
330
1E
100
AcDbEntity
  8
1
  6
Continuous
 62
     7
100
AcDbLine
 10
311.7451051840608
 20
224.00586
 30
0.0
 11
311.7224771840608
 21
224.022574
 31
0.0
  0
LINE
  5
464
330
1E
100
AcDbEntity
  8
1
  6
Continuous
 62
     7
100
AcDbLine
 10
311.7224771840608
 20
224.022574
 30
0.0
 11
311.6988401840608
 21
224.038575
 31
0.0
  0
LINE
  5
465
330
1E
100
AcDbEntity
  8
1
  6
Continuous
 62
     7
100
AcDbLine
 10
311.6988401840608
 20
224.038575
 30
0.0
 11
311.6742381840609
 21
224.053831
 31
0.0
  0
LINE
  5
466
330
1E
100
AcDbEntity
  8
1
  6
Continuous
 62
     7
100
AcDbLine
 10
311.6742381840609
 20
224.053831
 30
0.0
 11
311.6487181840609
 21
224.0683129999999
 31
0.0
  0
LINE
  5
467
330
1E
100
AcDbEntity
  8
1
  6
Continuous
 62
     7
100
AcDbLine
 10
311.6487181840609
 20
224.0683129999999
 30
0.0
 11
311.6223291840608
 21
224.081995
 31
0.0
  0
LINE
  5
468
330
1E
100
AcDbEntity
  8
1
  6
Continuous
 62
     7
100
AcDbLine
 10
311.6223291840608
 20
224.081995
 30
0.0
 11
311.5951221840608
 21
224.09485
 31
0.0
  0
LINE
  5
469
330
1E
100
AcDbEntity
  8
1
  6
Continuous
 62
     7
100
AcDbLine
 10
311.5951221840608
 20
224.09485
 30
0.0
 11
311.5671471840609
 21
224.1068529999999
 31
0.0
  0
LINE
  5
46A
330
1E
100
AcDbEntity
  8
1
  6
Continuous
 62
     7
100
AcDbLine
 10
311.5671471840609
 20
224.1068529999999
 30
0.0
 11
311.5384591840609
 21
224.117983
 31
0.0
  0
LINE
  5
46B
330
1E
100
AcDbEntity
  8
1
  6
Continuous
 62
     7
100
AcDbLine
 10
311.5384591840609
 20
224.117983
 30
0.0
 11
311.5091111840608
 21
224.128216
 31
0.0
  0
LINE
  5
46C
330
1E
100
AcDbEntity
  8
1
  6
Continuous
 62
     7
100
AcDbLine
 10
311.5091111840608
 20
224.128216
 30
0.0
 11
311.4791601840608
 21
224.137535
 31
0.0
  0
LINE
  5
46D
330
1E
100
AcDbEntity
  8
1
  6
Continuous
 62
     7
100
AcDbLine
 10
311.4791601840608
 20
224.137535
 30
0.0
 11
311.4486621840608
 21
224.1459209999999
 31
0.0
  0
LINE
  5
46E
330
1E
100
AcDbEntity
  8
1
  6
Continuous
 62
     7
100
AcDbLine
 10
311.4486621840608
 20
224.1459209999999
 30
0.0
 11
311.4176761840608
 21
224.1533589999999
 31
0.0
  0
LINE
  5
46F
330
1E
100
AcDbEntity
  8
1
  6
Continuous
 62
     7
100
AcDbLine
 10
311.4176761840608
 20
224.1533589999999
 30
0.0
 11
311.3862611840609
 21
224.1598339999999
 31
0.0
  0
LINE
  5
470
330
1E
100
AcDbEntity
  8
1
  6
Continuous
 62
     7
100
AcDbLine
 10
311.3862611840609
 20
224.1598339999999
 30
0.0
 11
311.3544771840608
 21
224.165333
 31
0.0
  0
LINE
  5
471
330
1E
100
AcDbEntity
  8
1
  6
Continuous
 62
     7
100
AcDbLine
 10
311.3544771840608
 20
224.165333
 30
0.0
 11
311.3223831840608
 21
224.169847
 31
0.0
  0
LINE
  5
472
330
1E
100
AcDbEntity
  8
1
  6
Continuous
 62
     7
100
AcDbLine
 10
311.3223831840608
 20
224.169847
 30
0.0
 11
311.2900421840608
 21
224.1733669999999
 31
0.0
  0
LINE
  5
473
330
1E
100
AcDbEntity
  8
1
  6
Continuous
 62
     7
100
AcDbLine
 10
311.2900421840608
 20
224.1733669999999
 30
0.0
 11
311.2575141840608
 21
224.175886
 31
0.0
  0
LINE
  5
474
330
1E
100
AcDbEntity
  8
1
  6
Continuous
 62
     7
100
AcDbLine
 10
311.2575141840608
 20
224.175886
 30
0.0
 11
311.2248621840608
 21
224.1773989999999
 31
0.0
  0
LINE
  5
475
330
1E
100
AcDbEntity
  8
1
  6
Continuous
 62
     7
100
AcDbLine
 10
311.2248621840608
 20
224.1773989999999
 30
0.0
 11
311.1921471840608
 21
224.177904
 31
0.0
  0
LINE
  5
476
330
1E
100
AcDbEntity
  8
1
  6
Continuous
 62
     7
100
AcDbLine
 10
311.1921471840608
 20
224.177904
 30
0.0
 11
311.1594331840608
 21
224.1773989999999
 31
0.0
  0
LINE
  5
477
330
1E
100
AcDbEntity
  8
1
  6
Continuous
 62
     7
100
AcDbLine
 10
311.1594331840608
 20
224.1773989999999
 30
0.0
 11
311.1267801840609
 21
224.175886
 31
0.0
  0
LINE
  5
478
330
1E
100
AcDbEntity
  8
1
  6
Continuous
 62
     7
100
AcDbLine
 10
311.1267801840609
 20
224.175886
 30
0.0
 11
311.0942521840609
 21
224.1733669999999
 31
0.0
  0
LINE
  5
479
330
1E
100
AcDbEntity
  8
1
  6
Continuous
 62
     7
100
AcDbLine
 10
311.0942521840609
 20
224.1733669999999
 30
0.0
 11
311.0619111840608
 21
224.169847
 31
0.0
  0
LINE
  5
47A
330
1E
100
AcDbEntity
  8
1
  6
Continuous
 62
     7
100
AcDbLine
 10
311.0619111840608
 20
224.169847
 30
0.0
 11
311.0298171840609
 21
224.165333
 31
0.0
  0
LINE
  5
47B
330
1E
100
AcDbEntity
  8
1
  6
Continuous
 62
     7
100
AcDbLine
 10
311.0298171840609
 20
224.165333
 30
0.0
 11
310.9980331840608
 21
224.159833
 31
0.0
  0
LINE
  5
47C
330
1E
100
AcDbEntity
  8
1
  6
Continuous
 62
     7
100
AcDbLine
 10
310.9980331840608
 20
224.159833
 30
0.0
 11
310.9666181840609
 21
224.1533589999999
 31
0.0
  0
LINE
  5
47D
330
1E
100
AcDbEntity
  8
1
  6
Continuous
 62
     7
100
AcDbLine
 10
310.9666181840609
 20
224.1533589999999
 30
0.0
 11
310.9356321840609
 21
224.1459209999999
 31
0.0
  0
LINE
  5
47E
330
1E
100
AcDbEntity
  8
1
  6
Continuous
 62
     7
100
AcDbLine
 10
310.9356321840609
 20
224.1459209999999
 30
0.0
 11
310.9051341840608
 21
224.137535
 31
0.0
  0
LINE
  5
47F
330
1E
100
AcDbEntity
  8
1
  6
Continuous
 62
     7
100
AcDbLine
 10
310.9051341840608
 20
224.137535
 30
0.0
 11
310.8751831840608
 21
224.128216
 31
0.0
  0
LINE
  5
480
330
1E
100
AcDbEntity
  8
1
  6
Continuous
 62
     7
100
AcDbLine
 10
310.8751831840608
 20
224.128216
 30
0.0
 11
310.8458361840608
 21
224.1179819999999
 31
0.0
  0
LINE
  5
481
330
1E
100
AcDbEntity
  8
1
  6
Continuous
 62
     7
100
AcDbLine
 10
310.8458361840608
 20
224.1179819999999
 30
0.0
 11
310.8171471840608
 21
224.1068529999999
 31
0.0
  0
LINE
  5
482
330
1E
100
AcDbEntity
  8
1
  6
Continuous
 62
     7
100
AcDbLine
 10
310.8171471840608
 20
224.1068529999999
 30
0.0
 11
310.7891721840608
 21
224.09485
 31
0.0
  0
LINE
  5
483
330
1E
100
AcDbEntity
  8
1
  6
Continuous
 62
     7
100
AcDbLine
 10
310.7891721840608
 20
224.09485
 30
0.0
 11
310.7619651840608
 21
224.081995
 31
0.0
  0
LINE
  5
484
330
1E
100
AcDbEntity
  8
1
  6
Continuous
 62
     7
100
AcDbLine
 10
310.7619651840608
 20
224.081995
 30
0.0
 11
310.7355761840608
 21
224.0683129999999
 31
0.0
  0
LINE
  5
485
330
1E
100
AcDbEntity
  8
1
  6
Continuous
 62
     7
100
AcDbLine
 10
310.7355761840608
 20
224.0683129999999
 30
0.0
 11
310.7100561840608
 21
224.0538299999999
 31
0.0
  0
LINE
  5
486
330
1E
100
AcDbEntity
  8
1
  6
Continuous
 62
     7
100
AcDbLine
 10
310.7100561840608
 20
224.0538299999999
 30
0.0
 11
310.6854541840609
 21
224.038574
 31
0.0
  0
LINE
  5
487
330
1E
100
AcDbEntity
  8
1
  6
Continuous
 62
     7
100
AcDbLine
 10
310.6854541840609
 20
224.038574
 30
0.0
 11
310.6618171840608
 21
224.022574
 31
0.0
  0
LINE
  5
488
330
1E
100
AcDbEntity
  8
1
  6
Continuous
 62
     7
100
AcDbLine
 10
310.6618171840608
 20
224.022574
 30
0.0
 11
310.6391891840607
 21
224.00586
 31
0.0
  0
LINE
  5
489
330
1E
100
AcDbEntity
  8
1
  6
Continuous
 62
     7
100
AcDbLine
 10
310.6391891840607
 20
224.00586
 30
0.0
 11
310.6176141840608
 21
223.988464
 31
0.0
  0
LINE
  5
48A
330
1E
100
AcDbEntity
  8
1
  6
Continuous
 62
     7
100
AcDbLine
 10
310.6176141840608
 20
223.988464
 30
0.0
 11
310.5971321840609
 21
223.9704189999999
 31
0.0
  0
LINE
  5
48B
330
1E
100
AcDbEntity
  8
1
  6
Continuous
 62
     7
100
AcDbLine
 10
310.5971321840609
 20
223.9704189999999
 30
0.0
 11
310.5777831840608
 21
223.9517589999999
 31
0.0
  0
LINE
  5
48C
330
1E
100
AcDbEntity
  8
1
  6
Continuous
 62
     7
100
AcDbLine
 10
310.5777831840608
 20
223.9517589999999
 30
0.0
 11
310.5596031840609
 21
223.93252
 31
0.0
  0
LINE
  5
48D
330
1E
100
AcDbEntity
  8
1
  6
Continuous
 62
     7
100
AcDbLine
 10
310.5596031840609
 20
223.93252
 30
0.0
 11
310.5426281840609
 21
223.912739
 31
0.0
  0
LINE
  5
48E
330
1E
100
AcDbEntity
  8
1
  6
Continuous
 62
     7
100
AcDbLine
 10
310.5426281840609
 20
223.912739
 30
0.0
 11
310.5268891840609
 21
223.8924529999999
 31
0.0
  0
LINE
  5
48F
330
1E
100
AcDbEntity
  8
1
  6
Continuous
 62
     7
100
AcDbLine
 10
310.5268891840609
 20
223.8924529999999
 30
0.0
 11
310.5124161840608
 21
223.8717009999999
 31
0.0
  0
LINE
  5
490
330
1E
100
AcDbEntity
  8
1
  6
Continuous
 62
     7
100
AcDbLine
 10
310.5124161840608
 20
223.8717009999999
 30
0.0
 11
310.4992371840608
 21
223.850523
 31
0.0
  0
LINE
  5
491
330
1E
100
AcDbEntity
  8
1
  6
Continuous
 62
     7
100
AcDbLine
 10
310.4992371840608
 20
223.850523
 30
0.0
 11
310.4873781840609
 21
223.828958
 31
0.0
  0
LINE
  5
492
330
1E
100
AcDbEntity
  8
1
  6
Continuous
 62
     7
100
AcDbLine
 10
310.4873781840609
 20
223.828958
 30
0.0
 11
310.4768591840609
 21
223.807048
 31
0.0
  0
LINE
  5
493
330
1E
100
AcDbEntity
  8
1
  6
Continuous
 62
     7
100
AcDbLine
 10
310.4768591840609
 20
223.807048
 30
0.0
 11
310.4677031840608
 21
223.7848339999999
 31
0.0
  0
LINE
  5
494
330
1E
100
AcDbEntity
  8
1
  6
Continuous
 62
     7
100
AcDbLine
 10
310.4677031840608
 20
223.7848339999999
 30
0.0
 11
310.4599251840609
 21
223.7623589999999
 31
0.0
  0
LINE
  5
495
330
1E
100
AcDbEntity
  8
1
  6
Continuous
 62
     7
100
AcDbLine
 10
310.4599251840609
 20
223.7623589999999
 30
0.0
 11
310.4535411840608
 21
223.7396649999999
 31
0.0
  0
LINE
  5
496
330
1E
100
AcDbEntity
  8
1
  6
Continuous
 62
     7
100
AcDbLine
 10
310.4535411840608
 20
223.7396649999999
 30
0.0
 11
310.4485631840609
 21
223.7167959999999
 31
0.0
  0
LINE
  5
497
330
1E
100
AcDbEntity
  8
1
  6
Continuous
 62
     7
100
AcDbLine
 10
310.4485631840609
 20
223.7167959999999
 30
0.0
 11
310.4450011840609
 21
223.693796
 31
0.0
  0
LINE
  5
498
330
1E
100
AcDbEntity
  8
1
  6
Continuous
 62
     7
100
AcDbLine
 10
310.4450011840609
 20
223.693796
 30
0.0
 11
310.4428611840609
 21
223.670707
 31
0.0
  0
LINE
  5
499
330
1E
100
AcDbEntity
  8
1
  6
Continuous
 62
     7
100
AcDbLine
 10
310.4428611840609
 20
223.670707
 30
0.0
 11
310.4421471840609
 21
223.647574
 31
0.0
  0
LINE
  5
49A
330
1E
100
AcDbEntity
  8
1
  6
Continuous
 62
     7
100
AcDbLine
 10
310.4421471840609
 20
223.040203
 30
0.0
 11
310.4421471840609
 21
223.647574
 31
0.0
  0
LINE
  5
49B
330
1E
100
AcDbEntity
  8
1
  6
Continuous
 62
     7
100
AcDbLine
 10
311.9421471840608
 20
223.040203
 30
0.0
 11
311.9421471840608
 21
223.64758
 31
0.0
  0
ARC
  5
58B
330
1E
100
AcDbEntity
  8
1
  6
Continuous
 62
     7
100
AcDbCircle
 10
198.0532071840609
 20
260.4999999999999
 30
0.0
 40
5.0
100
AcDbArc
 50
90.0
 51
113.9625299999998
  0
LINE
  5
58C
330
1E
100
AcDbEntity
  8
1
  6
Continuous
 62
     7
100
AcDbLine
 10
198.0532071840609
 20
265.5
 30
0.0
 11
302.4921411840608
 21
265.5
 31
0.0
  0
LINE
  5
58D
330
1E
100
AcDbEntity
  8
1
  6
Continuous
 62
     7
100
AcDbLine
 10
192.4921411840609
 20
263.5
 30
0.0
 11
196.0225111840609
 21
265.069056
 31
0.0
  0
CIRCLE
  5
78F
330
1E
100
AcDbEntity
  8
1
  6
Continuous
 62
     7
100
AcDbCircle
 10
68.5
 20
218.5
 30
0.0
 40
1.399999999999999
  0
LINE
  5
7BD
330
1E
100
AcDbEntity
  8
0
100
AcDbLine
 10
64.5
 20
203.5867618942508
 30
0.0
 11
64.5
 21
190.0
 31
0.0
  0
LINE
  5
7BE
330
1E
100
AcDbEntity
  8
0
100
AcDbLine
 10
120.5
 20
203.5867618942508
 30
0.0
 11
120.5
 21
190.0
 31
0.0
  0
LINE
  5
7BF
330
1E
100
AcDbEntity
  8
0
100
AcDbLine
 10
65.5
 20
190.0
 30
0.0
 11
92.26
 21
190.0
 31
0.0
  0
LINE
  5
7C0
330
1E
100
AcDbEntity
  8
0
100
AcDbLine
 10
119.5
 20
190.0
 30
0.0
 11
92.73999999999999
 21
190.0
 31
0.0
  0
SOLID
  5
7C1
330
1E
100
AcDbEntity
  8
0
100
AcDbTrace
 10
65.5
 20
190.1666666666665
 30
0.0
 11
65.5
 21
189.8333333333333
 31
0.0
 12
64.5
 22
190.0
 32
0.0
 13
64.5
 23
190.0
 33
0.0
  0
SOLID
  5
7C2
330
1E
100
AcDbEntity
  8
0
100
AcDbTrace
 10
119.5
 20
190.1666666666665
 30
0.0
 11
119.5
 21
189.8333333333333
 31
0.0
 12
120.5
 22
190.0
 32
0.0
 13
120.5
 23
190.0
 33
0.0
  0
MTEXT
  5
7C3
330
1E
100
AcDbEntity
  8
0
100
AcDbMText
 10
92.5
 20
193.9799265460854
 30
0.0
 40
5.0
 41
0.0
 71
     5
 72
     1
  1
{\Ftxt.shx,bigfont.shx;56}
 73
     1
 44
1.0
  0
LINE
  5
7C4
330
1E
100
AcDbEntity
  8
0
100
AcDbLine
 10
190.4921450521505
 20
203.5867618942508
 30
0.0
 11
190.4921450521505
 21
190.0
 31
0.0
  0
LINE
  5
7C5
330
1E
100
AcDbEntity
  8
0
100
AcDbLine
 10
302.4921481840609
 20
203.5867618942508
 30
0.0
 11
302.4921481840609
 21
190.0
 31
0.0
  0
LINE
  5
7C6
330
1E
100
AcDbEntity
  8
0
100
AcDbLine
 10
191.4921450521505
 20
190.0
 30
0.0
 11
246.2221466181057
 21
190.0
 31
0.0
  0
LINE
  5
7C7
330
1E
100
AcDbEntity
  8
0
100
AcDbLine
 10
301.4921481840609
 20
190.0
 30
0.0
 11
246.7621466181057
 21
190.0
 31
0.0
  0
SOLID
  5
7C8
330
1E
100
AcDbEntity
  8
0
100
AcDbTrace
 10
191.4921450521505
 20
190.1666666666665
 30
0.0
 11
191.4921450521505
 21
189.8333333333333
 31
0.0
 12
190.4921450521505
 22
190.0
 32
0.0
 13
190.4921450521505
 23
190.0
 33
0.0
  0
SOLID
  5
7C9
330
1E
100
AcDbEntity
  8
0
100
AcDbTrace
 10
301.4921481840609
 20
190.1666666666665
 30
0.0
 11
301.4921481840609
 21
189.8333333333333
 31
0.0
 12
302.4921481840609
 22
190.0
 32
0.0
 13
302.4921481840609
 23
190.0
 33
0.0
  0
MTEXT
  5
7CA
330
1E
100
AcDbEntity
  8
0
100
AcDbMText
 10
246.4921466181056
 20
194.0999809644184
 30
0.0
 40
5.0
 41
0.0
 71
     5
 72
     1
  1
{\Ftxt.shx,bigfont.shx;112}
 73
     1
 44
1.0
  0
LINE
  5
7D1
330
1E
100
AcDbEntity
  8
0
100
AcDbLine
 10
315.1921461840609
 20
214.5
 30
0.0
 11
332.4921301840609
 21
214.5
 31
0.0
  0
LINE
  5
7D2
330
1E
100
AcDbEntity
  8
0
100
AcDbLine
 10
315.1921461840609
 20
268.5
 30
0.0
 11
332.4921301840609
 21
268.5
 31
0.0
  0
LINE
  5
7D3
330
1E
100
AcDbEntity
  8
0
100
AcDbLine
 10
332.4921301840609
 20
215.5
 30
0.0
 11
332.4921301840609
 21
241.3199999999999
 31
0.0
  0
LINE
  5
7D4
330
1E
100
AcDbEntity
  8
0
100
AcDbLine
 10
332.4921301840609
 20
267.5
 30
0.0
 11
332.4921301840609
 21
241.68
 31
0.0
  0
SOLID
  5
7D5
330
1E
100
AcDbEntity
  8
0
100
AcDbTrace
 10
332.3254635173942
 20
215.5
 30
0.0
 11
332.6587968507275
 21
215.5
 31
0.0
 12
332.4921301840609
 22
214.5
 32
0.0
 13
332.4921301840609
 23
214.5
 33
0.0
  0
SOLID
  5
7D6
330
1E
100
AcDbEntity
  8
0
100
AcDbTrace
 10
332.3254635173942
 20
267.5
 30
0.0
 11
332.6587968507275
 21
267.5
 31
0.0
 12
332.4921301840609
 22
268.5
 32
0.0
 13
332.4921301840609
 23
268.5
 33
0.0
  0
MTEXT
  5
7D7
330
1E
100
AcDbEntity
  8
0
100
AcDbMText
 10
328.8269432372178
 20
241.5
 30
0.0
 40
5.0
 41
0.0
 71
     5
 72
     1
  1
{\Ftxt.shx,bigfont.shx;54}
 11
0.0000000000000001
 21
1.0
 31
0.0
 73
     1
 44
1.0
  0
LINE
  5
96C
330
1E
100
AcDbEntity
  8
部品
 62
     0
100
AcDbLine
 10
149.3763080955192
 20
258.5554619683159
 30
0.0
 11
157.4023470495122
 21
258.5554619683159
 31
0.0
  0
LINE
  5
96D
330
1E
100
AcDbEntity
  8
部品
 62
     0
100
AcDbLine
 10
157.4023470495122
 20
241.6000800238715
 30
0.0
 11
149.3763080955192
 21
241.6000800238715
 31
0.0
  0
LINE
  5
96E
330
1E
100
AcDbEntity
  8
部品
 62
     0
100
AcDbLine
 10
146.2481613941303
 20
259.0570678710936
 30
0.0
 11
167.517491906283
 21
259.0570678710936
 31
0.0
  0
LINE
  5
96F
330
1E
100
AcDbEntity
  8
部品
 62
     0
100
AcDbLine
 10
146.2481613941303
 20
223.9425876193576
 30
0.0
 11
167.517491906283
 21
223.9425876193576
 31
0.0
  0
MTEXT
  5
970
330
1E
100
AcDbEntity
  8
WIRING
 62
     0
100
AcDbMText
 10
152.0823517999488
 20
242.5933010525173
 30
0.0
 40
1.504896508243978
 41
0.0
 71
     1
 72
     2
  1
\fMS PGothic|b0|i0|c128;1:1. 0  3.0-8.5mm
  7
STD
 11
0.0
 21
1.0
 31
0.0
 73
     1
 44
1.0
  0
SPLINE
  5
972
330
1E
100
AcDbEntity
  8
部品
 62
     0
100
AcDbSpline
210
0.0
220
0.0
230
1.0
 70
     8
 71
     3
 72
     8
 73
     4
 74
     0
 42
0.0000000001
 43
0.0000000001
 40
0.0
 40
0.0
 40
0.0
 40
0.0
 40
1.0
 40
1.0
 40
1.0
 40
1.0
 10
148.3730962899636
 20
242.6036363389756
 30
0.0
 10
148.3730962899636
 20
242.0493204752603
 30
0.0
 10
148.8221644865781
 20
241.6000800238715
 30
0.0
 10
149.3763080955192
 20
241.6000800238715
 30
0.0
  0
SPLINE
  5
973
330
1E
100
AcDbEntity
  8
部品
 62
     0
100
AcDbSpline
210
0.0
220
0.0
230
1.0
 70
     8
 71
     3
 72
     8
 73
     4
 74
     0
 42
0.0000000001
 43
0.0000000001
 40
0.0
 40
0.0
 40
0.0
 40
0.0
 40
1.0
 40
1.0
 40
1.0
 40
1.0
 10
149.3763080955192
 20
258.5554619683159
 30
0.0
 10
148.8221644865781
 20
258.5554619683159
 30
0.0
 10
148.3730962899636
 20
258.106221516927
 30
0.0
 10
148.3730962899636
 20
257.5522501627602
 30
0.0
  0
SPLINE
  5
974
330
1E
100
AcDbEntity
  8
部品
 62
     0
100
AcDbSpline
210
0.0
220
0.0
230
1.0
 70
     8
 71
     3
 72
     8
 73
     4
 74
     0
 42
0.0000000001
 43
0.0000000001
 40
0.0
 40
0.0
 40
0.0
 40
0.0
 40
1.0
 40
1.0
 40
1.0
 40
1.0
 10
146.2481613941303
 20
259.0570678710936
 30
0.0
 10
146.1372293194775
 20
259.0570678710936
 30
0.0
 10
146.0474845820643
 20
258.9671508789062
 30
0.0
 10
146.0474845820643
 20
258.8565633138019
 30
0.0
  0
SPLINE
  5
975
330
1E
100
AcDbEntity
  8
部品
 62
     0
100
AcDbSpline
210
0.0
220
0.0
230
1.0
 70
     8
 71
     3
 72
     8
 73
     4
 74
     0
 42
0.0000000001
 43
0.0000000001
 40
0.0
 40
0.0
 40
0.0
 40
0.0
 40
1.0
 40
1.0
 40
1.0
 40
1.0
 10
144.5426668737311
 20
259.0570678710936
 30
0.0
 10
144.4317347990782
 20
259.0570678710936
 30
0.0
 10
144.3418178068907
 20
258.9671508789062
 30
0.0
 10
144.3418178068907
 20
258.8565633138019
 30
0.0
  0
SPLINE
  5
976
330
1E
100
AcDbEntity
  8
部品
 62
     0
100
AcDbSpline
210
0.0
220
0.0
230
1.0
 70
     8
 71
     3
 72
     8
 73
     4
 74
     0
 42
0.0000000001
 43
0.0000000001
 40
0.0
 40
0.0
 40
0.0
 40
0.0
 40
1.0
 40
1.0
 40
1.0
 40
1.0
 10
145.8468077699983
 20
258.8565633138019
 30
0.0
 10
145.8468077699983
 20
258.9671508789062
 30
0.0
 10
145.7570630325852
 20
259.0570678710936
 30
0.0
 10
145.6461309579324
 20
259.0570678710936
 30
0.0
  0
SPLINE
  5
977
330
1E
100
AcDbEntity
  8
部品
 62
     0
100
AcDbSpline
210
0.0
220
0.0
230
1.0
 70
     8
 71
     3
 72
     8
 73
     4
 74
     0
 42
0.0000000001
 43
0.0000000001
 40
0.0
 40
0.0
 40
0.0
 40
0.0
 40
1.0
 40
1.0
 40
1.0
 40
1.0
 10
144.3418178068907
 20
249.0025566948783
 30
0.0
 10
143.4979416675678
 20
246.5913343641492
 30
0.0
 10
143.066787967481
 20
244.0547105577256
 30
0.0
 10
143.066787967481
 20
241.4998277452256
 30
0.0
  0
SPLINE
  5
978
330
1E
100
AcDbEntity
  8
部品
 62
     0
100
AcDbSpline
210
0.0
220
0.0
230
1.0
 70
     8
 71
     3
 72
     8
 73
     4
 74
     0
 42
0.0000000001
 43
0.0000000001
 40
0.0
 40
0.0
 40
0.0
 40
0.0
 40
1.0
 40
1.0
 40
1.0
 40
1.0
 10
144.3418178068907
 20
224.1434366861978
 30
0.0
 10
144.3418178068907
 20
224.0325046115451
 30
0.0
 10
144.4317347990782
 20
223.9425876193576
 30
0.0
 10
144.5426668737311
 20
223.9425876193576
 30
0.0
  0
SPLINE
  5
979
330
1E
100
AcDbEntity
  8
部品
 62
     0
100
AcDbSpline
210
0.0
220
0.0
230
1.0
 70
     8
 71
     3
 72
     8
 73
     4
 74
     0
 42
0.0000000001
 43
0.0000000001
 40
0.0
 40
0.0
 40
0.0
 40
0.0
 40
1.0
 40
1.0
 40
1.0
 40
1.0
 10
145.6461309579324
 20
223.9425876193576
 30
0.0
 10
145.7570630325852
 20
223.9425876193576
 30
0.0
 10
145.8468077699983
 20
224.0325046115451
 30
0.0
 10
145.8468077699983
 20
224.1434366861978
 30
0.0
  0
SPLINE
  5
97A
330
1E
100
AcDbEntity
  8
部品
 62
     0
100
AcDbSpline
210
0.0
220
0.0
230
1.0
 70
     8
 71
     3
 72
     8
 73
     4
 74
     0
 42
0.0000000001
 43
0.0000000001
 40
0.0
 40
0.0
 40
0.0
 40
0.0
 40
1.0
 40
1.0
 40
1.0
 40
1.0
 10
146.0474845820643
 20
224.1434366861978
 30
0.0
 10
146.0474845820643
 20
224.0325046115451
 30
0.0
 10
146.1372293194775
 20
223.9425876193576
 30
0.0
 10
146.2481613941303
 20
223.9425876193576
 30
0.0
  0
SPLINE
  5
97B
330
1E
100
AcDbEntity
  8
部品
 62
     0
100
AcDbSpline
210
0.0
220
0.0
230
1.0
 70
     8
 71
     3
 72
     8
 73
     4
 74
     0
 42
0.0000000001
 43
0.0000000001
 40
0.0
 40
0.0
 40
0.0
 40
0.0
 40
1.0
 40
1.0
 40
1.0
 40
1.0
 10
143.066787967481
 20
241.4998277452256
 30
0.0
 10
143.066787967481
 20
238.9452894422742
 30
0.0
 10
143.4979416675678
 20
236.4086656358507
 30
0.0
 10
144.3418178068907
 20
233.9974433051215
 30
0.0
  0
SPLINE
  5
97C
330
1E
100
AcDbEntity
  8
部品
 62
     0
100
AcDbSpline
210
0.0
220
0.0
230
1.0
 70
     8
 71
     3
 72
     8
 73
     4
 74
     0
 42
0.0000000001
 43
0.0000000001
 40
0.0
 40
0.0
 40
0.0
 40
0.0
 40
1.0
 40
1.0
 40
1.0
 40
1.0
 10
107.4486999511718
 20
254.4325439453124
 30
0.0
 10
107.4486999511718
 20
255.0698866102429
 30
0.0
 10
107.2969434950086
 20
255.6975830078124
 30
0.0
 10
107.0061774359809
 20
256.2646457248263
 30
0.0
  0
SPLINE
  5
97D
330
1E
100
AcDbEntity
  8
部品
 62
     0
100
AcDbSpline
210
0.0
220
0.0
230
1.0
 70
     8
 71
     3
 72
     8
 73
     4
 74
     0
 42
0.0000000001
 43
0.0000000001
 40
0.0
 40
0.0
 40
0.0
 40
0.0
 40
1.0
 40
1.0
 40
1.0
 40
1.0
 10
103.8289381239149
 20
262.4572048611109
 30
0.0
 10
103.4282735188802
 20
263.2382080078124
 30
0.0
 10
102.7640591091579
 20
263.8517795138888
 30
0.0
 10
101.9539449055989
 20
264.1893988715277
 30
0.0
  0
SPLINE
  5
97E
330
1E
100
AcDbEntity
  8
部品
 62
     0
100
AcDbSpline
210
0.0
220
0.0
230
1.0
 70
     8
 71
     3
 72
     8
 73
     4
 74
     0
 42
0.0000000001
 43
0.0000000001
 40
0.0
 40
0.0
 40
0.0
 40
0.0
 40
1.0
 40
1.0
 40
1.0
 40
1.0
 10
101.9539449055989
 20
264.1893988715277
 30
0.0
 10
95.90332370334202
 20
266.7101752387151
 30
0.0
 10
89.09667629665799
 20
266.7101752387151
 30
0.0
 10
83.04622734917534
 20
264.1893988715277
 30
0.0
  0
SPLINE
  5
97F
330
1E
100
AcDbEntity
  8
部品
 62
     0
100
AcDbSpline
210
0.0
220
0.0
230
1.0
 70
     8
 71
     3
 72
     8
 73
     4
 74
     0
 42
0.0000000001
 43
0.0000000001
 40
0.0
 40
0.0
 40
0.0
 40
0.0
 40
1.0
 40
1.0
 40
1.0
 40
1.0
 10
78.93209431966146
 20
263.148291015625
 30
0.0
 10
78.68576999240452
 20
263.2747260199652
 30
0.0
 10
78.38329060872396
 20
263.1775743272567
 30
0.0
 10
78.25685560438367
 20
262.9309054904513
 30
0.0
  0
SPLINE
  5
980
330
1E
100
AcDbEntity
  8
部品
 62
     0
100
AcDbSpline
210
0.0
220
0.0
230
1.0
 70
     8
 71
     3
 72
     8
 73
     4
 74
     0
 42
0.0000000001
 43
0.0000000001
 40
0.0
 40
0.0
 40
0.0
 40
0.0
 40
1.0
 40
1.0
 40
1.0
 40
1.0
 10
77.99382256401909
 20
256.2646457248263
 30
0.0
 10
77.70305650499131
 20
255.6975830078124
 30
0.0
 10
77.55130004882812
 20
255.0698866102429
 30
0.0
 10
77.55130004882812
 20
254.4325439453124
 30
0.0
  0
SPLINE
  5
981
330
1E
100
AcDbEntity
  8
部品
 62
     0
100
AcDbSpline
210
0.0
220
0.0
230
1.0
 70
     8
 71
     3
 72
     8
 73
     4
 74
     0
 42
0.0000000001
 43
0.0000000001
 40
0.0
 40
0.0
 40
0.0
 40
0.0
 40
1.0
 40
1.0
 40
1.0
 40
1.0
 10
75.50904744466146
 20
257.5751600477429
 30
0.0
 10
75.38261244032117
 20
257.3288357204859
 30
0.0
 10
75.47976413302952
 20
257.0263563368054
 30
0.0
 10
75.72626071506076
 20
256.8999213324651
 30
0.0
  0
SPLINE
  5
982
330
1E
100
AcDbEntity
  8
部品
 62
     0
100
AcDbSpline
210
0.0
220
0.0
230
1.0
 70
     8
 71
     3
 72
     8
 73
     4
 74
     0
 42
0.0000000001
 43
0.0000000001
 40
0.0
 40
0.0
 40
0.0
 40
0.0
 40
1.0
 40
1.0
 40
1.0
 40
1.0
 10
69.29409518771702
 20
265.6690673828124
 30
0.0
 10
68.83520846896701
 20
265.4575385199652
 30
0.0
 10
68.57992689344619
 20
264.9600667317707
 30
0.0
 10
68.67570054796008
 20
264.4639729817707
 30
0.0
  0
SPLINE
  5
983
330
1E
100
AcDbEntity
  8
部品
 62
     0
100
AcDbSpline
210
0.0
220
0.0
230
1.0
 70
     8
 71
     3
 72
     8
 73
     4
 74
     0
 42
0.0000000001
 43
0.0000000001
 40
0.0
 40
0.0
 40
0.0
 40
0.0
 40
1.0
 40
1.0
 40
1.0
 40
1.0
 10
68.67570054796008
 20
264.4639729817707
 30
0.0
 10
68.21698608398438
 20
264.2524441189235
 30
0.0
 10
67.96170450846354
 20
263.754972330729
 30
0.0
 10
68.05747816297743
 20
263.2588785807289
 30
0.0
  0
SPLINE
  5
984
330
1E
100
AcDbEntity
  8
部品
 62
     0
100
AcDbSpline
210
0.0
220
0.0
230
1.0
 70
     8
 71
     3
 72
     8
 73
     4
 74
     0
 42
0.0000000001
 43
0.0000000001
 40
0.0
 40
0.0
 40
0.0
 40
0.0
 40
1.0
 40
1.0
 40
1.0
 40
1.0
 10
68.67570054796008
 20
264.4639729817707
 30
0.0
 10
69.13458726671006
 20
264.6755018446179
 30
0.0
 10
69.3898688422309
 20
265.1729736328124
 30
0.0
 10
69.29409518771702
 20
265.6690673828124
 30
0.0
  0
SPLINE
  5
985
330
1E
100
AcDbEntity
  8
部品
 62
     0
100
AcDbSpline
210
0.0
220
0.0
230
1.0
 70
     8
 71
     3
 72
     8
 73
     4
 74
     0
 42
0.0000000001
 43
0.0000000001
 40
0.0
 40
0.0
 40
0.0
 40
0.0
 40
1.0
 40
1.0
 40
1.0
 40
1.0
 10
83.04622734917534
 20
264.1893988715277
 30
0.0
 10
82.23611314561631
 20
263.8517795138888
 30
0.0
 10
81.57172648111979
 20
263.2382080078124
 30
0.0
 10
81.17106187608506
 20
262.4572048611109
 30
0.0
  0
CIRCLE
  5
986
330
1E
100
AcDbEntity
  8
部品
 62
     0
100
AcDbCircle
 10
92.5
 20
241.5
 30
0.0
 40
15.0489522298177
  0
CIRCLE
  5
987
330
1E
100
AcDbEntity
  8
部品
 62
     0
100
AcDbCircle
 10
92.5
 20
241.5
 30
0.0
 40
17.5571539984809
  0
CIRCLE
  5
988
330
1E
100
AcDbEntity
  8
部品
 62
     0
100
AcDbCircle
 10
92.5
 20
241.5
 30
0.0
 40
16.55394219292533
  0
CIRCLE
  5
989
330
1E
100
AcDbEntity
  8
部品
 62
     0
100
AcDbCircle
 10
92.5
 20
241.5
 30
0.0
 40
14.54734632703992
  0
CIRCLE
  5
98A
330
1E
100
AcDbEntity
  8
部品
 62
     0
100
AcDbCircle
 10
92.5
 20
241.5
 30
0.0
 40
13.54413452148437
  0
CIRCLE
  5
98B
330
1E
100
AcDbEntity
  8
部品
 62
     0
100
AcDbCircle
 10
92.5
 20
241.5
 30
0.0
 40
11.03593275282118
  0
CIRCLE
  5
98C
330
1E
100
AcDbEntity
  8
部品
 62
     0
100
AcDbCircle
 10
92.5
 20
241.5
 30
0.0
 40
11.69808010525173
  0
LINE
  5
990
330
1E
100
AcDbEntity
  8
部品
 62
     0
100
AcDbLine
 10
77.50117390950521
 20
261.4581271701387
 30
0.0
 11
69.29409518771702
 21
265.6690673828124
 31
0.0
  0
LINE
  5
991
330
1E
100
AcDbEntity
  8
部品
 62
     0
100
AcDbLine
 10
76.26472913953993
 20
259.0479383680553
 30
0.0
 11
68.05747816297743
 21
263.2588785807289
 31
0.0
  0
LINE
  5
992
330
1E
100
AcDbEntity
  8
部品
 62
     0
100
AcDbLine
 10
94.50650973849826
 20
223.2292805989583
 30
0.0
 11
90.49349026150173
 21
223.2292805989583
 31
0.0
  0
LINE
  5
993
330
1E
100
AcDbEntity
  8
部品
 62
     0
100
AcDbLine
 10
94.20558064778644
 20
223.5303819444443
 30
0.0
 11
90.79441935221353
 21
223.5303819444443
 31
0.0
  0
LINE
  5
994
330
1E
100
AcDbEntity
  8
部品
 62
     0
100
AcDbLine
 10
94.50650973849826
 20
218.8150797526041
 30
0.0
 11
90.49349026150173
 21
218.8150797526041
 31
0.0
  0
LINE
  5
995
330
1E
100
AcDbEntity
  8
部品
 62
     0
100
AcDbLine
 10
94.20558064778644
 20
218.513978407118
 30
0.0
 11
90.79441935221353
 21
218.513978407118
 31
0.0
  0
LINE
  5
996
330
1E
100
AcDbEntity
  8
部品
 62
     0
100
AcDbLine
 10
90.49349026150173
 20
218.8150797526041
 30
0.0
 11
90.49349026150173
 21
223.2292805989583
 31
0.0
  0
LINE
  5
997
330
1E
100
AcDbEntity
  8
部品
 62
     0
100
AcDbLine
 10
92.0987325032552
 20
218.8150797526041
 30
0.0
 11
92.0987325032552
 21
223.2292805989583
 31
0.0
  0
LINE
  5
998
330
1E
100
AcDbEntity
  8
部品
 62
     0
100
AcDbLine
 10
91.69737887912328
 20
218.8150797526041
 30
0.0
 11
91.69737887912328
 21
223.2292805989583
 31
0.0
  0
LINE
  5
999
330
1E
100
AcDbEntity
  8
部品
 62
     0
100
AcDbLine
 10
91.29619750976562
 20
218.8150797526041
 30
0.0
 11
91.29619750976562
 21
223.2292805989583
 31
0.0
  0
LINE
  5
99A
330
1E
100
AcDbEntity
  8
部品
 62
     0
100
AcDbLine
 10
90.99509616427951
 20
218.8150797526041
 30
0.0
 11
90.99509616427951
 21
223.2292805989583
 31
0.0
  0
LINE
  5
99B
330
1E
100
AcDbEntity
  8
部品
 62
     0
100
AcDbLine
 10
90.6941670735677
 20
218.8150797526041
 30
0.0
 11
90.6941670735677
 21
223.2292805989583
 31
0.0
  0
LINE
  5
99C
330
1E
100
AcDbEntity
  8
部品
 62
     0
100
AcDbLine
 10
90.49349026150173
 20
218.8150797526041
 30
0.0
 11
90.79441935221353
 21
218.513978407118
 31
0.0
  0
LINE
  5
99D
330
1E
100
AcDbEntity
  8
部品
 62
     0
100
AcDbLine
 10
90.79441935221353
 20
223.5303819444443
 30
0.0
 11
90.49349026150173
 21
223.2292805989583
 31
0.0
  0
LINE
  5
99E
330
1E
100
AcDbEntity
  8
部品
 62
     0
100
AcDbLine
 10
91.39644978841145
 20
223.9775553385416
 30
0.0
 11
91.39644978841145
 21
223.5303819444443
 31
0.0
  0
LINE
  5
99F
330
1E
100
AcDbEntity
  8
部品
 62
     0
100
AcDbLine
 10
94.50650973849826
 20
218.8150797526041
 30
0.0
 11
94.50650973849826
 21
223.2292805989583
 31
0.0
  0
LINE
  5
9A0
330
1E
100
AcDbEntity
  8
部品
 62
     0
100
AcDbLine
 10
94.30583292643227
 20
218.8150797526041
 30
0.0
 11
94.30583292643227
 21
223.2292805989583
 31
0.0
  0
LINE
  5
9A1
330
1E
100
AcDbEntity
  8
部品
 62
     0
100
AcDbLine
 10
94.00490383572048
 20
218.8150797526041
 30
0.0
 11
94.00490383572048
 21
223.2292805989583
 31
0.0
  0
LINE
  5
9A2
330
1E
100
AcDbEntity
  8
部品
 62
     0
100
AcDbLine
 10
93.70397474500867
 20
218.8150797526041
 30
0.0
 11
93.70397474500867
 21
223.2292805989583
 31
0.0
  0
LINE
  5
9A3
330
1E
100
AcDbEntity
  8
部品
 62
     0
100
AcDbLine
 10
93.30262112087673
 20
218.8150797526041
 30
0.0
 11
93.30262112087673
 21
223.2292805989583
 31
0.0
  0
LINE
  5
9A4
330
1E
100
AcDbEntity
  8
部品
 62
     0
100
AcDbLine
 10
92.90126749674479
 20
218.8150797526041
 30
0.0
 11
92.90126749674479
 21
223.2292805989583
 31
0.0
  0
LINE
  5
9A5
330
1E
100
AcDbEntity
  8
部品
 62
     0
100
AcDbLine
 10
92.50008612738715
 20
218.8150797526041
 30
0.0
 11
92.50008612738715
 21
223.2292805989583
 31
0.0
  0
LINE
  5
9A6
330
1E
100
AcDbEntity
  8
部品
 62
     0
100
AcDbLine
 10
94.20558064778644
 20
218.513978407118
 30
0.0
 11
94.50650973849826
 21
218.8150797526041
 31
0.0
  0
LINE
  5
9A7
330
1E
100
AcDbEntity
  8
部品
 62
     0
100
AcDbLine
 10
93.60355021158852
 20
223.9775553385416
 30
0.0
 11
93.60355021158852
 21
223.5303819444443
 31
0.0
  0
LINE
  5
9A8
330
1E
100
AcDbEntity
  8
部品
 62
     0
100
AcDbLine
 10
94.20558064778644
 20
223.5303819444443
 30
0.0
 11
94.50650973849826
 21
223.2292805989583
 31
0.0
  0
LINE
  5
9A9
330
1E
100
AcDbEntity
  8
部品
 62
     0
100
AcDbLine
 10
78.25685560438367
 20
262.9309054904513
 30
0.0
 11
75.50904744466146
 21
257.5751600477429
 31
0.0
  0
LINE
  5
9AA
330
1E
100
AcDbEntity
  8
部品
 62
     0
100
AcDbLine
 10
77.77936537000869
 20
255.8464111328124
 30
0.0
 11
81.17106187608506
 21
262.4572048611109
 31
0.0
  0
LINE
  5
9AB
330
1E
100
AcDbEntity
  8
部品
 62
     0
100
AcDbLine
 10
77.55130004882812
 20
254.4325439453124
 30
0.0
 11
77.55130004882812
 21
250.730788845486
 31
0.0
  0
LINE
  5
9AC
330
1E
100
AcDbEntity
  8
部品
 62
     0
100
AcDbLine
 10
77.77936537000869
 20
255.8464111328124
 30
0.0
 11
75.72626071506076
 21
256.8999213324651
 31
0.0
  0
LINE
  5
9AD
330
1E
100
AcDbEntity
  8
部品
 62
     0
100
AcDbLine
 10
80.98519897460937
 20
262.0951253255207
 30
0.0
 11
78.93209431966146
 21
263.148291015625
 31
0.0
  0
LINE
  5
9B0
330
1E
100
AcDbEntity
  8
部品
 62
     0
100
AcDbLine
 10
107.0061774359809
 20
256.2646457248263
 30
0.0
 11
103.8289381239149
 21
262.4572048611109
 31
0.0
  0
LINE
  5
9B1
330
1E
100
AcDbEntity
  8
部品
 62
     0
100
AcDbLine
 10
107.4486999511718
 20
254.4325439453124
 30
0.0
 11
107.4486999511718
 21
250.730788845486
 31
0.0
  0
LINE
  5
9B2
330
1E
100
AcDbEntity
  8
部品
 62
     0
100
AcDbLine
 10
151.4888406476025
 20
241.6000800238715
 30
0.0
 11
151.4888406476025
 21
258.5554619683159
 31
0.0
  0
LINE
  5
9B3
330
1E
100
AcDbEntity
  8
部品
 62
     0
100
AcDbLine
 10
148.3730962899636
 20
242.6036363389756
 30
0.0
 11
148.3730962899636
 21
257.5522501627602
 31
0.0
  0
LINE
  5
9B4
330
1E
100
AcDbEntity
  8
部品
 62
     0
100
AcDbLine
 10
144.3418178068907
 20
241.4998277452256
 30
0.0
 11
144.3418178068907
 21
258.8565633138019
 31
0.0
  0
LINE
  5
9B5
330
1E
100
AcDbEntity
  8
部品
 62
     0
100
AcDbLine
 10
146.0474845820643
 20
241.4998277452256
 30
0.0
 11
146.0474845820643
 21
258.8565633138019
 31
0.0
  0
LINE
  5
9B6
330
1E
100
AcDbEntity
  8
部品
 62
     0
100
AcDbLine
 10
145.8468077699983
 20
241.4998277452256
 30
0.0
 11
145.8468077699983
 21
258.8565633138019
 31
0.0
  0
MTEXT
  5
9B7
330
1E
100
AcDbEntity
  8
WIRING
 62
     0
100
AcDbMText
 10
149.0115052639343
 20
244.22972140842
 30
0.0
 40
1.805886273425089
 41
0.0
 71
     1
 72
     2
  1
\fMS PGothic|b0|i0|c128;ED-IR     \H1.6052; 
  7
STD
 11
0.0
 21
1.0
 31
0.0
 73
     1
 44
1.0
  0
LINE
  5
9B9
330
1E
100
AcDbEntity
  8
部品
 62
     0
100
AcDbLine
 10
146.0474845820643
 20
241.4998277452256
 30
0.0
 11
146.0474845820643
 21
224.1434366861978
 31
0.0
  0
LINE
  5
9BA
330
1E
100
AcDbEntity
  8
部品
 62
     0
100
AcDbLine
 10
145.8468077699983
 20
241.4998277452256
 30
0.0
 11
145.8468077699983
 21
224.1434366861978
 31
0.0
  0
LINE
  5
9BB
330
1E
100
AcDbEntity
  8
部品
 62
     0
100
AcDbLine
 10
144.3418178068907
 20
241.4998277452256
 30
0.0
 11
144.3418178068907
 21
224.1434366861978
 31
0.0
  0
LINE
  5
9BC
330
1E
100
AcDbEntity
  8
部品
 62
     0
100
AcDbLine
 10
144.5426668737311
 20
223.9425876193576
 30
0.0
 11
145.6461309579324
 21
223.9425876193576
 31
0.0
  0
LINE
  5
9BD
330
1E
100
AcDbEntity
  8
部品
 62
     0
100
AcDbLine
 10
145.8468077699983
 20
224.6450425889756
 30
0.0
 11
146.0474845820643
 21
224.6450425889756
 31
0.0
  0
LINE
  5
9BE
330
1E
100
AcDbEntity
  8
部品
 62
     0
100
AcDbLine
 10
144.5426668737311
 20
259.0570678710936
 30
0.0
 11
145.6461309579324
 21
259.0570678710936
 31
0.0
  0
MTEXT
  5
9BF
330
1E
100
AcDbEntity
  8
WIRING
 62
     0
100
AcDbMText
 10
149.3124950291154
 20
252.9527031792533
 30
0.0
 40
1.504896508243978
 41
0.0
 71
     1
 72
     2
  1
\fMS PGothic|b0|i0|c128;Pro  \H1.3043; \C7;  
  7
STD
 11
0.0
 21
1.0
 31
0.0
 73
     1
 44
1.0
  0
LINE
  5
9C0
330
1E
100
AcDbEntity
  8
部品
 62
     0
100
AcDbLine
 10
145.8468077699983
 20
258.3546129014756
 30
0.0
 11
146.0474845820643
 21
258.3546129014756
 31
0.0
  0
SPLINE
  5
9C1
330
1E
100
AcDbEntity
  8
部品
 62
     0
100
AcDbSpline
210
0.0
220
0.0
230
1.0
 70
     8
 71
     3
 72
     8
 73
     4
 74
     0
 42
0.0000000001
 43
0.0000000001
 40
0.0
 40
0.0
 40
0.0
 40
0.0
 40
1.0
 40
1.0
 40
1.0
 40
1.0
 10
157.4023470495122
 20
241.6000800238715
 30
0.0
 10
157.9563184036788
 20
241.6000800238715
 30
0.0
 10
158.4055588550677
 20
242.0493204752603
 30
0.0
 10
158.4055588550677
 20
242.6036363389756
 30
0.0
  0
SPLINE
  5
9C2
330
1E
100
AcDbEntity
  8
部品
 62
     0
100
AcDbSpline
210
0.0
220
0.0
230
1.0
 70
     8
 71
     3
 72
     8
 73
     4
 74
     0
 42
0.0000000001
 43
0.0000000001
 40
0.0
 40
0.0
 40
0.0
 40
0.0
 40
1.0
 40
1.0
 40
1.0
 40
1.0
 10
158.4055588550677
 20
257.5522501627602
 30
0.0
 10
158.4055588550677
 20
258.106221516927
 30
0.0
 10
157.9563184036788
 20
258.5554619683159
 30
0.0
 10
157.4023470495122
 20
258.5554619683159
 30
0.0
  0
SPLINE
  5
9C3
330
1E
100
AcDbEntity
  8
部品
 62
     0
100
AcDbSpline
210
0.0
220
0.0
230
1.0
 70
     8
 71
     3
 72
     8
 73
     4
 74
     0
 42
0.0000000001
 43
0.0000000001
 40
0.0
 40
0.0
 40
0.0
 40
0.0
 40
1.0
 40
1.0
 40
1.0
 40
1.0
 10
189.9905387812831
 20
262.3678046332464
 30
0.0
 10
189.9905387812831
 20
264.4179809570311
 30
0.0
 10
188.3286247187831
 20
266.079895019531
 30
0.0
 10
186.2784483949982
 20
266.079895019531
 30
0.0
  0
SPLINE
  5
9C4
330
1E
100
AcDbEntity
  8
部品
 62
     0
100
AcDbSpline
210
0.0
220
0.0
230
1.0
 70
     8
 71
     3
 72
     8
 73
     4
 74
     0
 42
0.0000000001
 43
0.0000000001
 40
0.0
 40
0.0
 40
0.0
 40
0.0
 40
1.0
 40
1.0
 40
1.0
 40
1.0
 10
171.6285243498593
 20
266.079895019531
 30
0.0
 10
170.6483946840607
 20
266.079895019531
 30
0.0
 10
169.7857427743385
 20
265.4335951063365
 30
0.0
 10
169.5101351354497
 20
264.4930840386284
 30
0.0
  0
SPLINE
  5
9C5
330
1E
100
AcDbEntity
  8
部品
 62
     0
100
AcDbSpline
210
0.0
220
0.0
230
1.0
 70
     8
 71
     3
 72
     8
 73
     4
 74
     0
 42
0.0000000001
 43
0.0000000001
 40
0.0
 40
0.0
 40
0.0
 40
0.0
 40
1.0
 40
1.0
 40
1.0
 40
1.0
 10
167.7179964635745
 20
258.8565633138019
 30
0.0
 10
167.7179964635745
 20
258.9671508789062
 30
0.0
 10
167.6280794713871
 20
259.0570678710936
 30
0.0
 10
167.517491906283
 20
259.0570678710936
 30
0.0
  0
SPLINE
  5
9CC
330
1E
100
AcDbEntity
  8
部品
 62
     0
100
AcDbSpline
210
0.0
220
0.0
230
1.0
 70
     8
 71
     3
 72
     8
 73
     4
 74
     0
 42
0.0000000001
 43
0.0000000001
 40
0.0
 40
0.0
 40
0.0
 40
0.0
 40
1.0
 40
1.0
 40
1.0
 40
1.0
 10
189.7900342239913
 20
223.9425876193576
 30
0.0
 10
189.9006217890956
 20
223.9425876193576
 30
0.0
 10
189.9905387812831
 20
224.0325046115451
 30
0.0
 10
189.9905387812831
 20
224.1434366861978
 30
0.0
  0
SPLINE
  5
9CD
330
1E
100
AcDbEntity
  8
部品
 62
     0
100
AcDbSpline
210
0.0
220
0.0
230
1.0
 70
     8
 71
     3
 72
     8
 73
     4
 74
     0
 42
0.0000000001
 43
0.0000000001
 40
0.0
 40
0.0
 40
0.0
 40
0.0
 40
1.0
 40
1.0
 40
1.0
 40
1.0
 10
167.517491906283
 20
223.9425876193576
 30
0.0
 10
167.6280794713871
 20
223.9425876193576
 30
0.0
 10
167.7179964635745
 20
224.0325046115451
 30
0.0
 10
167.7179964635745
 20
224.1434366861978
 30
0.0
  0
SPLINE
  5
9CE
330
1E
100
AcDbEntity
  8
部品
 62
     0
100
AcDbSpline
210
0.0
220
0.0
230
1.0
 70
     8
 71
     3
 72
     8
 73
     4
 74
     0
 42
0.0000000001
 43
0.0000000001
 40
0.0
 40
0.0
 40
0.0
 40
0.0
 40
1.0
 40
1.0
 40
1.0
 40
1.0
 10
167.9185010208664
 20
224.1434366861978
 30
0.0
 10
167.9185010208664
 20
224.0325046115451
 30
0.0
 10
168.0084180130539
 20
223.9425876193576
 30
0.0
 10
168.1193500877067
 20
223.9425876193576
 30
0.0
  0
LINE
  5
9D0
330
1E
100
AcDbEntity
  8
部品
 62
     0
100
AcDbLine
 10
171.6285243498593
 20
266.079895019531
 30
0.0
 11
186.2784483949982
 21
266.079895019531
 31
0.0
  0
LINE
  5
9D1
330
1E
100
AcDbEntity
  8
部品
 62
     0
100
AcDbLine
 10
186.2784483949982
 20
254.4323716905381
 30
0.0
 11
171.6285243498593
 21
254.4323716905381
 31
0.0
  0
LINE
  5
9D2
330
1E
100
AcDbEntity
  8
部品
 62
     0
100
AcDbLine
 10
186.2784483949982
 20
264.1892266167534
 30
0.0
 11
171.6285243498593
 21
264.1892266167534
 31
0.0
  0
LINE
  5
9D3
330
1E
100
AcDbEntity
  8
部品
 62
     0
100
AcDbLine
 10
179.7572271493386
 20
223.5302096896701
 30
0.0
 11
183.1682161901371
 21
223.5302096896701
 31
0.0
  0
LINE
  5
9D4
330
1E
100
AcDbEntity
  8
部品
 62
     0
100
AcDbLine
 10
168.1193500877067
 20
223.9425876193576
 30
0.0
 11
189.7900342239913
 21
223.9425876193576
 31
0.0
  0
LINE
  5
9D5
330
1E
100
AcDbEntity
  8
部品
 62
     0
100
AcDbLine
 10
167.9185010208664
 20
250.7299275716144
 30
0.0
 11
189.9905387812831
 21
250.7299275716144
 31
0.0
  0
LINE
  5
9D6
330
1E
100
AcDbEntity
  8
部品
 62
     0
100
AcDbLine
 10
179.4561258038525
 20
223.229108344184
 30
0.0
 11
183.4693175356233
 21
223.229108344184
 31
0.0
  0
LINE
  5
9D7
330
1E
100
AcDbEntity
  8
部品
 62
     0
100
AcDbLine
 10
179.7572271493386
 20
218.5138061523437
 30
0.0
 11
183.1682161901371
 21
218.5138061523437
 31
0.0
  0
LINE
  5
9D8
330
1E
100
AcDbEntity
  8
部品
 62
     0
100
AcDbLine
 10
179.4561258038525
 20
218.8149074978297
 30
0.0
 11
183.4693175356233
 21
218.8149074978297
 31
0.0
  0
LINE
  5
9D9
330
1E
100
AcDbEntity
  8
部品
 62
     0
100
AcDbLine
 10
158.4055588550677
 20
257.5522501627602
 30
0.0
 11
158.4055588550677
 21
242.6036363389756
 31
0.0
  0
LINE
  5
9DA
330
1E
100
AcDbEntity
  8
部品
 62
     0
100
AcDbLine
 10
167.7179964635745
 20
241.4998277452256
 30
0.0
 11
167.7179964635745
 21
258.8565633138019
 31
0.0
  0
LINE
  5
9DB
330
1E
100
AcDbEntity
  8
部品
 62
     0
100
AcDbLine
 10
167.9185010208664
 20
241.4998277452256
 30
0.0
 11
167.9185010208664
 21
259.0570678710936
 31
0.0
  0
MTEXT
  5
9DC
330
1E
100
AcDbEntity
  8
WIRING
 62
     0
100
AcDbMText
 10
154.2634417522057
 20
244.3137817382812
 30
0.0
 40
1.504896508243978
 41
0.0
 71
     1
 72
     2
  1
\fMS PGothic|b0|i0|c128;1/3"
  7
STD
 11
0.0
 21
1.0
 31
0.0
 73
     1
 44
1.0
  0
MTEXT
  5
9DD
330
1E
100
AcDbEntity
  8
WIRING
 62
     0
100
AcDbMText
 10
156.4661243508821
 20
244.6493340386284
 30
0.0
 40
1.203906617900997
 41
0.0
 71
     1
 72
     2
  1
\fMS PGothic|b0|i0|c128;Made in Japan
  7
STD
 11
0.0
 21
1.0
 31
0.0
 73
     1
 44
1.0
  0
LINE
  5
9DE
330
1E
100
AcDbEntity
  8
部品
 62
     0
100
AcDbLine
 10
156.1803716805885
 20
223.1901787651909
 30
0.0
 11
159.5917052309358
 21
223.1901787651909
 31
0.0
  0
LINE
  5
9DF
330
1E
100
AcDbEntity
  8
部品
 62
     0
100
AcDbLine
 10
155.3776644323247
 20
223.5415785047742
 30
0.0
 11
160.3940679696511
 21
223.5415785047742
 31
0.0
  0
LINE
  5
9E0
330
1E
100
AcDbEntity
  8
部品
 62
     0
100
AcDbLine
 10
155.879614844651
 20
222.8894219292534
 30
0.0
 11
159.8924620668732
 21
222.8894219292534
 31
0.0
  0
LINE
  5
9E1
330
1E
100
AcDbEntity
  8
部品
 62
     0
100
AcDbLine
 10
156.1803716805885
 20
218.5751288519965
 30
0.0
 11
159.5917052309358
 21
218.5751288519965
 31
0.0
  0
LINE
  5
9E2
330
1E
100
AcDbEntity
  8
部品
 62
     0
100
AcDbLine
 10
155.879614844651
 20
218.8762301974826
 30
0.0
 11
159.8924620668732
 21
218.8762301974826
 31
0.0
  0
LINE
  5
9E3
330
1E
100
AcDbEntity
  8
部品
 62
     0
100
AcDbLine
 10
155.3776644323247
 20
223.5415785047742
 30
0.0
 11
155.3776644323247
 21
223.9425876193576
 31
0.0
  0
LINE
  5
9E4
330
1E
100
AcDbEntity
  8
部品
 62
     0
100
AcDbLine
 10
155.879614844651
 20
218.8762301974826
 30
0.0
 11
155.879614844651
 21
222.8894219292534
 31
0.0
  0
LINE
  5
9E5
330
1E
100
AcDbEntity
  8
部品
 62
     0
100
AcDbLine
 10
156.0801194019427
 20
218.8762301974826
 30
0.0
 11
156.0801194019427
 21
222.8894219292534
 31
0.0
  0
LINE
  5
9E6
330
1E
100
AcDbEntity
  8
部品
 62
     0
100
AcDbLine
 10
156.3812207474289
 20
218.8762301974826
 30
0.0
 11
156.3812207474289
 21
222.8894219292534
 31
0.0
  0
LINE
  5
9E7
330
1E
100
AcDbEntity
  8
部品
 62
     0
100
AcDbLine
 10
156.6819775833664
 20
218.8762301974826
 30
0.0
 11
156.6819775833664
 21
222.8894219292534
 31
0.0
  0
LINE
  5
9E8
330
1E
100
AcDbEntity
  8
部品
 62
     0
100
AcDbLine
 10
157.0833312074982
 20
218.8762301974826
 30
0.0
 11
157.0833312074982
 21
222.8894219292534
 31
0.0
  0
LINE
  5
9E9
330
1E
100
AcDbEntity
  8
部品
 62
     0
100
AcDbLine
 10
157.4846848316303
 20
218.8762301974826
 30
0.0
 11
157.4846848316303
 21
222.8894219292534
 31
0.0
  0
LINE
  5
9EA
330
1E
100
AcDbEntity
  8
部品
 62
     0
100
AcDbLine
 10
158.2873920798942
 20
218.8762301974826
 30
0.0
 11
158.2873920798942
 21
222.8894219292534
 31
0.0
  0
LINE
  5
9EB
330
1E
100
AcDbEntity
  8
部品
 62
     0
100
AcDbLine
 10
158.688745704026
 20
218.8762301974826
 30
0.0
 11
158.688745704026
 21
222.8894219292534
 31
0.0
  0
LINE
  5
9EC
330
1E
100
AcDbEntity
  8
部品
 62
     0
100
AcDbLine
 10
157.8860384557622
 20
218.8762301974826
 30
0.0
 11
157.8860384557622
 21
222.8894219292534
 31
0.0
  0
LINE
  5
9EE
330
1E
100
AcDbEntity
  8
部品
 62
     0
100
AcDbLine
 10
156.1803716805885
 20
218.5751288519965
 30
0.0
 11
155.879614844651
 21
218.8762301974826
 31
0.0
  0
LINE
  5
9EF
330
1E
100
AcDbEntity
  8
部品
 62
     0
100
AcDbLine
 10
157.0833312074982
 20
223.1901787651909
 30
0.0
 11
157.0833312074982
 21
223.5415785047742
 31
0.0
  0
LINE
  5
9F0
330
1E
100
AcDbEntity
  8
部品
 62
     0
100
AcDbLine
 10
156.1803716805885
 20
223.1901787651909
 30
0.0
 11
155.879614844651
 21
222.8894219292534
 31
0.0
  0
LINE
  5
9F1
330
1E
100
AcDbEntity
  8
部品
 62
     0
100
AcDbLine
 10
158.688745704026
 20
223.1901787651909
 30
0.0
 11
158.688745704026
 21
223.5415785047742
 31
0.0
  0
LINE
  5
9F2
330
1E
100
AcDbEntity
  8
部品
 62
     0
100
AcDbLine
 10
159.8924620668732
 20
218.8762301974826
 30
0.0
 11
159.8924620668732
 21
222.8894219292534
 31
0.0
  0
LINE
  5
9F3
330
1E
100
AcDbEntity
  8
部品
 62
     0
100
AcDbLine
 10
159.6919575095816
 20
218.8762301974826
 30
0.0
 11
159.6919575095816
 21
222.8894219292534
 31
0.0
  0
LINE
  5
9F4
330
1E
100
AcDbEntity
  8
部品
 62
     0
100
AcDbLine
 10
159.090099328158
 20
218.8762301974826
 30
0.0
 11
159.090099328158
 21
222.8894219292534
 31
0.0
  0
LINE
  5
9F5
330
1E
100
AcDbEntity
  8
部品
 62
     0
100
AcDbLine
 10
159.3908561640955
 20
218.8762301974826
 30
0.0
 11
159.3908561640955
 21
222.8894219292534
 31
0.0
  0
LINE
  5
9F6
330
1E
100
AcDbEntity
  8
部品
 62
     0
100
AcDbLine
 10
159.8924620668732
 20
218.8762301974826
 30
0.0
 11
159.5917052309358
 21
218.5751288519965
 31
0.0
  0
LINE
  5
9F7
330
1E
100
AcDbEntity
  8
部品
 62
     0
100
AcDbLine
 10
159.5917052309358
 20
223.1901787651909
 30
0.0
 11
159.8924620668732
 21
222.8894219292534
 31
0.0
  0
LINE
  5
9F8
330
1E
100
AcDbEntity
  8
部品
 62
     0
100
AcDbLine
 10
160.3940679696511
 20
223.5415785047742
 30
0.0
 11
160.3940679696511
 21
223.9425876193576
 31
0.0
  0
LINE
  5
9F9
330
1E
100
AcDbEntity
  8
部品
 62
     0
100
AcDbLine
 10
167.9185010208664
 20
241.4998277452256
 30
0.0
 11
167.9185010208664
 21
224.1434366861978
 31
0.0
  0
LINE
  5
9FA
330
1E
100
AcDbEntity
  8
部品
 62
     0
100
AcDbLine
 10
167.7179964635745
 20
241.4998277452256
 30
0.0
 11
167.7179964635745
 21
224.1434366861978
 31
0.0
  0
LINE
  5
9FB
330
1E
100
AcDbEntity
  8
部品
 62
     0
100
AcDbLine
 10
167.7179964635745
 20
225.347153049045
 30
0.0
 11
167.9185010208664
 21
225.347153049045
 31
0.0
  0
LINE
  5
9FC
330
1E
100
AcDbEntity
  8
部品
 62
     0
100
AcDbLine
 10
167.9185010208664
 20
225.1969468858507
 30
0.0
 11
167.9185010208664
 21
224.1434366861978
 31
0.0
  0
LINE
  5
9FD
330
1E
100
AcDbEntity
  8
部品
 62
     0
100
AcDbLine
 10
179.4561258038525
 20
218.8149074978297
 30
0.0
 11
179.4561258038525
 21
223.229108344184
 31
0.0
  0
LINE
  5
9FE
330
1E
100
AcDbEntity
  8
部品
 62
     0
100
AcDbLine
 10
180.2588330521164
 20
218.8149074978297
 30
0.0
 11
180.2588330521164
 21
223.229108344184
 31
0.0
  0
LINE
  5
9FF
330
1E
100
AcDbEntity
  8
部品
 62
     0
100
AcDbLine
 10
179.9580762161789
 20
218.8149074978297
 30
0.0
 11
179.9580762161789
 21
223.229108344184
 31
0.0
  0
LINE
  5
A00
330
1E
100
AcDbEntity
  8
部品
 62
     0
100
AcDbLine
 10
179.6569748706927
 20
218.8149074978297
 30
0.0
 11
179.6569748706927
 21
223.229108344184
 31
0.0
  0
LINE
  5
A01
330
1E
100
AcDbEntity
  8
部品
 62
     0
100
AcDbLine
 10
179.7572271493386
 20
218.5138061523437
 30
0.0
 11
179.4561258038525
 21
218.8149074978297
 31
0.0
  0
LINE
  5
A02
330
1E
100
AcDbEntity
  8
部品
 62
     0
100
AcDbLine
 10
180.3590853307622
 20
223.9425876193576
 30
0.0
 11
180.3590853307622
 21
223.5302096896701
 31
0.0
  0
LINE
  5
A03
330
1E
100
AcDbEntity
  8
部品
 62
     0
100
AcDbLine
 10
179.7572271493386
 20
223.5302096896701
 30
0.0
 11
179.4561258038525
 21
223.229108344184
 31
0.0
  0
MTEXT
  5
A04
330
1E
100
AcDbEntity
  8
WIRING
 62
     0
100
AcDbMText
 10
154.2644752808515
 20
252.9527031792533
 30
0.0
 40
1.504896508243978
 41
0.0
 71
     1
 72
     2
  1
\fMS PGothic|b0|i0|c128;CS
  7
STD
 11
0.0
 21
1.0
 31
0.0
 73
     1
 44
1.0
  0
LINE
  5
A05
330
1E
100
AcDbEntity
  8
部品
 62
     0
100
AcDbLine
 10
167.7179964635745
 20
257.6525024414061
 30
0.0
 11
167.9185010208664
 21
257.6525024414061
 31
0.0
  0
LINE
  5
A06
330
1E
100
AcDbEntity
  8
部品
 62
     0
100
AcDbLine
 10
167.9185010208664
 20
259.0570678710936
 30
0.0
 11
169.5101351354497
 21
264.4930840386284
 31
0.0
  0
LINE
  5
A08
330
1E
100
AcDbEntity
  8
部品
 62
     0
100
AcDbLine
 10
190.4921446840608
 20
241.4998277452256
 30
0.0
 11
190.4921446840608
 21
256.3481892903645
 31
0.0
  0
LINE
  5
A0A
330
1E
100
AcDbEntity
  8
部品
 62
     0
100
AcDbLine
 10
189.9905387812831
 20
258.7559665256075
 30
0.0
 11
189.9905387812831
 21
241.4998277452256
 31
0.0
  0
LINE
  5
A10
330
1E
100
AcDbEntity
  8
部品
 62
     0
100
AcDbLine
 10
189.9905387812831
 20
241.4998277452256
 30
0.0
 11
189.9905387812831
 21
224.1434366861978
 31
0.0
  0
LINE
  5
A11
330
1E
100
AcDbEntity
  8
部品
 62
     0
100
AcDbLine
 10
183.4693175356233
 20
218.8149074978297
 30
0.0
 11
183.4693175356233
 21
223.229108344184
 31
0.0
  0
LINE
  5
A12
330
1E
100
AcDbEntity
  8
部品
 62
     0
100
AcDbLine
 10
181.8639030390956
 20
218.8149074978297
 30
0.0
 11
181.8639030390956
 21
223.229108344184
 31
0.0
  0
LINE
  5
A13
330
1E
100
AcDbEntity
  8
部品
 62
     0
100
AcDbLine
 10
182.2652566632275
 20
218.8149074978297
 30
0.0
 11
182.2652566632275
 21
223.229108344184
 31
0.0
  0
LINE
  5
A14
330
1E
100
AcDbEntity
  8
部品
 62
     0
100
AcDbLine
 10
182.6666102873594
 20
218.8149074978297
 30
0.0
 11
182.6666102873594
 21
223.229108344184
 31
0.0
  0
LINE
  5
A15
330
1E
100
AcDbEntity
  8
部品
 62
     0
100
AcDbLine
 10
181.0615403003802
 20
218.8149074978297
 30
0.0
 11
181.0615403003802
 21
223.229108344184
 31
0.0
  0
LINE
  5
A16
330
1E
100
AcDbEntity
  8
部品
 62
     0
100
AcDbLine
 10
180.6601866762483
 20
218.8149074978297
 30
0.0
 11
180.6601866762483
 21
223.229108344184
 31
0.0
  0
LINE
  5
A17
330
1E
100
AcDbEntity
  8
部品
 62
     0
100
AcDbLine
 10
182.9677116328456
 20
218.8149074978297
 30
0.0
 11
182.9677116328456
 21
223.229108344184
 31
0.0
  0
LINE
  5
A18
330
1E
100
AcDbEntity
  8
部品
 62
     0
100
AcDbLine
 10
183.2688129783315
 20
218.8149074978297
 30
0.0
 11
183.2688129783315
 21
223.229108344184
 31
0.0
  0
LINE
  5
A19
330
1E
100
AcDbEntity
  8
部品
 62
     0
100
AcDbLine
 10
181.462893924512
 20
218.8149074978297
 30
0.0
 11
181.462893924512
 21
223.229108344184
 31
0.0
  0
LINE
  5
A1B
330
1E
100
AcDbEntity
  8
部品
 62
     0
100
AcDbLine
 10
183.4693175356233
 20
218.8149074978297
 30
0.0
 11
183.1682161901371
 21
218.5138061523437
 31
0.0
  0
LINE
  5
A1C
330
1E
100
AcDbEntity
  8
部品
 62
     0
100
AcDbLine
 10
182.5663580087136
 20
223.9425876193576
 30
0.0
 11
182.5663580087136
 21
223.5302096896701
 31
0.0
  0
LINE
  5
A1D
330
1E
100
AcDbEntity
  8
部品
 62
     0
100
AcDbLine
 10
183.1682161901371
 20
223.5302096896701
 30
0.0
 11
183.4693175356233
 21
223.229108344184
 31
0.0
  0
LINE
  5
A1E
330
1E
100
AcDbEntity
  8
部品
 62
     0
100
AcDbLine
 10
190.4921446840608
 20
241.4998277452256
 30
0.0
 11
190.4921446840608
 21
226.6514662000867
 31
0.0
  0
LINE
  5
A26
330
1E
100
AcDbEntity
  8
部品
 62
     0
100
AcDbLine
 10
190.2916401267692
 20
226.4509616427951
 30
0.0
 11
190.4921446840608
 21
226.6514662000867
 31
0.0
  0
LINE
  5
A27
330
1E
100
AcDbEntity
  8
部品
 62
     0
100
AcDbLine
 10
189.9905387812831
 20
226.4509616427951
 30
0.0
 11
190.2916401267692
 21
226.4509616427951
 31
0.0
  0
LINE
  5
A34
330
1E
100
AcDbEntity
  8
部品
 62
     0
100
AcDbLine
 10
189.9905387812831
 20
256.5490383572047
 30
0.0
 11
190.2916401267692
 21
256.5490383572047
 31
0.0
  0
LINE
  5
A35
330
1E
100
AcDbEntity
  8
部品
 62
     0
100
AcDbLine
 10
190.2916401267692
 20
256.5490383572047
 30
0.0
 11
190.4921446840608
 21
256.3481892903645
 31
0.0
  0
LINE
  5
A3E
330
1E
100
AcDbEntity
  8
部品
 62
     0
100
AcDbLine
 10
189.9905387812831
 20
258.5554619683159
 30
0.0
 11
189.9905387812831
 21
262.3678046332464
 31
0.0
  0
LINE
  5
A44
330
1E
100
AcDbEntity
  8
0
100
AcDbLine
 10
71.36778998277555
 20
264.6050828522215
 30
0.0
 11
74.5
 21
265.5
 31
0.0
  0
LINE
  5
A45
330
1E
100
AcDbEntity
  8
0
100
AcDbLine
 10
67.5
 20
263.5
 30
0.0
 11
68.0543013745758
 21
263.6583718213073
 31
0.0
  0
ARC
  5
A47
330
1E
100
AcDbEntity
  8
0
100
AcDbCircle
 10
92.5
 20
279.2499999999999
 30
0.0
 40
22.65088298499641
100
AcDbArc
 50
217.3758074955481
 51
229.5072567374005
  0
ARC
  5
A48
330
1E
100
AcDbEntity
  8
0
100
AcDbCircle
 10
92.5
 20
279.2499999999999
 30
0.0
 40
22.6503684494262
100
AcDbArc
 50
303.2787283233036
 51
322.6241925044516
  0
ARC
  5
A4D
330
1E
100
AcDbEntity
  8
0
100
AcDbCircle
 10
92.5
 20
290.29
 30
0.0
 40
28.64728276173461
100
AcDbArc
 50
243.0125566385393
 51
248.6792424256326
  0
ARC
  5
A52
330
1E
100
AcDbEntity
  8
0
100
AcDbCircle
 10
92.5
 20
290.29
 30
0.0
 40
28.64726018958637
100
AcDbArc
 50
291.3209088942289
 51
296.9874006720083
  0
LINE
  5
A57
330
1E
100
AcDbEntity
  8
0
100
AcDbLine
 10
144.3418178068907
 20
202.5230509440103
 30
0.0
 11
144.3418178068907
 21
190.0
 31
0.0
  0
LINE
  5
A58
330
1E
100
AcDbEntity
  8
0
100
AcDbLine
 10
190.4921450521505
 20
202.5230508826789
 30
0.0
 11
190.4921450521505
 21
190.0
 31
0.0
  0
LINE
  5
A59
330
1E
100
AcDbEntity
  8
0
100
AcDbLine
 10
145.3418178068907
 20
190.0
 30
0.0
 11
167.1769814295205
 21
190.0
 31
0.0
  0
LINE
  5
A5A
330
1E
100
AcDbEntity
  8
0
100
AcDbLine
 10
189.4921450521505
 20
190.0
 30
0.0
 11
167.6569814295206
 21
190.0
 31
0.0
  0
SOLID
  5
A5B
330
1E
100
AcDbEntity
  8
0
100
AcDbTrace
 10
145.3418178068907
 20
190.1666666666666
 30
0.0
 11
145.3418178068907
 21
189.8333333333333
 31
0.0
 12
144.3418178068907
 22
190.0
 32
0.0
 13
144.3418178068907
 23
190.0
 33
0.0
  0
SOLID
  5
A5C
330
1E
100
AcDbEntity
  8
0
100
AcDbTrace
 10
189.4921450521505
 20
190.1666666666666
 30
0.0
 11
189.4921450521505
 21
189.8333333333333
 31
0.0
 12
190.4921450521505
 22
190.0
 32
0.0
 13
190.4921450521505
 23
190.0
 33
0.0
  0
MTEXT
  5
A5D
330
1E
100
AcDbEntity
  8
0
100
AcDbMText
 10
164.9969757706403
 20
193.9885607005925
 30
0.0
 40
5.0
 41
0.0
 71
     5
 72
     1
  1
{\Ftxt.shx,extfont.shx;46}
 73
     1
 44
1.0
  0
ENDSEC
  0
SECTION
  2
OBJECTS
  0
DICTIONARY
  5
C
330
0
100
AcDbDictionary
281
     1
  3
ACAD_GROUP
350
D
  3
ACAD_PLOTSTYLENAME
350
E
  3
ACAD_MLINESTYLE
350
16
  3
ACAD_PLOTSETTINGS
350
18
  3
ACAD_LAYOUT
350
19
  0
DICTIONARY
  5
D
102
{ACAD_REACTORS
330
C
102
}
330
C
100
AcDbDictionary
281
     1
  0
ACDBDICTIONARYWDFLT
  5
E
102
{ACAD_REACTORS
330
C
102
}
330
C
100
AcDbDictionary
281
     1
  3
Normal
350
F
100
AcDbDictionaryWithDefault
340
F
  0
DICTIONARY
  5
16
102
{ACAD_REACTORS
330
C
102
}
330
C
100
AcDbDictionary
281
     1
  3
Standard
350
17
  0
DICTIONARY
  5
18
102
{ACAD_REACTORS
330
C
102
}
330
C
100
AcDbDictionary
281
     1
  0
DICTIONARY
  5
19
102
{ACAD_REACTORS
330
C
102
}
330
C
100
AcDbDictionary
281
     1
  3
ﾚｲｱｳﾄ1
350
1D
  3
Model
350
21
  0
ACDBPLACEHOLDER
  5
F
102
{ACAD_REACTORS
330
E
102
}
330
E
  0
MLINESTYLE
  5
17
102
{ACAD_REACTORS
330
16
102
}
330
16
100
AcDbMlineStyle
  2
STANDARD
 70
     0
  3

 62
   256
 51
90.0
 52
90.0
 71
     2
 49
0.5
 62
   256
  6
BYLAYER
 49
-0.5
 62
   256
  6
BYLAYER
  0
LAYOUT
  5
1D
102
{ACAD_REACTORS
330
19
102
}
330
19
100
AcDbPlotSettings
  1

  2
自動 Canon LASER SHOT LBP-1820 (merit 上)
  4

  6

 40
0.0
 41
0.0
 42
0.0
 43
0.0
 44
0.0
 45
0.0
 46
0.0
 47
0.0
 48
0.0
 49
0.0
140
0.0
141
0.0
142
1.0
143
1.0
 70
   688
 72
     0
 73
     0
 74
     5
  7

 75
    16
147
1.0
148
0.0
149
0.0
100
AcDbLayout
  1
ﾚｲｱｳﾄ1
 70
     1
 71
     1
 10
0.0
 20
0.0
 11
12.0
 21
9.0
 12
0.0
 22
0.0
 32
0.0
 14
0.0
 24
0.0
 34
0.0
 15
297.0
 25
210.0
 35
0.0
146
0.0
 13
0.0
 23
0.0
 33
0.0
 16
1.0
 26
0.0
 36
0.0
 17
0.0
 27
1.0
 37
0.0
 76
     0
330
1A
  0
LAYOUT
  5
21
102
{ACAD_REACTORS
330
19
102
}
330
19
100
AcDbPlotSettings
  1

  2
自動 Canon LASER SHOT LBP-1820 (merit 上)
  4

  6

 40
0.0
 41
0.0
 42
0.0
 43
0.0
 44
0.0
 45
0.0
 46
0.0
 47
0.0
 48
0.0
 49
0.0
140
0.0
141
0.0
142
1.0
143
1.0
 70
  1712
 72
     0
 73
     0
 74
     0
  7

 75
     0
147
1.0
148
0.0
149
0.0
100
AcDbLayout
  1
Model
 70
     1
 71
     0
 10
0.0
 20
0.0
 11
12.0
 21
9.0
 12
0.0
 22
0.0
 32
0.0
 14
0.0
 24
0.0
 34
0.0
 15
0.0
 25
0.0
 35
0.0
146
0.0
 13
0.0
 23
0.0
 33
0.0
 16
1.0
 26
0.0
 36
0.0
 17
0.0
 27
1.0
 37
0.0
 76
     0
330
1E
  0
ENDSEC
  0
EOF
