  0
SECTION
  2
HEADER
  9
$ACADVER
  1
AC1015
  9
$ACADMAINTVER
 70
     6
  9
$DWGCODEPAGE
  3
ANSI_932
  9
$INSBASE
 10
0.0
 20
0.0
 30
0.0
  9
$EXTMIN
 10
20.0
 20
12.54441396945981
 30
0.0
  9
$EXTMAX
 10
390.26738
 20
560.0
 30
0.0
  9
$LIMMIN
 10
0.0
 20
0.0
  9
$LIMMAX
 10
420.0
 20
594.0
  9
$ORTHOMODE
 70
     1
  9
$REGENMODE
 70
     1
  9
$FILLMODE
 70
     1
  9
$QTEXTMODE
 70
     0
  9
$MIRRTEXT
 70
     1
  9
$LTSCALE
 40
0.5
  9
$ATTMODE
 70
     1
  9
$TEXTSIZE
 40
0.2
  9
$TRACEWID
 40
0.05
  9
$TEXTSTYLE
  7
STANDARD
  9
$CLAYER
  8
0
  9
$CELTYPE
  6
ByLayer
  9
$CECOLOR
 62
   256
  9
$CELTSCALE
 40
1.0
  9
$DISPSILH
 70
     0
  9
$DIMSCALE
 40
1.0
  9
$DIMASZ
 40
1.0
  9
$DIMEXO
 40
0.0
  9
$DIMDLI
 40
0.5
  9
$DIMRND
 40
0.0
  9
$DIMDLE
 40
0.0
  9
$DIMEXE
 40
0.0
  9
$DIMTP
 40
0.0
  9
$DIMTM
 40
0.0
  9
$DIMTXT
 40
0.18
  9
$DIMCEN
 40
0.0
  9
$DIMTSZ
 40
0.0
  9
$DIMTOL
 70
     0
  9
$DIMLIM
 70
     0
  9
$DIMTIH
 70
     1
  9
$DIMTOH
 70
     1
  9
$DIMSE1
 70
     0
  9
$DIMSE2
 70
     0
  9
$DIMTAD
 70
     0
  9
$DIMZIN
 70
     0
  9
$DIMBLK
  1

  9
$DIMASO
 70
     0
  9
$DIMSHO
 70
     0
  9
$DIMPOST
  1

  9
$DIMAPOST
  1

  9
$DIMALT
 70
     0
  9
$DIMALTD
 70
     0
  9
$DIMALTF
 40
25.4
  9
$DIMLFAC
 40
1.0
  9
$DIMTOFL
 70
     0
  9
$DIMTVP
 40
0.0
  9
$DIMTIX
 70
     0
  9
$DIMSOXD
 70
     0
  9
$DIMSAH
 70
     0
  9
$DIMBLK1
  1

  9
$DIMBLK2
  1

  9
$DIMSTYLE
  2
Standard
  9
$DIMCLRD
 70
     0
  9
$DIMCLRE
 70
     0
  9
$DIMCLRT
 70
     0
  9
$DIMTFAC
 40
1.0
  9
$DIMGAP
 40
0.09
  9
$DIMJUST
 70
     0
  9
$DIMSD1
 70
     0
  9
$DIMSD2
 70
     0
  9
$DIMTOLJ
 70
     1
  9
$DIMTZIN
 70
     0
  9
$DIMALTZ
 70
     0
  9
$DIMALTTZ
 70
     0
  9
$DIMUPT
 70
     0
  9
$DIMDEC
 70
     4
  9
$DIMTDEC
 70
     4
  9
$DIMALTU
 70
     2
  9
$DIMALTTD
 70
     2
  9
$DIMTXSTY
  7
STANDARD
  9
$DIMAUNIT
 70
     0
  9
$DIMADEC
 70
     0
  9
$DIMALTRND
 40
0.0
  9
$DIMAZIN
 70
     0
  9
$DIMDSEP
 70
    46
  9
$DIMATFIT
 70
     3
  9
$DIMFRAC
 70
     0
  9
$DIMLDRBLK
  1

  9
$DIMLUNIT
 70
     2
  9
$DIMLWD
 70
    -2
  9
$DIMLWE
 70
    -2
  9
$DIMTMOVE
 70
     0
  9
$LUNITS
 70
     2
  9
$LUPREC
 70
     2
  9
$SKETCHINC
 40
0.0
  9
$FILLETRAD
 40
0.0
  9
$AUNITS
 70
     1
  9
$AUPREC
 70
     2
  9
$MENU
  1
ACAD
  9
$ELEVATION
 40
0.0
  9
$PELEVATION
 40
0.0
  9
$THICKNESS
 40
0.0
  9
$LIMCHECK
 70
     1
  9
$CHAMFERA
 40
0.0
  9
$CHAMFERB
 40
0.0
  9
$CHAMFERC
 40
0.0
  9
$CHAMFERD
 40
0.0
  9
$SKPOLY
 70
     0
  9
$TDCREATE
 40
2311941.009540694
  9
$TDUCREATE
 40
2311940.634540694
  9
$TDUPDATE
 40
2454792.661012546
  9
$TDUUPDATE
 40
2454792.286012546
  9
$TDINDWG
 40
0.0645809954
  9
$TDUSRTIMER
 40
0.0645809954
  9
$USRTIMER
 70
     1
  9
$ANGBASE
 50
0.0
  9
$ANGDIR
 70
     0
  9
$PDMODE
 70
     0
  9
$PDSIZE
 40
0.0
  9
$PLINEWID
 40
0.0
  9
$SPLFRAME
 70
     0
  9
$SPLINETYPE
 70
     6
  9
$SPLINESEGS
 70
     8
  9
$HANDSEED
  5
6B3
  9
$SURFTAB1
 70
     6
  9
$SURFTAB2
 70
     6
  9
$SURFTYPE
 70
     6
  9
$SURFU
 70
     6
  9
$SURFV
 70
     6
  9
$UCSBASE
  2

  9
$UCSNAME
  2

  9
$UCSORG
 10
0.0
 20
0.0
 30
0.0
  9
$UCSXDIR
 10
1.0
 20
0.0
 30
0.0
  9
$UCSYDIR
 10
0.0
 20
1.0
 30
0.0
  9
$UCSORTHOREF
  2

  9
$UCSORTHOVIEW
 70
     0
  9
$UCSORGTOP
 10
0.0
 20
0.0
 30
0.0
  9
$UCSORGBOTTOM
 10
0.0
 20
0.0
 30
0.0
  9
$UCSORGLEFT
 10
0.0
 20
0.0
 30
0.0
  9
$UCSORGRIGHT
 10
0.0
 20
0.0
 30
0.0
  9
$UCSORGFRONT
 10
0.0
 20
0.0
 30
0.0
  9
$UCSORGBACK
 10
0.0
 20
0.0
 30
0.0
  9
$PUCSBASE
  2

  9
$PUCSNAME
  2

  9
$PUCSORG
 10
0.0
 20
0.0
 30
0.0
  9
$PUCSXDIR
 10
1.0
 20
0.0
 30
0.0
  9
$PUCSYDIR
 10
0.0
 20
1.0
 30
0.0
  9
$PUCSORTHOREF
  2

  9
$PUCSORTHOVIEW
 70
     0
  9
$PUCSORGTOP
 10
0.0
 20
0.0
 30
0.0
  9
$PUCSORGBOTTOM
 10
0.0
 20
0.0
 30
0.0
  9
$PUCSORGLEFT
 10
0.0
 20
0.0
 30
0.0
  9
$PUCSORGRIGHT
 10
0.0
 20
0.0
 30
0.0
  9
$PUCSORGFRONT
 10
0.0
 20
0.0
 30
0.0
  9
$PUCSORGBACK
 10
0.0
 20
0.0
 30
0.0
  9
$USERI1
 70
     0
  9
$USERI2
 70
     0
  9
$USERI3
 70
     0
  9
$USERI4
 70
     0
  9
$USERI5
 70
     0
  9
$USERR1
 40
0.0
  9
$USERR2
 40
0.0
  9
$USERR3
 40
0.0
  9
$USERR4
 40
0.0
  9
$USERR5
 40
0.0
  9
$WORLDVIEW
 70
     1
  9
$SHADEDGE
 70
     3
  9
$SHADEDIF
 70
    70
  9
$TILEMODE
 70
     1
  9
$MAXACTVP
 70
    64
  9
$PINSBASE
 10
0.0
 20
0.0
 30
0.0
  9
$PLIMCHECK
 70
     0
  9
$PEXTMIN
 10
0.0
 20
0.0
 30
0.0
  9
$PEXTMAX
 10
210.0
 20
297.0
 30
0.0
  9
$PLIMMIN
 10
0.0
 20
0.0
  9
$PLIMMAX
 10
12.0
 20
9.0
  9
$UNITMODE
 70
     0
  9
$VISRETAIN
 70
     1
  9
$PLINEGEN
 70
     0
  9
$PSLTSCALE
 70
     1
  9
$TREEDEPTH
 70
  3020
  9
$CMLSTYLE
  2
Standard
  9
$CMLJUST
 70
     0
  9
$CMLSCALE
 40
1.0
  9
$PROXYGRAPHICS
 70
     1
  9
$MEASUREMENT
 70
     0
  9
$CELWEIGHT
370
    -1
  9
$ENDCAPS
280
     0
  9
$JOINSTYLE
280
     0
  9
$LWDISPLAY
290
     0
  9
$INSUNITS
 70
     0
  9
$HYPERLINKBASE
  1

  9
$STYLESHEET
  1

  9
$XEDIT
290
     1
  9
$CEPSNTYPE
380
     0
  9
$PSTYLEMODE
290
     1
  9
$FINGERPRINTGUID
  2
{8839A688-4CBC-45AE-B5C6-DB139BBCCB75}
  9
$VERSIONGUID
  2
{73DC95EF-EA1F-4CDA-AC05-73457CA00D0D}
  9
$EXTNAMES
290
     1
  9
$PSVPSCALE
 40
0.0
  9
$OLESTARTUP
290
     0
  0
ENDSEC
  0
SECTION
  2
CLASSES
  0
CLASS
  1
ACDBDICTIONARYWDFLT
  2
AcDbDictionaryWithDefault
  3
AutoCAD 2000
 90
        0
280
     0
281
     0
  0
CLASS
  1
ACDBPLACEHOLDER
  2
AcDbPlaceHolder
  3
AutoCAD 2000
 90
        0
280
     0
281
     0
  0
CLASS
  1
LAYOUT
  2
AcDbLayout
  3
AutoCAD 2000
 90
        0
280
     0
281
     0
  0
ENDSEC
  0
SECTION
  2
TABLES
  0
TABLE
  2
VPORT
  5
8
330
0
100
AcDbSymbolTable
 70
     8
  0
VPORT
  5
6B2
330
8
100
AcDbSymbolTableRecord
100
AcDbViewportTableRecord
  2
*Active
 70
     0
 10
0.0
 20
0.0
 11
1.0
 21
1.0
 12
241.4155384305565
 22
397.7838313650789
 13
0.0
 23
0.0
 14
1.0
 24
1.0
 15
0.0
 25
0.0
 16
0.0
 26
0.0
 36
1.0
 17
0.0
 27
0.0
 37
0.0
 40
424.1400553366494
 41
1.461725394896719
 42
50.0
 43
0.0
 44
0.0
 50
0.0
 51
0.0
 71
     0
 72
   100
 73
     1
 74
     1
 75
     0
 76
     0
 77
     0
 78
     0
281
     0
 65
     1
110
0.0
120
0.0
130
0.0
111
1.0
121
0.0
131
0.0
112
0.0
122
1.0
132
0.0
 79
     0
146
0.0
  0
ENDTAB
  0
TABLE
  2
LTYPE
  5
5
330
0
100
AcDbSymbolTable
 70
     5
  0
LTYPE
  5
13
330
5
100
AcDbSymbolTableRecord
100
AcDbLinetypeTableRecord
  2
ByBlock
 70
     0
  3

 72
    65
 73
     0
 40
0.0
  0
LTYPE
  5
14
330
5
100
AcDbSymbolTableRecord
100
AcDbLinetypeTableRecord
  2
ByLayer
 70
     0
  3

 72
    65
 73
     0
 40
0.0
  0
LTYPE
  5
15
330
5
100
AcDbSymbolTableRecord
100
AcDbLinetypeTableRecord
  2
CONTINUOUS
 70
     0
  3
Solid line
 72
    65
 73
     0
 40
0.0
  0
LTYPE
  5
22
330
5
100
AcDbSymbolTableRecord
100
AcDbLinetypeTableRecord
  2
HIDDEN
 70
     0
  3
------------------------
 72
    65
 73
     2
 40
12.6
 49
8.4
 74
     0
 49
-4.2
 74
     0
  0
LTYPE
  5
23
330
5
100
AcDbSymbolTableRecord
100
AcDbLinetypeTableRecord
  2
DOT
 70
     0
  3
････････････････････････
 72
    65
 73
     2
 40
8.0
 49
6.0
 74
     0
 49
-2.0
 74
     0
  0
LTYPE
  5
24
330
5
100
AcDbSymbolTableRecord
100
AcDbLinetypeTableRecord
  2
DASHDOT
 70
     0
  3
--･--･--･--･--･--･--･--
 72
    65
 73
     4
 40
50.5
 49
30.0
 74
     0
 49
-9.0
 74
     0
 49
2.5
 74
     0
 49
-9.0
 74
     0
  0
LTYPE
  5
25
330
5
100
AcDbSymbolTableRecord
100
AcDbLinetypeTableRecord
  2
DIVIDE
 70
     0
  3
--･･--･･--･･--･･--･･--
 72
    65
 73
     6
 40
58.0
 49
30.0
 74
     0
 49
-9.0
 74
     0
 49
2.5
 74
     0
 49
-5.0
 74
     0
 49
2.5
 74
     0
 49
-9.0
 74
     0
  0
ENDTAB
  0
TABLE
  2
LAYER
  5
2
330
0
100
AcDbSymbolTable
 70
     3
  0
LAYER
  5
10
330
2
100
AcDbSymbolTableRecord
100
AcDbLayerTableRecord
  2
0
 70
     0
 62
     7
  6
CONTINUOUS
370
    -3
390
F
  0
LAYER
  5
26
330
2
100
AcDbSymbolTableRecord
100
AcDbLayerTableRecord
  2
CONTINUOUS1
 70
     0
 62
     7
  6
CONTINUOUS
370
    -3
390
F
  0
LAYER
  5
27
330
2
100
AcDbSymbolTableRecord
100
AcDbLayerTableRecord
  2
HIDDEN1
 70
     0
 62
     7
  6
HIDDEN
370
    -3
390
F
  0
ENDTAB
  0
TABLE
  2
STYLE
  5
3
330
0
100
AcDbSymbolTable
 70
     1
  0
STYLE
  5
11
330
3
100
AcDbSymbolTableRecord
100
AcDbTextStyleTableRecord
  2
STANDARD
 70
     0
 40
0.0
 41
1.0
 50
0.0
 71
     0
 42
0.2
  3
TXT.shx
  4
bigfont.shx
  0
ENDTAB
  0
TABLE
  2
VIEW
  5
6
330
0
100
AcDbSymbolTable
 70
     0
  0
ENDTAB
  0
TABLE
  2
UCS
  5
7
330
0
100
AcDbSymbolTable
 70
     0
  0
ENDTAB
  0
TABLE
  2
APPID
  5
9
330
0
100
AcDbSymbolTable
 70
     1
  0
APPID
  5
12
330
9
100
AcDbSymbolTableRecord
100
AcDbRegAppTableRecord
  2
ACAD
 70
     0
  0
ENDTAB
  0
TABLE
  2
DIMSTYLE
  5
A
330
0
100
AcDbSymbolTable
 70
     1
100
AcDbDimStyleTable
 71
     1
340
664
  0
DIMSTYLE
105
664
330
A
100
AcDbSymbolTableRecord
100
AcDbDimStyleTableRecord
  2
Standard
 70
     0
340
11
  0
ENDTAB
  0
TABLE
  2
BLOCK_RECORD
  5
1
330
0
100
AcDbSymbolTable
 70
     0
  0
BLOCK_RECORD
  5
1E
330
1
100
AcDbSymbolTableRecord
100
AcDbBlockTableRecord
  2
*Model_Space
340
21
  0
BLOCK_RECORD
  5
1A
330
1
100
AcDbSymbolTableRecord
100
AcDbBlockTableRecord
  2
*Paper_Space
340
1D
  0
ENDTAB
  0
ENDSEC
  0
SECTION
  2
BLOCKS
  0
BLOCK
  5
1F
330
1E
100
AcDbEntity
  8
0
100
AcDbBlockBegin
  2
*Model_Space
 70
     0
 10
0.0
 20
0.0
 30
0.0
  3
*Model_Space
  1

  0
ENDBLK
  5
20
330
1E
100
AcDbEntity
  8
0
100
AcDbBlockEnd
  0
BLOCK
  5
1B
330
1A
100
AcDbEntity
 67
     1
  8
0
100
AcDbBlockBegin
  2
*Paper_Space
 70
     0
 10
0.0
 20
0.0
 30
0.0
  3
*Paper_Space
  1

  0
ENDBLK
  5
1C
330
1A
100
AcDbEntity
 67
     1
  8
0
100
AcDbBlockEnd
  0
ENDSEC
  0
SECTION
  2
ENTITIES
  0
ARC
  5
69
330
1E
100
AcDbEntity
  8
CONTINUOUS1
100
AcDbCircle
 10
200.0
 20
261.381941
 30
0.0
 40
49.042553
100
AcDbArc
 50
182.386979
 51
357.613021
  0
LINE
  5
6A
330
1E
100
AcDbEntity
  8
CONTINUOUS1
100
AcDbLine
 10
147.0
 20
277.8393879999999
 30
0.0
 11
253.0
 21
277.8393879999999
 31
0.0
  0
LINE
  5
6B
330
1E
100
AcDbEntity
  8
CONTINUOUS1
100
AcDbLine
 10
147.0
 20
277.8393879999999
 30
0.0
 11
144.0
 21
299.839388
 31
0.0
  0
LINE
  5
6C
330
1E
100
AcDbEntity
  8
CONTINUOUS1
100
AcDbLine
 10
144.0
 20
299.839388
 30
0.0
 11
256.0
 21
299.839388
 31
0.0
  0
LINE
  5
6D
330
1E
100
AcDbEntity
  8
CONTINUOUS1
100
AcDbLine
 10
256.0
 20
299.839388
 30
0.0
 11
253.0
 21
277.8393879999999
 31
0.0
  0
LINE
  5
6E
330
1E
100
AcDbEntity
  8
CONTINUOUS1
100
AcDbLine
 10
147.0
 20
261.3393879999999
 30
0.0
 11
147.0
 21
277.8393879999999
 31
0.0
  0
ARC
  5
6F
330
1E
100
AcDbEntity
  8
CONTINUOUS1
100
AcDbCircle
 10
149.0
 20
261.3393879999999
 30
0.0
 40
2.0
100
AcDbArc
 50
180.0
 51
270.0
  0
LINE
  5
70
330
1E
100
AcDbEntity
  8
CONTINUOUS1
100
AcDbLine
 10
149.0
 20
259.3393879999999
 30
0.0
 11
251.0
 21
259.3393879999999
 31
0.0
  0
LINE
  5
71
330
1E
100
AcDbEntity
  8
CONTINUOUS1
100
AcDbLine
 10
253.0
 20
277.8393879999999
 30
0.0
 11
253.0
 21
261.3393879999999
 31
0.0
  0
ARC
  5
72
330
1E
100
AcDbEntity
  8
CONTINUOUS1
100
AcDbCircle
 10
251.0
 20
261.3393879999999
 30
0.0
 40
2.0
100
AcDbArc
 50
270.0
 51
0.0
  0
LINE
  5
73
330
1E
100
AcDbEntity
  8
CONTINUOUS1
100
AcDbLine
 10
197.5
 20
277.8393879999999
 30
0.0
 11
197.5
 21
267.8393879999999
 31
0.0
  0
LINE
  5
74
330
1E
100
AcDbEntity
  8
CONTINUOUS1
100
AcDbLine
 10
202.4999999999999
 20
277.8393879999999
 30
0.0
 11
202.4999999999999
 21
267.8393879999999
 31
0.0
  0
LINE
  5
75
330
1E
100
AcDbEntity
  8
CONTINUOUS1
100
AcDbLine
 10
197.5
 20
267.8393879999999
 30
0.0
 11
197.502379
 21
267.7303399999999
 31
0.0
  0
LINE
  5
76
330
1E
100
AcDbEntity
  8
CONTINUOUS1
100
AcDbLine
 10
197.502379
 20
267.7303399999999
 30
0.0
 11
197.5095129999999
 21
267.621499
 31
0.0
  0
LINE
  5
77
330
1E
100
AcDbEntity
  8
CONTINUOUS1
100
AcDbLine
 10
197.5095129999999
 20
267.621499
 30
0.0
 11
197.521388
 21
267.513073
 31
0.0
  0
LINE
  5
78
330
1E
100
AcDbEntity
  8
CONTINUOUS1
100
AcDbLine
 10
197.521388
 20
267.513073
 30
0.0
 11
197.5379809999999
 21
267.405268
 31
0.0
  0
LINE
  5
79
330
1E
100
AcDbEntity
  8
CONTINUOUS1
100
AcDbLine
 10
197.5379809999999
 20
267.405268
 30
0.0
 11
197.55926
 21
267.298289
 31
0.0
  0
LINE
  5
7A
330
1E
100
AcDbEntity
  8
CONTINUOUS1
100
AcDbLine
 10
197.55926
 20
267.298289
 30
0.0
 11
197.5851849999999
 21
267.192341
 31
0.0
  0
LINE
  5
7B
330
1E
100
AcDbEntity
  8
CONTINUOUS1
100
AcDbLine
 10
197.5851849999999
 20
267.192341
 30
0.0
 11
197.615708
 21
267.087624
 31
0.0
  0
LINE
  5
7C
330
1E
100
AcDbEntity
  8
CONTINUOUS1
100
AcDbLine
 10
197.615708
 20
267.087624
 30
0.0
 11
197.650768
 21
266.9843379999999
 31
0.0
  0
LINE
  5
7D
330
1E
100
AcDbEntity
  8
CONTINUOUS1
100
AcDbLine
 10
197.650768
 20
266.9843379999999
 30
0.0
 11
197.690301
 21
266.88268
 31
0.0
  0
LINE
  5
7E
330
1E
100
AcDbEntity
  8
CONTINUOUS1
100
AcDbLine
 10
197.690301
 20
266.88268
 30
0.0
 11
197.734231
 21
266.782842
 31
0.0
  0
LINE
  5
7F
330
1E
100
AcDbEntity
  8
CONTINUOUS1
100
AcDbLine
 10
197.734231
 20
266.782842
 30
0.0
 11
197.782473
 21
266.685017
 31
0.0
  0
LINE
  5
80
330
1E
100
AcDbEntity
  8
CONTINUOUS1
100
AcDbLine
 10
197.782473
 20
266.685017
 30
0.0
 11
197.8349359999999
 21
266.589388
 31
0.0
  0
LINE
  5
81
330
1E
100
AcDbEntity
  8
CONTINUOUS1
100
AcDbLine
 10
197.8349359999999
 20
266.589388
 30
0.0
 11
197.8915209999999
 21
266.496139
 31
0.0
  0
LINE
  5
82
330
1E
100
AcDbEntity
  8
CONTINUOUS1
100
AcDbLine
 10
197.8915209999999
 20
266.496139
 30
0.0
 11
197.95212
 21
266.405447
 31
0.0
  0
LINE
  5
83
330
1E
100
AcDbEntity
  8
CONTINUOUS1
100
AcDbLine
 10
197.95212
 20
266.405447
 30
0.0
 11
198.016617
 21
266.317485
 31
0.0
  0
LINE
  5
84
330
1E
100
AcDbEntity
  8
CONTINUOUS1
100
AcDbLine
 10
198.016617
 20
266.317485
 30
0.0
 11
198.0848889999999
 21
266.232419
 31
0.0
  0
LINE
  5
85
330
1E
100
AcDbEntity
  8
CONTINUOUS1
100
AcDbLine
 10
198.0848889999999
 20
266.232419
 30
0.0
 11
198.156807
 21
266.150413
 31
0.0
  0
LINE
  5
86
330
1E
100
AcDbEntity
  8
CONTINUOUS1
100
AcDbLine
 10
198.156807
 20
266.150413
 30
0.0
 11
198.232233
 21
266.0716209999999
 31
0.0
  0
LINE
  5
87
330
1E
100
AcDbEntity
  8
CONTINUOUS1
100
AcDbLine
 10
198.232233
 20
266.0716209999999
 30
0.0
 11
198.311024
 21
265.996195
 31
0.0
  0
LINE
  5
88
330
1E
100
AcDbEntity
  8
CONTINUOUS1
100
AcDbLine
 10
198.311024
 20
265.996195
 30
0.0
 11
198.393031
 21
265.924277
 31
0.0
  0
LINE
  5
89
330
1E
100
AcDbEntity
  8
CONTINUOUS1
100
AcDbLine
 10
198.393031
 20
265.924277
 30
0.0
 11
198.4780959999999
 21
265.8560049999999
 31
0.0
  0
LINE
  5
8A
330
1E
100
AcDbEntity
  8
CONTINUOUS1
100
AcDbLine
 10
198.4780959999999
 20
265.8560049999999
 30
0.0
 11
198.5660589999999
 21
265.791508
 31
0.0
  0
LINE
  5
8B
330
1E
100
AcDbEntity
  8
CONTINUOUS1
100
AcDbLine
 10
198.5660589999999
 20
265.791508
 30
0.0
 11
198.656751
 21
265.7309099999999
 31
0.0
  0
LINE
  5
8C
330
1E
100
AcDbEntity
  8
CONTINUOUS1
100
AcDbLine
 10
198.656751
 20
265.7309099999999
 30
0.0
 11
198.75
 21
265.674325
 31
0.0
  0
LINE
  5
8D
330
1E
100
AcDbEntity
  8
CONTINUOUS1
100
AcDbLine
 10
198.75
 20
265.674325
 30
0.0
 11
198.845628
 21
265.6218609999999
 31
0.0
  0
LINE
  5
8E
330
1E
100
AcDbEntity
  8
CONTINUOUS1
100
AcDbLine
 10
198.845628
 20
265.6218609999999
 30
0.0
 11
198.9434539999999
 21
265.573619
 31
0.0
  0
LINE
  5
8F
330
1E
100
AcDbEntity
  8
CONTINUOUS1
100
AcDbLine
 10
198.9434539999999
 20
265.573619
 30
0.0
 11
199.0432909999999
 21
265.529689
 31
0.0
  0
LINE
  5
90
330
1E
100
AcDbEntity
  8
CONTINUOUS1
100
AcDbLine
 10
199.0432909999999
 20
265.529689
 30
0.0
 11
199.14495
 21
265.490157
 31
0.0
  0
LINE
  5
91
330
1E
100
AcDbEntity
  8
CONTINUOUS1
100
AcDbLine
 10
199.14495
 20
265.490157
 30
0.0
 11
199.248236
 21
265.4550959999999
 31
0.0
  0
LINE
  5
92
330
1E
100
AcDbEntity
  8
CONTINUOUS1
100
AcDbLine
 10
199.248236
 20
265.4550959999999
 30
0.0
 11
199.3529519999999
 21
265.4245739999999
 31
0.0
  0
LINE
  5
93
330
1E
100
AcDbEntity
  8
CONTINUOUS1
100
AcDbLine
 10
199.3529519999999
 20
265.4245739999999
 30
0.0
 11
199.458901
 21
265.3986479999999
 31
0.0
  0
LINE
  5
94
330
1E
100
AcDbEntity
  8
CONTINUOUS1
100
AcDbLine
 10
199.458901
 20
265.3986479999999
 30
0.0
 11
199.5658799999999
 21
265.3773689999999
 31
0.0
  0
LINE
  5
95
330
1E
100
AcDbEntity
  8
CONTINUOUS1
100
AcDbLine
 10
199.5658799999999
 20
265.3773689999999
 30
0.0
 11
199.6736849999999
 21
265.3607759999999
 31
0.0
  0
LINE
  5
96
330
1E
100
AcDbEntity
  8
CONTINUOUS1
100
AcDbLine
 10
199.6736849999999
 20
265.3607759999999
 30
0.0
 11
199.782111
 21
265.3489009999999
 31
0.0
  0
LINE
  5
97
330
1E
100
AcDbEntity
  8
CONTINUOUS1
100
AcDbLine
 10
199.782111
 20
265.3489009999999
 30
0.0
 11
199.8909519999999
 21
265.341768
 31
0.0
  0
LINE
  5
98
330
1E
100
AcDbEntity
  8
CONTINUOUS1
100
AcDbLine
 10
199.8909519999999
 20
265.341768
 30
0.0
 11
200.0
 21
265.3393879999999
 31
0.0
  0
LINE
  5
99
330
1E
100
AcDbEntity
  8
CONTINUOUS1
100
AcDbLine
 10
200.0
 20
265.3393879999999
 30
0.0
 11
200.109048
 21
265.341768
 31
0.0
  0
LINE
  5
9A
330
1E
100
AcDbEntity
  8
CONTINUOUS1
100
AcDbLine
 10
200.109048
 20
265.341768
 30
0.0
 11
200.2178889999999
 21
265.3489009999999
 31
0.0
  0
LINE
  5
9B
330
1E
100
AcDbEntity
  8
CONTINUOUS1
100
AcDbLine
 10
200.2178889999999
 20
265.3489009999999
 30
0.0
 11
200.3263149999999
 21
265.3607759999999
 31
0.0
  0
LINE
  5
9C
330
1E
100
AcDbEntity
  8
CONTINUOUS1
100
AcDbLine
 10
200.3263149999999
 20
265.3607759999999
 30
0.0
 11
200.43412
 21
265.3773689999999
 31
0.0
  0
LINE
  5
9D
330
1E
100
AcDbEntity
  8
CONTINUOUS1
100
AcDbLine
 10
200.43412
 20
265.3773689999999
 30
0.0
 11
200.541099
 21
265.3986479999999
 31
0.0
  0
LINE
  5
9E
330
1E
100
AcDbEntity
  8
CONTINUOUS1
100
AcDbLine
 10
200.541099
 20
265.3986479999999
 30
0.0
 11
200.6470479999999
 21
265.4245739999999
 31
0.0
  0
LINE
  5
9F
330
1E
100
AcDbEntity
  8
CONTINUOUS1
100
AcDbLine
 10
200.6470479999999
 20
265.4245739999999
 30
0.0
 11
200.7517639999999
 21
265.4550959999999
 31
0.0
  0
LINE
  5
A0
330
1E
100
AcDbEntity
  8
CONTINUOUS1
100
AcDbLine
 10
200.7517639999999
 20
265.4550959999999
 30
0.0
 11
200.85505
 21
265.490157
 31
0.0
  0
LINE
  5
A1
330
1E
100
AcDbEntity
  8
CONTINUOUS1
100
AcDbLine
 10
200.85505
 20
265.490157
 30
0.0
 11
200.956709
 21
265.529689
 31
0.0
  0
LINE
  5
A2
330
1E
100
AcDbEntity
  8
CONTINUOUS1
100
AcDbLine
 10
200.956709
 20
265.529689
 30
0.0
 11
201.056546
 21
265.573619
 31
0.0
  0
LINE
  5
A3
330
1E
100
AcDbEntity
  8
CONTINUOUS1
100
AcDbLine
 10
201.056546
 20
265.573619
 30
0.0
 11
201.154372
 21
265.6218609999999
 31
0.0
  0
LINE
  5
A4
330
1E
100
AcDbEntity
  8
CONTINUOUS1
100
AcDbLine
 10
201.154372
 20
265.6218609999999
 30
0.0
 11
201.25
 21
265.674325
 31
0.0
  0
LINE
  5
A5
330
1E
100
AcDbEntity
  8
CONTINUOUS1
100
AcDbLine
 10
201.25
 20
265.674325
 30
0.0
 11
201.343249
 21
265.7309099999999
 31
0.0
  0
LINE
  5
A6
330
1E
100
AcDbEntity
  8
CONTINUOUS1
100
AcDbLine
 10
201.343249
 20
265.7309099999999
 30
0.0
 11
201.433941
 21
265.791508
 31
0.0
  0
LINE
  5
A7
330
1E
100
AcDbEntity
  8
CONTINUOUS1
100
AcDbLine
 10
201.433941
 20
265.791508
 30
0.0
 11
201.521904
 21
265.8560049999999
 31
0.0
  0
LINE
  5
A8
330
1E
100
AcDbEntity
  8
CONTINUOUS1
100
AcDbLine
 10
201.521904
 20
265.8560049999999
 30
0.0
 11
201.606969
 21
265.924277
 31
0.0
  0
LINE
  5
A9
330
1E
100
AcDbEntity
  8
CONTINUOUS1
100
AcDbLine
 10
201.606969
 20
265.924277
 30
0.0
 11
201.688976
 21
265.996195
 31
0.0
  0
LINE
  5
AA
330
1E
100
AcDbEntity
  8
CONTINUOUS1
100
AcDbLine
 10
201.688976
 20
265.996195
 30
0.0
 11
201.7677669999999
 21
266.0716209999999
 31
0.0
  0
LINE
  5
AB
330
1E
100
AcDbEntity
  8
CONTINUOUS1
100
AcDbLine
 10
201.7677669999999
 20
266.0716209999999
 30
0.0
 11
201.8431929999999
 21
266.150413
 31
0.0
  0
LINE
  5
AC
330
1E
100
AcDbEntity
  8
CONTINUOUS1
100
AcDbLine
 10
201.8431929999999
 20
266.150413
 30
0.0
 11
201.915111
 21
266.232419
 31
0.0
  0
LINE
  5
AD
330
1E
100
AcDbEntity
  8
CONTINUOUS1
100
AcDbLine
 10
201.915111
 20
266.232419
 30
0.0
 11
201.983383
 21
266.317485
 31
0.0
  0
LINE
  5
AE
330
1E
100
AcDbEntity
  8
CONTINUOUS1
100
AcDbLine
 10
201.983383
 20
266.317485
 30
0.0
 11
202.0478799999999
 21
266.405447
 31
0.0
  0
LINE
  5
AF
330
1E
100
AcDbEntity
  8
CONTINUOUS1
100
AcDbLine
 10
202.0478799999999
 20
266.405447
 30
0.0
 11
202.108479
 21
266.496139
 31
0.0
  0
LINE
  5
B0
330
1E
100
AcDbEntity
  8
CONTINUOUS1
100
AcDbLine
 10
202.108479
 20
266.496139
 30
0.0
 11
202.1650639999999
 21
266.589388
 31
0.0
  0
LINE
  5
B1
330
1E
100
AcDbEntity
  8
CONTINUOUS1
100
AcDbLine
 10
202.1650639999999
 20
266.589388
 30
0.0
 11
202.2175269999999
 21
266.685017
 31
0.0
  0
LINE
  5
B2
330
1E
100
AcDbEntity
  8
CONTINUOUS1
100
AcDbLine
 10
202.2175269999999
 20
266.685017
 30
0.0
 11
202.2657689999999
 21
266.782842
 31
0.0
  0
LINE
  5
B3
330
1E
100
AcDbEntity
  8
CONTINUOUS1
100
AcDbLine
 10
202.2657689999999
 20
266.782842
 30
0.0
 11
202.3096989999999
 21
266.88268
 31
0.0
  0
LINE
  5
B4
330
1E
100
AcDbEntity
  8
CONTINUOUS1
100
AcDbLine
 10
202.3096989999999
 20
266.88268
 30
0.0
 11
202.3492319999999
 21
266.9843379999999
 31
0.0
  0
LINE
  5
B5
330
1E
100
AcDbEntity
  8
CONTINUOUS1
100
AcDbLine
 10
202.3492319999999
 20
266.9843379999999
 30
0.0
 11
202.3842919999999
 21
267.087624
 31
0.0
  0
LINE
  5
B6
330
1E
100
AcDbEntity
  8
CONTINUOUS1
100
AcDbLine
 10
202.3842919999999
 20
267.087624
 30
0.0
 11
202.414815
 21
267.192341
 31
0.0
  0
LINE
  5
B7
330
1E
100
AcDbEntity
  8
CONTINUOUS1
100
AcDbLine
 10
202.414815
 20
267.192341
 30
0.0
 11
202.4407399999999
 21
267.298289
 31
0.0
  0
LINE
  5
B8
330
1E
100
AcDbEntity
  8
CONTINUOUS1
100
AcDbLine
 10
202.4407399999999
 20
267.298289
 30
0.0
 11
202.4620189999999
 21
267.405268
 31
0.0
  0
LINE
  5
B9
330
1E
100
AcDbEntity
  8
CONTINUOUS1
100
AcDbLine
 10
202.4620189999999
 20
267.405268
 30
0.0
 11
202.4786119999999
 21
267.513073
 31
0.0
  0
LINE
  5
BA
330
1E
100
AcDbEntity
  8
CONTINUOUS1
100
AcDbLine
 10
202.4786119999999
 20
267.513073
 30
0.0
 11
202.4904869999999
 21
267.621499
 31
0.0
  0
LINE
  5
BB
330
1E
100
AcDbEntity
  8
CONTINUOUS1
100
AcDbLine
 10
202.4904869999999
 20
267.621499
 30
0.0
 11
202.497621
 21
267.7303399999999
 31
0.0
  0
LINE
  5
BC
330
1E
100
AcDbEntity
  8
CONTINUOUS1
100
AcDbLine
 10
202.497621
 20
267.7303399999999
 30
0.0
 11
202.4999999999999
 21
267.8393879999999
 31
0.0
  0
LINE
  5
BD
330
1E
100
AcDbEntity
  8
CONTINUOUS1
100
AcDbLine
 10
206.864052
 20
267.8393879999999
 30
0.0
 11
206.864052
 21
277.8393879999999
 31
0.0
  0
LINE
  5
BE
330
1E
100
AcDbEntity
  8
CONTINUOUS1
100
AcDbLine
 10
211.5243029999999
 20
267.8393879999999
 30
0.0
 11
211.5243029999999
 21
277.8393879999999
 31
0.0
  0
LINE
  5
BF
330
1E
100
AcDbEntity
  8
CONTINUOUS1
100
AcDbLine
 10
215.885615
 20
267.8393879999999
 30
0.0
 11
215.885615
 21
277.8393879999999
 31
0.0
  0
LINE
  5
C0
330
1E
100
AcDbEntity
  8
CONTINUOUS1
100
AcDbLine
 10
220.332375
 20
267.8393879999999
 30
0.0
 11
220.332375
 21
277.8393879999999
 31
0.0
  0
LINE
  5
C1
330
1E
100
AcDbEntity
  8
CONTINUOUS1
100
AcDbLine
 10
224.424502
 20
267.8393879999999
 30
0.0
 11
224.424502
 21
277.8393879999999
 31
0.0
  0
LINE
  5
C2
330
1E
100
AcDbEntity
  8
CONTINUOUS1
100
AcDbLine
 10
228.522658
 20
267.8393879999999
 30
0.0
 11
228.522658
 21
277.8393879999999
 31
0.0
  0
LINE
  5
C3
330
1E
100
AcDbEntity
  8
CONTINUOUS1
100
AcDbLine
 10
232.221262
 20
267.8393879999999
 30
0.0
 11
232.221262
 21
277.8393879999999
 31
0.0
  0
LINE
  5
C4
330
1E
100
AcDbEntity
  8
CONTINUOUS1
100
AcDbLine
 10
235.8462939999999
 20
267.8393879999999
 30
0.0
 11
235.8462939999999
 21
277.8393879999999
 31
0.0
  0
LINE
  5
C5
330
1E
100
AcDbEntity
  8
CONTINUOUS1
100
AcDbLine
 10
239.0389959999999
 20
267.8393879999999
 30
0.0
 11
239.0389959999999
 21
277.8393879999999
 31
0.0
  0
LINE
  5
C6
330
1E
100
AcDbEntity
  8
CONTINUOUS1
100
AcDbLine
 10
242.0807589999999
 20
267.8393879999999
 30
0.0
 11
242.0807589999999
 21
277.8393879999999
 31
0.0
  0
LINE
  5
C7
330
1E
100
AcDbEntity
  8
CONTINUOUS1
100
AcDbLine
 10
244.6705499999999
 20
267.8393879999999
 30
0.0
 11
244.6705499999999
 21
277.8393879999999
 31
0.0
  0
LINE
  5
C8
330
1E
100
AcDbEntity
  8
CONTINUOUS1
100
AcDbLine
 10
206.864052
 20
267.8393879999999
 30
0.0
 11
206.8662699999999
 21
267.7303399999999
 31
0.0
  0
LINE
  5
C9
330
1E
100
AcDbEntity
  8
CONTINUOUS1
100
AcDbLine
 10
206.8662699999999
 20
267.7303399999999
 30
0.0
 11
206.8729189999999
 21
267.621499
 31
0.0
  0
LINE
  5
CA
330
1E
100
AcDbEntity
  8
CONTINUOUS1
100
AcDbLine
 10
206.8729189999999
 20
267.621499
 30
0.0
 11
206.883987
 21
267.513073
 31
0.0
  0
LINE
  5
CB
330
1E
100
AcDbEntity
  8
CONTINUOUS1
100
AcDbLine
 10
206.883987
 20
267.513073
 30
0.0
 11
206.8994519999999
 21
267.405268
 31
0.0
  0
LINE
  5
CC
330
1E
100
AcDbEntity
  8
CONTINUOUS1
100
AcDbLine
 10
206.8994519999999
 20
267.405268
 30
0.0
 11
206.919286
 21
267.298289
 31
0.0
  0
LINE
  5
CD
330
1E
100
AcDbEntity
  8
CONTINUOUS1
100
AcDbLine
 10
206.919286
 20
267.298289
 30
0.0
 11
206.9434489999999
 21
267.192341
 31
0.0
  0
LINE
  5
CE
330
1E
100
AcDbEntity
  8
CONTINUOUS1
100
AcDbLine
 10
206.9434489999999
 20
267.192341
 30
0.0
 11
206.971898
 21
267.087624
 31
0.0
  0
LINE
  5
CF
330
1E
100
AcDbEntity
  8
CONTINUOUS1
100
AcDbLine
 10
206.971898
 20
267.087624
 30
0.0
 11
207.004576
 21
266.9843379999999
 31
0.0
  0
LINE
  5
D0
330
1E
100
AcDbEntity
  8
CONTINUOUS1
100
AcDbLine
 10
207.004576
 20
266.9843379999999
 30
0.0
 11
207.0414229999999
 21
266.88268
 31
0.0
  0
LINE
  5
D1
330
1E
100
AcDbEntity
  8
CONTINUOUS1
100
AcDbLine
 10
207.0414229999999
 20
266.88268
 30
0.0
 11
207.082367
 21
266.782842
 31
0.0
  0
LINE
  5
D2
330
1E
100
AcDbEntity
  8
CONTINUOUS1
100
AcDbLine
 10
207.082367
 20
266.782842
 30
0.0
 11
207.127331
 21
266.685017
 31
0.0
  0
LINE
  5
D3
330
1E
100
AcDbEntity
  8
CONTINUOUS1
100
AcDbLine
 10
207.127331
 20
266.685017
 30
0.0
 11
207.17623
 21
266.589388
 31
0.0
  0
LINE
  5
D4
330
1E
100
AcDbEntity
  8
CONTINUOUS1
100
AcDbLine
 10
207.17623
 20
266.589388
 30
0.0
 11
207.22897
 21
266.496139
 31
0.0
  0
LINE
  5
D5
330
1E
100
AcDbEntity
  8
CONTINUOUS1
100
AcDbLine
 10
207.22897
 20
266.496139
 30
0.0
 11
207.2854509999999
 21
266.405447
 31
0.0
  0
LINE
  5
D6
330
1E
100
AcDbEntity
  8
CONTINUOUS1
100
AcDbLine
 10
207.2854509999999
 20
266.405447
 30
0.0
 11
207.345565
 21
266.317485
 31
0.0
  0
LINE
  5
D7
330
1E
100
AcDbEntity
  8
CONTINUOUS1
100
AcDbLine
 10
207.345565
 20
266.317485
 30
0.0
 11
207.4091979999999
 21
266.232419
 31
0.0
  0
LINE
  5
D8
330
1E
100
AcDbEntity
  8
CONTINUOUS1
100
AcDbLine
 10
207.4091979999999
 20
266.232419
 30
0.0
 11
207.476229
 21
266.150413
 31
0.0
  0
LINE
  5
D9
330
1E
100
AcDbEntity
  8
CONTINUOUS1
100
AcDbLine
 10
207.476229
 20
266.150413
 30
0.0
 11
207.54653
 21
266.0716209999999
 31
0.0
  0
LINE
  5
DA
330
1E
100
AcDbEntity
  8
CONTINUOUS1
100
AcDbLine
 10
207.54653
 20
266.0716209999999
 30
0.0
 11
207.619968
 21
265.996195
 31
0.0
  0
LINE
  5
DB
330
1E
100
AcDbEntity
  8
CONTINUOUS1
100
AcDbLine
 10
207.619968
 20
265.996195
 30
0.0
 11
207.696402
 21
265.924277
 31
0.0
  0
LINE
  5
DC
330
1E
100
AcDbEntity
  8
CONTINUOUS1
100
AcDbLine
 10
207.696402
 20
265.924277
 30
0.0
 11
207.7756869999999
 21
265.8560049999999
 31
0.0
  0
LINE
  5
DD
330
1E
100
AcDbEntity
  8
CONTINUOUS1
100
AcDbLine
 10
207.7756869999999
 20
265.8560049999999
 30
0.0
 11
207.8576729999999
 21
265.791508
 31
0.0
  0
LINE
  5
DE
330
1E
100
AcDbEntity
  8
CONTINUOUS1
100
AcDbLine
 10
207.8576729999999
 20
265.791508
 30
0.0
 11
207.9422019999999
 21
265.7309099999999
 31
0.0
  0
LINE
  5
DF
330
1E
100
AcDbEntity
  8
CONTINUOUS1
100
AcDbLine
 10
207.9422019999999
 20
265.7309099999999
 30
0.0
 11
208.0291149999999
 21
265.674325
 31
0.0
  0
LINE
  5
E0
330
1E
100
AcDbEntity
  8
CONTINUOUS1
100
AcDbLine
 10
208.0291149999999
 20
265.674325
 30
0.0
 11
208.1182459999999
 21
265.6218609999999
 31
0.0
  0
LINE
  5
E1
330
1E
100
AcDbEntity
  8
CONTINUOUS1
100
AcDbLine
 10
208.1182459999999
 20
265.6218609999999
 30
0.0
 11
208.2094239999999
 21
265.573619
 31
0.0
  0
LINE
  5
E2
330
1E
100
AcDbEntity
  8
CONTINUOUS1
100
AcDbLine
 10
208.2094239999999
 20
265.573619
 30
0.0
 11
208.302477
 21
265.529689
 31
0.0
  0
LINE
  5
E3
330
1E
100
AcDbEntity
  8
CONTINUOUS1
100
AcDbLine
 10
208.302477
 20
265.529689
 30
0.0
 11
208.397228
 21
265.490157
 31
0.0
  0
LINE
  5
E4
330
1E
100
AcDbEntity
  8
CONTINUOUS1
100
AcDbLine
 10
208.397228
 20
265.490157
 30
0.0
 11
208.493496
 21
265.4550959999999
 31
0.0
  0
LINE
  5
E5
330
1E
100
AcDbEntity
  8
CONTINUOUS1
100
AcDbLine
 10
208.493496
 20
265.4550959999999
 30
0.0
 11
208.591097
 21
265.4245739999999
 31
0.0
  0
LINE
  5
E6
330
1E
100
AcDbEntity
  8
CONTINUOUS1
100
AcDbLine
 10
208.591097
 20
265.4245739999999
 30
0.0
 11
208.689846
 21
265.3986479999999
 31
0.0
  0
LINE
  5
E7
330
1E
100
AcDbEntity
  8
CONTINUOUS1
100
AcDbLine
 10
208.689846
 20
265.3986479999999
 30
0.0
 11
208.789556
 21
265.3773689999999
 31
0.0
  0
LINE
  5
E8
330
1E
100
AcDbEntity
  8
CONTINUOUS1
100
AcDbLine
 10
208.789556
 20
265.3773689999999
 30
0.0
 11
208.890035
 21
265.3607759999999
 31
0.0
  0
LINE
  5
E9
330
1E
100
AcDbEntity
  8
CONTINUOUS1
100
AcDbLine
 10
208.890035
 20
265.3607759999999
 30
0.0
 11
208.991094
 21
265.3489009999999
 31
0.0
  0
LINE
  5
EA
330
1E
100
AcDbEntity
  8
CONTINUOUS1
100
AcDbLine
 10
208.991094
 20
265.3489009999999
 30
0.0
 11
209.0925389999999
 21
265.341768
 31
0.0
  0
LINE
  5
EB
330
1E
100
AcDbEntity
  8
CONTINUOUS1
100
AcDbLine
 10
209.0925389999999
 20
265.341768
 30
0.0
 11
209.1941779999999
 21
265.3393879999999
 31
0.0
  0
LINE
  5
EC
330
1E
100
AcDbEntity
  8
CONTINUOUS1
100
AcDbLine
 10
209.1941779999999
 20
265.3393879999999
 30
0.0
 11
209.295816
 21
265.341768
 31
0.0
  0
LINE
  5
ED
330
1E
100
AcDbEntity
  8
CONTINUOUS1
100
AcDbLine
 10
209.295816
 20
265.341768
 30
0.0
 11
209.397262
 21
265.3489009999999
 31
0.0
  0
LINE
  5
EE
330
1E
100
AcDbEntity
  8
CONTINUOUS1
100
AcDbLine
 10
209.397262
 20
265.3489009999999
 30
0.0
 11
209.49832
 21
265.3607759999999
 31
0.0
  0
LINE
  5
EF
330
1E
100
AcDbEntity
  8
CONTINUOUS1
100
AcDbLine
 10
209.49832
 20
265.3607759999999
 30
0.0
 11
209.5988
 21
265.3773689999999
 31
0.0
  0
LINE
  5
F0
330
1E
100
AcDbEntity
  8
CONTINUOUS1
100
AcDbLine
 10
209.5988
 20
265.3773689999999
 30
0.0
 11
209.6985089999999
 21
265.3986479999999
 31
0.0
  0
LINE
  5
F1
330
1E
100
AcDbEntity
  8
CONTINUOUS1
100
AcDbLine
 10
209.6985089999999
 20
265.3986479999999
 30
0.0
 11
209.7972589999999
 21
265.4245739999999
 31
0.0
  0
LINE
  5
F2
330
1E
100
AcDbEntity
  8
CONTINUOUS1
100
AcDbLine
 10
209.7972589999999
 20
265.4245739999999
 30
0.0
 11
209.89486
 21
265.4550959999999
 31
0.0
  0
LINE
  5
F3
330
1E
100
AcDbEntity
  8
CONTINUOUS1
100
AcDbLine
 10
209.89486
 20
265.4550959999999
 30
0.0
 11
209.9911279999999
 21
265.490157
 31
0.0
  0
LINE
  5
F4
330
1E
100
AcDbEntity
  8
CONTINUOUS1
100
AcDbLine
 10
209.9911279999999
 20
265.490157
 30
0.0
 11
210.0858779999999
 21
265.529689
 31
0.0
  0
LINE
  5
F5
330
1E
100
AcDbEntity
  8
CONTINUOUS1
100
AcDbLine
 10
210.0858779999999
 20
265.529689
 30
0.0
 11
210.178931
 21
265.573619
 31
0.0
  0
LINE
  5
F6
330
1E
100
AcDbEntity
  8
CONTINUOUS1
100
AcDbLine
 10
210.178931
 20
265.573619
 30
0.0
 11
210.2701099999999
 21
265.6218609999999
 31
0.0
  0
LINE
  5
F7
330
1E
100
AcDbEntity
  8
CONTINUOUS1
100
AcDbLine
 10
210.2701099999999
 20
265.6218609999999
 30
0.0
 11
210.359241
 21
265.674325
 31
0.0
  0
LINE
  5
F8
330
1E
100
AcDbEntity
  8
CONTINUOUS1
100
AcDbLine
 10
210.359241
 20
265.674325
 30
0.0
 11
210.446153
 21
265.7309099999999
 31
0.0
  0
LINE
  5
F9
330
1E
100
AcDbEntity
  8
CONTINUOUS1
100
AcDbLine
 10
210.446153
 20
265.7309099999999
 30
0.0
 11
210.5306829999999
 21
265.791508
 31
0.0
  0
LINE
  5
FA
330
1E
100
AcDbEntity
  8
CONTINUOUS1
100
AcDbLine
 10
210.5306829999999
 20
265.791508
 30
0.0
 11
210.612668
 21
265.8560049999999
 31
0.0
  0
LINE
  5
FB
330
1E
100
AcDbEntity
  8
CONTINUOUS1
100
AcDbLine
 10
210.612668
 20
265.8560049999999
 30
0.0
 11
210.691954
 21
265.924277
 31
0.0
  0
LINE
  5
FC
330
1E
100
AcDbEntity
  8
CONTINUOUS1
100
AcDbLine
 10
210.691954
 20
265.924277
 30
0.0
 11
210.7683879999999
 21
265.996195
 31
0.0
  0
LINE
  5
FD
330
1E
100
AcDbEntity
  8
CONTINUOUS1
100
AcDbLine
 10
210.7683879999999
 20
265.996195
 30
0.0
 11
210.841825
 21
266.0716209999999
 31
0.0
  0
LINE
  5
FE
330
1E
100
AcDbEntity
  8
CONTINUOUS1
100
AcDbLine
 10
210.841825
 20
266.0716209999999
 30
0.0
 11
210.9121259999999
 21
266.150413
 31
0.0
  0
LINE
  5
FF
330
1E
100
AcDbEntity
  8
CONTINUOUS1
100
AcDbLine
 10
210.9121259999999
 20
266.150413
 30
0.0
 11
210.979157
 21
266.232419
 31
0.0
  0
LINE
  5
100
330
1E
100
AcDbEntity
  8
CONTINUOUS1
100
AcDbLine
 10
210.979157
 20
266.232419
 30
0.0
 11
211.042791
 21
266.317485
 31
0.0
  0
LINE
  5
101
330
1E
100
AcDbEntity
  8
CONTINUOUS1
100
AcDbLine
 10
211.042791
 20
266.317485
 30
0.0
 11
211.1029049999999
 21
266.405447
 31
0.0
  0
LINE
  5
102
330
1E
100
AcDbEntity
  8
CONTINUOUS1
100
AcDbLine
 10
211.1029049999999
 20
266.405447
 30
0.0
 11
211.1593859999999
 21
266.496139
 31
0.0
  0
LINE
  5
103
330
1E
100
AcDbEntity
  8
CONTINUOUS1
100
AcDbLine
 10
211.1593859999999
 20
266.496139
 30
0.0
 11
211.2121259999999
 21
266.589388
 31
0.0
  0
LINE
  5
104
330
1E
100
AcDbEntity
  8
CONTINUOUS1
100
AcDbLine
 10
211.2121259999999
 20
266.589388
 30
0.0
 11
211.261024
 21
266.685017
 31
0.0
  0
LINE
  5
105
330
1E
100
AcDbEntity
  8
CONTINUOUS1
100
AcDbLine
 10
211.261024
 20
266.685017
 30
0.0
 11
211.305989
 21
266.782842
 31
0.0
  0
LINE
  5
106
330
1E
100
AcDbEntity
  8
CONTINUOUS1
100
AcDbLine
 10
211.305989
 20
266.782842
 30
0.0
 11
211.346933
 21
266.88268
 31
0.0
  0
LINE
  5
107
330
1E
100
AcDbEntity
  8
CONTINUOUS1
100
AcDbLine
 10
211.346933
 20
266.88268
 30
0.0
 11
211.383779
 21
266.9843379999999
 31
0.0
  0
LINE
  5
108
330
1E
100
AcDbEntity
  8
CONTINUOUS1
100
AcDbLine
 10
211.383779
 20
266.9843379999999
 30
0.0
 11
211.416458
 21
267.087624
 31
0.0
  0
LINE
  5
109
330
1E
100
AcDbEntity
  8
CONTINUOUS1
100
AcDbLine
 10
211.416458
 20
267.087624
 30
0.0
 11
211.444906
 21
267.192341
 31
0.0
  0
LINE
  5
10A
330
1E
100
AcDbEntity
  8
CONTINUOUS1
100
AcDbLine
 10
211.444906
 20
267.192341
 30
0.0
 11
211.46907
 21
267.298289
 31
0.0
  0
LINE
  5
10B
330
1E
100
AcDbEntity
  8
CONTINUOUS1
100
AcDbLine
 10
211.46907
 20
267.298289
 30
0.0
 11
211.488903
 21
267.405268
 31
0.0
  0
LINE
  5
10C
330
1E
100
AcDbEntity
  8
CONTINUOUS1
100
AcDbLine
 10
211.488903
 20
267.405268
 30
0.0
 11
211.5043689999999
 21
267.513073
 31
0.0
  0
LINE
  5
10D
330
1E
100
AcDbEntity
  8
CONTINUOUS1
100
AcDbLine
 10
211.5043689999999
 20
267.513073
 30
0.0
 11
211.515436
 21
267.621499
 31
0.0
  0
LINE
  5
10E
330
1E
100
AcDbEntity
  8
CONTINUOUS1
100
AcDbLine
 10
211.515436
 20
267.621499
 30
0.0
 11
211.522085
 21
267.7303399999999
 31
0.0
  0
LINE
  5
10F
330
1E
100
AcDbEntity
  8
CONTINUOUS1
100
AcDbLine
 10
211.522085
 20
267.7303399999999
 30
0.0
 11
211.5243029999999
 21
267.8393879999999
 31
0.0
  0
LINE
  5
110
330
1E
100
AcDbEntity
  8
CONTINUOUS1
100
AcDbLine
 10
215.885615
 20
267.8393879999999
 30
0.0
 11
215.887731
 21
267.7303399999999
 31
0.0
  0
LINE
  5
111
330
1E
100
AcDbEntity
  8
CONTINUOUS1
100
AcDbLine
 10
215.887731
 20
267.7303399999999
 30
0.0
 11
215.8940759999999
 21
267.621499
 31
0.0
  0
LINE
  5
112
330
1E
100
AcDbEntity
  8
CONTINUOUS1
100
AcDbLine
 10
215.8940759999999
 20
267.621499
 30
0.0
 11
215.9046369999999
 21
267.513073
 31
0.0
  0
LINE
  5
113
330
1E
100
AcDbEntity
  8
CONTINUOUS1
100
AcDbLine
 10
215.9046369999999
 20
267.513073
 30
0.0
 11
215.919393
 21
267.405268
 31
0.0
  0
LINE
  5
114
330
1E
100
AcDbEntity
  8
CONTINUOUS1
100
AcDbLine
 10
215.919393
 20
267.405268
 30
0.0
 11
215.938318
 21
267.298289
 31
0.0
  0
LINE
  5
115
330
1E
100
AcDbEntity
  8
CONTINUOUS1
100
AcDbLine
 10
215.938318
 20
267.298289
 30
0.0
 11
215.961375
 21
267.192341
 31
0.0
  0
LINE
  5
116
330
1E
100
AcDbEntity
  8
CONTINUOUS1
100
AcDbLine
 10
215.961375
 20
267.192341
 30
0.0
 11
215.98852
 21
267.087624
 31
0.0
  0
LINE
  5
117
330
1E
100
AcDbEntity
  8
CONTINUOUS1
100
AcDbLine
 10
215.98852
 20
267.087624
 30
0.0
 11
216.0197009999999
 21
266.9843379999999
 31
0.0
  0
LINE
  5
118
330
1E
100
AcDbEntity
  8
CONTINUOUS1
100
AcDbLine
 10
216.0197009999999
 20
266.9843379999999
 30
0.0
 11
216.05486
 21
266.88268
 31
0.0
  0
LINE
  5
119
330
1E
100
AcDbEntity
  8
CONTINUOUS1
100
AcDbLine
 10
216.05486
 20
266.88268
 30
0.0
 11
216.0939289999999
 21
266.782842
 31
0.0
  0
LINE
  5
11A
330
1E
100
AcDbEntity
  8
CONTINUOUS1
100
AcDbLine
 10
216.0939289999999
 20
266.782842
 30
0.0
 11
216.136833
 21
266.685017
 31
0.0
  0
LINE
  5
11B
330
1E
100
AcDbEntity
  8
CONTINUOUS1
100
AcDbLine
 10
216.136833
 20
266.685017
 30
0.0
 11
216.1834919999999
 21
266.589388
 31
0.0
  0
LINE
  5
11C
330
1E
100
AcDbEntity
  8
CONTINUOUS1
100
AcDbLine
 10
216.1834919999999
 20
266.589388
 30
0.0
 11
216.233816
 21
266.496139
 31
0.0
  0
LINE
  5
11D
330
1E
100
AcDbEntity
  8
CONTINUOUS1
100
AcDbLine
 10
216.233816
 20
266.496139
 30
0.0
 11
216.2877089999999
 21
266.405447
 31
0.0
  0
LINE
  5
11E
330
1E
100
AcDbEntity
  8
CONTINUOUS1
100
AcDbLine
 10
216.2877089999999
 20
266.405447
 30
0.0
 11
216.3450689999999
 21
266.317485
 31
0.0
  0
LINE
  5
11F
330
1E
100
AcDbEntity
  8
CONTINUOUS1
100
AcDbLine
 10
216.3450689999999
 20
266.317485
 30
0.0
 11
216.405787
 21
266.232419
 31
0.0
  0
LINE
  5
120
330
1E
100
AcDbEntity
  8
CONTINUOUS1
100
AcDbLine
 10
216.405787
 20
266.232419
 30
0.0
 11
216.469748
 21
266.150413
 31
0.0
  0
LINE
  5
121
330
1E
100
AcDbEntity
  8
CONTINUOUS1
100
AcDbLine
 10
216.469748
 20
266.150413
 30
0.0
 11
216.536828
 21
266.0716209999999
 31
0.0
  0
LINE
  5
122
330
1E
100
AcDbEntity
  8
CONTINUOUS1
100
AcDbLine
 10
216.536828
 20
266.0716209999999
 30
0.0
 11
216.6069009999999
 21
265.996195
 31
0.0
  0
LINE
  5
123
330
1E
100
AcDbEntity
  8
CONTINUOUS1
100
AcDbLine
 10
216.6069009999999
 20
265.996195
 30
0.0
 11
216.6798339999999
 21
265.924277
 31
0.0
  0
LINE
  5
124
330
1E
100
AcDbEntity
  8
CONTINUOUS1
100
AcDbLine
 10
216.6798339999999
 20
265.924277
 30
0.0
 11
216.755487
 21
265.8560049999999
 31
0.0
  0
LINE
  5
125
330
1E
100
AcDbEntity
  8
CONTINUOUS1
100
AcDbLine
 10
216.755487
 20
265.8560049999999
 30
0.0
 11
216.833717
 21
265.791508
 31
0.0
  0
LINE
  5
126
330
1E
100
AcDbEntity
  8
CONTINUOUS1
100
AcDbLine
 10
216.833717
 20
265.791508
 30
0.0
 11
216.9143739999999
 21
265.7309099999999
 31
0.0
  0
LINE
  5
127
330
1E
100
AcDbEntity
  8
CONTINUOUS1
100
AcDbLine
 10
216.9143739999999
 20
265.7309099999999
 30
0.0
 11
216.9973049999999
 21
265.674325
 31
0.0
  0
LINE
  5
128
330
1E
100
AcDbEntity
  8
CONTINUOUS1
100
AcDbLine
 10
216.9973049999999
 20
265.674325
 30
0.0
 11
217.0823529999999
 21
265.6218609999999
 31
0.0
  0
LINE
  5
129
330
1E
100
AcDbEntity
  8
CONTINUOUS1
100
AcDbLine
 10
217.0823529999999
 20
265.6218609999999
 30
0.0
 11
217.169354
 21
265.573619
 31
0.0
  0
LINE
  5
12A
330
1E
100
AcDbEntity
  8
CONTINUOUS1
100
AcDbLine
 10
217.169354
 20
265.573619
 30
0.0
 11
217.258144
 21
265.529689
 31
0.0
  0
LINE
  5
12B
330
1E
100
AcDbEntity
  8
CONTINUOUS1
100
AcDbLine
 10
217.258144
 20
265.529689
 30
0.0
 11
217.348554
 21
265.490157
 31
0.0
  0
LINE
  5
12C
330
1E
100
AcDbEntity
  8
CONTINUOUS1
100
AcDbLine
 10
217.348554
 20
265.490157
 30
0.0
 11
217.440412
 21
265.4550959999999
 31
0.0
  0
LINE
  5
12D
330
1E
100
AcDbEntity
  8
CONTINUOUS1
100
AcDbLine
 10
217.440412
 20
265.4550959999999
 30
0.0
 11
217.5335419999999
 21
265.4245739999999
 31
0.0
  0
LINE
  5
12E
330
1E
100
AcDbEntity
  8
CONTINUOUS1
100
AcDbLine
 10
217.5335419999999
 20
265.4245739999999
 30
0.0
 11
217.627768
 21
265.3986479999999
 31
0.0
  0
LINE
  5
12F
330
1E
100
AcDbEntity
  8
CONTINUOUS1
100
AcDbLine
 10
217.627768
 20
265.3986479999999
 30
0.0
 11
217.7229089999999
 21
265.3773689999999
 31
0.0
  0
LINE
  5
130
330
1E
100
AcDbEntity
  8
CONTINUOUS1
100
AcDbLine
 10
217.7229089999999
 20
265.3773689999999
 30
0.0
 11
217.8187859999999
 21
265.3607759999999
 31
0.0
  0
LINE
  5
131
330
1E
100
AcDbEntity
  8
CONTINUOUS1
100
AcDbLine
 10
217.8187859999999
 20
265.3607759999999
 30
0.0
 11
217.9152149999999
 21
265.3489009999999
 31
0.0
  0
LINE
  5
132
330
1E
100
AcDbEntity
  8
CONTINUOUS1
100
AcDbLine
 10
217.9152149999999
 20
265.3489009999999
 30
0.0
 11
218.012013
 21
265.341768
 31
0.0
  0
LINE
  5
133
330
1E
100
AcDbEntity
  8
CONTINUOUS1
100
AcDbLine
 10
218.012013
 20
265.341768
 30
0.0
 11
218.108995
 21
265.3393879999999
 31
0.0
  0
LINE
  5
134
330
1E
100
AcDbEntity
  8
CONTINUOUS1
100
AcDbLine
 10
218.108995
 20
265.3393879999999
 30
0.0
 11
218.2059779999999
 21
265.341768
 31
0.0
  0
LINE
  5
135
330
1E
100
AcDbEntity
  8
CONTINUOUS1
100
AcDbLine
 10
218.2059779999999
 20
265.341768
 30
0.0
 11
218.3027749999999
 21
265.3489009999999
 31
0.0
  0
LINE
  5
136
330
1E
100
AcDbEntity
  8
CONTINUOUS1
100
AcDbLine
 10
218.3027749999999
 20
265.3489009999999
 30
0.0
 11
218.399204
 21
265.3607759999999
 31
0.0
  0
LINE
  5
137
330
1E
100
AcDbEntity
  8
CONTINUOUS1
100
AcDbLine
 10
218.399204
 20
265.3607759999999
 30
0.0
 11
218.495081
 21
265.3773689999999
 31
0.0
  0
LINE
  5
138
330
1E
100
AcDbEntity
  8
CONTINUOUS1
100
AcDbLine
 10
218.495081
 20
265.3773689999999
 30
0.0
 11
218.5902229999999
 21
265.3986479999999
 31
0.0
  0
LINE
  5
139
330
1E
100
AcDbEntity
  8
CONTINUOUS1
100
AcDbLine
 10
218.5902229999999
 20
265.3986479999999
 30
0.0
 11
218.6844479999999
 21
265.4245739999999
 31
0.0
  0
LINE
  5
13A
330
1E
100
AcDbEntity
  8
CONTINUOUS1
100
AcDbLine
 10
218.6844479999999
 20
265.4245739999999
 30
0.0
 11
218.7775779999999
 21
265.4550959999999
 31
0.0
  0
LINE
  5
13B
330
1E
100
AcDbEntity
  8
CONTINUOUS1
100
AcDbLine
 10
218.7775779999999
 20
265.4550959999999
 30
0.0
 11
218.8694359999999
 21
265.490157
 31
0.0
  0
LINE
  5
13C
330
1E
100
AcDbEntity
  8
CONTINUOUS1
100
AcDbLine
 10
218.8694359999999
 20
265.490157
 30
0.0
 11
218.959846
 21
265.529689
 31
0.0
  0
LINE
  5
13D
330
1E
100
AcDbEntity
  8
CONTINUOUS1
100
AcDbLine
 10
218.959846
 20
265.529689
 30
0.0
 11
219.0486359999999
 21
265.573619
 31
0.0
  0
LINE
  5
13E
330
1E
100
AcDbEntity
  8
CONTINUOUS1
100
AcDbLine
 10
219.0486359999999
 20
265.573619
 30
0.0
 11
219.135638
 21
265.6218609999999
 31
0.0
  0
LINE
  5
13F
330
1E
100
AcDbEntity
  8
CONTINUOUS1
100
AcDbLine
 10
219.135638
 20
265.6218609999999
 30
0.0
 11
219.220685
 21
265.674325
 31
0.0
  0
LINE
  5
140
330
1E
100
AcDbEntity
  8
CONTINUOUS1
100
AcDbLine
 10
219.220685
 20
265.674325
 30
0.0
 11
219.303616
 21
265.7309099999999
 31
0.0
  0
LINE
  5
141
330
1E
100
AcDbEntity
  8
CONTINUOUS1
100
AcDbLine
 10
219.303616
 20
265.7309099999999
 30
0.0
 11
219.384273
 21
265.791508
 31
0.0
  0
LINE
  5
142
330
1E
100
AcDbEntity
  8
CONTINUOUS1
100
AcDbLine
 10
219.384273
 20
265.791508
 30
0.0
 11
219.4625029999999
 21
265.8560049999999
 31
0.0
  0
LINE
  5
143
330
1E
100
AcDbEntity
  8
CONTINUOUS1
100
AcDbLine
 10
219.4625029999999
 20
265.8560049999999
 30
0.0
 11
219.538156
 21
265.924277
 31
0.0
  0
LINE
  5
144
330
1E
100
AcDbEntity
  8
CONTINUOUS1
100
AcDbLine
 10
219.538156
 20
265.924277
 30
0.0
 11
219.611089
 21
265.996195
 31
0.0
  0
LINE
  5
145
330
1E
100
AcDbEntity
  8
CONTINUOUS1
100
AcDbLine
 10
219.611089
 20
265.996195
 30
0.0
 11
219.681162
 21
266.0716209999999
 31
0.0
  0
LINE
  5
146
330
1E
100
AcDbEntity
  8
CONTINUOUS1
100
AcDbLine
 10
219.681162
 20
266.0716209999999
 30
0.0
 11
219.748243
 21
266.150413
 31
0.0
  0
LINE
  5
147
330
1E
100
AcDbEntity
  8
CONTINUOUS1
100
AcDbLine
 10
219.748243
 20
266.150413
 30
0.0
 11
219.8122029999999
 21
266.232419
 31
0.0
  0
LINE
  5
148
330
1E
100
AcDbEntity
  8
CONTINUOUS1
100
AcDbLine
 10
219.8122029999999
 20
266.232419
 30
0.0
 11
219.8729209999999
 21
266.317485
 31
0.0
  0
LINE
  5
149
330
1E
100
AcDbEntity
  8
CONTINUOUS1
100
AcDbLine
 10
219.8729209999999
 20
266.317485
 30
0.0
 11
219.930281
 21
266.405447
 31
0.0
  0
LINE
  5
14A
330
1E
100
AcDbEntity
  8
CONTINUOUS1
100
AcDbLine
 10
219.930281
 20
266.405447
 30
0.0
 11
219.984175
 21
266.496139
 31
0.0
  0
LINE
  5
14B
330
1E
100
AcDbEntity
  8
CONTINUOUS1
100
AcDbLine
 10
219.984175
 20
266.496139
 30
0.0
 11
220.034499
 21
266.589388
 31
0.0
  0
LINE
  5
14C
330
1E
100
AcDbEntity
  8
CONTINUOUS1
100
AcDbLine
 10
220.034499
 20
266.589388
 30
0.0
 11
220.0811569999999
 21
266.685017
 31
0.0
  0
LINE
  5
14D
330
1E
100
AcDbEntity
  8
CONTINUOUS1
100
AcDbLine
 10
220.0811569999999
 20
266.685017
 30
0.0
 11
220.124062
 21
266.782842
 31
0.0
  0
LINE
  5
14E
330
1E
100
AcDbEntity
  8
CONTINUOUS1
100
AcDbLine
 10
220.124062
 20
266.782842
 30
0.0
 11
220.1631299999999
 21
266.88268
 31
0.0
  0
LINE
  5
14F
330
1E
100
AcDbEntity
  8
CONTINUOUS1
100
AcDbLine
 10
220.1631299999999
 20
266.88268
 30
0.0
 11
220.198289
 21
266.9843379999999
 31
0.0
  0
LINE
  5
150
330
1E
100
AcDbEntity
  8
CONTINUOUS1
100
AcDbLine
 10
220.198289
 20
266.9843379999999
 30
0.0
 11
220.22947
 21
267.087624
 31
0.0
  0
LINE
  5
151
330
1E
100
AcDbEntity
  8
CONTINUOUS1
100
AcDbLine
 10
220.22947
 20
267.087624
 30
0.0
 11
220.256615
 21
267.192341
 31
0.0
  0
LINE
  5
152
330
1E
100
AcDbEntity
  8
CONTINUOUS1
100
AcDbLine
 10
220.256615
 20
267.192341
 30
0.0
 11
220.279672
 21
267.298289
 31
0.0
  0
LINE
  5
153
330
1E
100
AcDbEntity
  8
CONTINUOUS1
100
AcDbLine
 10
220.279672
 20
267.298289
 30
0.0
 11
220.298597
 21
267.405268
 31
0.0
  0
LINE
  5
154
330
1E
100
AcDbEntity
  8
CONTINUOUS1
100
AcDbLine
 10
220.298597
 20
267.405268
 30
0.0
 11
220.313354
 21
267.513073
 31
0.0
  0
LINE
  5
155
330
1E
100
AcDbEntity
  8
CONTINUOUS1
100
AcDbLine
 10
220.313354
 20
267.513073
 30
0.0
 11
220.3239139999999
 21
267.621499
 31
0.0
  0
LINE
  5
156
330
1E
100
AcDbEntity
  8
CONTINUOUS1
100
AcDbLine
 10
220.3239139999999
 20
267.621499
 30
0.0
 11
220.3302589999999
 21
267.7303399999999
 31
0.0
  0
LINE
  5
157
330
1E
100
AcDbEntity
  8
CONTINUOUS1
100
AcDbLine
 10
220.3302589999999
 20
267.7303399999999
 30
0.0
 11
220.332375
 21
267.8393879999999
 31
0.0
  0
LINE
  5
158
330
1E
100
AcDbEntity
  8
CONTINUOUS1
100
AcDbLine
 10
224.424502
 20
267.8393879999999
 30
0.0
 11
224.426452
 21
267.7303399999999
 31
0.0
  0
LINE
  5
159
330
1E
100
AcDbEntity
  8
CONTINUOUS1
100
AcDbLine
 10
224.426452
 20
267.7303399999999
 30
0.0
 11
224.432299
 21
267.621499
 31
0.0
  0
LINE
  5
15A
330
1E
100
AcDbEntity
  8
CONTINUOUS1
100
AcDbLine
 10
224.432299
 20
267.621499
 30
0.0
 11
224.4420319999999
 21
267.513073
 31
0.0
  0
LINE
  5
15B
330
1E
100
AcDbEntity
  8
CONTINUOUS1
100
AcDbLine
 10
224.4420319999999
 20
267.513073
 30
0.0
 11
224.455632
 21
267.405268
 31
0.0
  0
LINE
  5
15C
330
1E
100
AcDbEntity
  8
CONTINUOUS1
100
AcDbLine
 10
224.455632
 20
267.405268
 30
0.0
 11
224.473073
 21
267.298289
 31
0.0
  0
LINE
  5
15D
330
1E
100
AcDbEntity
  8
CONTINUOUS1
100
AcDbLine
 10
224.473073
 20
267.298289
 30
0.0
 11
224.494322
 21
267.192341
 31
0.0
  0
LINE
  5
15E
330
1E
100
AcDbEntity
  8
CONTINUOUS1
100
AcDbLine
 10
224.494322
 20
267.192341
 30
0.0
 11
224.519339
 21
267.087624
 31
0.0
  0
LINE
  5
15F
330
1E
100
AcDbEntity
  8
CONTINUOUS1
100
AcDbLine
 10
224.519339
 20
267.087624
 30
0.0
 11
224.5480759999999
 21
266.9843379999999
 31
0.0
  0
LINE
  5
160
330
1E
100
AcDbEntity
  8
CONTINUOUS1
100
AcDbLine
 10
224.5480759999999
 20
266.9843379999999
 30
0.0
 11
224.580479
 21
266.88268
 31
0.0
  0
LINE
  5
161
330
1E
100
AcDbEntity
  8
CONTINUOUS1
100
AcDbLine
 10
224.580479
 20
266.88268
 30
0.0
 11
224.616484
 21
266.782842
 31
0.0
  0
LINE
  5
162
330
1E
100
AcDbEntity
  8
CONTINUOUS1
100
AcDbLine
 10
224.616484
 20
266.782842
 30
0.0
 11
224.6560249999999
 21
266.685017
 31
0.0
  0
LINE
  5
163
330
1E
100
AcDbEntity
  8
CONTINUOUS1
100
AcDbLine
 10
224.6560249999999
 20
266.685017
 30
0.0
 11
224.699026
 21
266.589388
 31
0.0
  0
LINE
  5
164
330
1E
100
AcDbEntity
  8
CONTINUOUS1
100
AcDbLine
 10
224.699026
 20
266.589388
 30
0.0
 11
224.7454049999999
 21
266.496139
 31
0.0
  0
LINE
  5
165
330
1E
100
AcDbEntity
  8
CONTINUOUS1
100
AcDbLine
 10
224.7454049999999
 20
266.496139
 30
0.0
 11
224.7950729999999
 21
266.405447
 31
0.0
  0
LINE
  5
166
330
1E
100
AcDbEntity
  8
CONTINUOUS1
100
AcDbLine
 10
224.7950729999999
 20
266.405447
 30
0.0
 11
224.847937
 21
266.317485
 31
0.0
  0
LINE
  5
167
330
1E
100
AcDbEntity
  8
CONTINUOUS1
100
AcDbLine
 10
224.847937
 20
266.317485
 30
0.0
 11
224.903895
 21
266.232419
 31
0.0
  0
LINE
  5
168
330
1E
100
AcDbEntity
  8
CONTINUOUS1
100
AcDbLine
 10
224.903895
 20
266.232419
 30
0.0
 11
224.962841
 21
266.150413
 31
0.0
  0
LINE
  5
169
330
1E
100
AcDbEntity
  8
CONTINUOUS1
100
AcDbLine
 10
224.962841
 20
266.150413
 30
0.0
 11
225.0246629999999
 21
266.0716209999999
 31
0.0
  0
LINE
  5
16A
330
1E
100
AcDbEntity
  8
CONTINUOUS1
100
AcDbLine
 10
225.0246629999999
 20
266.0716209999999
 30
0.0
 11
225.0892429999999
 21
265.996195
 31
0.0
  0
LINE
  5
16B
330
1E
100
AcDbEntity
  8
CONTINUOUS1
100
AcDbLine
 10
225.0892429999999
 20
265.996195
 30
0.0
 11
225.156458
 21
265.924277
 31
0.0
  0
LINE
  5
16C
330
1E
100
AcDbEntity
  8
CONTINUOUS1
100
AcDbLine
 10
225.156458
 20
265.924277
 30
0.0
 11
225.2261799999999
 21
265.8560049999999
 31
0.0
  0
LINE
  5
16D
330
1E
100
AcDbEntity
  8
CONTINUOUS1
100
AcDbLine
 10
225.2261799999999
 20
265.8560049999999
 30
0.0
 11
225.298277
 21
265.791508
 31
0.0
  0
LINE
  5
16E
330
1E
100
AcDbEntity
  8
CONTINUOUS1
100
AcDbLine
 10
225.298277
 20
265.791508
 30
0.0
 11
225.3726109999999
 21
265.7309099999999
 31
0.0
  0
LINE
  5
16F
330
1E
100
AcDbEntity
  8
CONTINUOUS1
100
AcDbLine
 10
225.3726109999999
 20
265.7309099999999
 30
0.0
 11
225.449041
 21
265.674325
 31
0.0
  0
LINE
  5
170
330
1E
100
AcDbEntity
  8
CONTINUOUS1
100
AcDbLine
 10
225.449041
 20
265.674325
 30
0.0
 11
225.527421
 21
265.6218609999999
 31
0.0
  0
LINE
  5
171
330
1E
100
AcDbEntity
  8
CONTINUOUS1
100
AcDbLine
 10
225.527421
 20
265.6218609999999
 30
0.0
 11
225.607602
 21
265.573619
 31
0.0
  0
LINE
  5
172
330
1E
100
AcDbEntity
  8
CONTINUOUS1
100
AcDbLine
 10
225.607602
 20
265.573619
 30
0.0
 11
225.6894319999999
 21
265.529689
 31
0.0
  0
LINE
  5
173
330
1E
100
AcDbEntity
  8
CONTINUOUS1
100
AcDbLine
 10
225.6894319999999
 20
265.529689
 30
0.0
 11
225.7727539999999
 21
265.490157
 31
0.0
  0
LINE
  5
174
330
1E
100
AcDbEntity
  8
CONTINUOUS1
100
AcDbLine
 10
225.7727539999999
 20
265.490157
 30
0.0
 11
225.85741
 21
265.4550959999999
 31
0.0
  0
LINE
  5
175
330
1E
100
AcDbEntity
  8
CONTINUOUS1
100
AcDbLine
 10
225.85741
 20
265.4550959999999
 30
0.0
 11
225.943239
 21
265.4245739999999
 31
0.0
  0
LINE
  5
176
330
1E
100
AcDbEntity
  8
CONTINUOUS1
100
AcDbLine
 10
225.943239
 20
265.4245739999999
 30
0.0
 11
226.0300779999999
 21
265.3986479999999
 31
0.0
  0
LINE
  5
177
330
1E
100
AcDbEntity
  8
CONTINUOUS1
100
AcDbLine
 10
226.0300779999999
 20
265.3986479999999
 30
0.0
 11
226.1177609999999
 21
265.3773689999999
 31
0.0
  0
LINE
  5
178
330
1E
100
AcDbEntity
  8
CONTINUOUS1
100
AcDbLine
 10
226.1177609999999
 20
265.3773689999999
 30
0.0
 11
226.206121
 21
265.3607759999999
 31
0.0
  0
LINE
  5
179
330
1E
100
AcDbEntity
  8
CONTINUOUS1
100
AcDbLine
 10
226.206121
 20
265.3607759999999
 30
0.0
 11
226.294991
 21
265.3489009999999
 31
0.0
  0
LINE
  5
17A
330
1E
100
AcDbEntity
  8
CONTINUOUS1
100
AcDbLine
 10
226.294991
 20
265.3489009999999
 30
0.0
 11
226.3841999999999
 21
265.341768
 31
0.0
  0
LINE
  5
17B
330
1E
100
AcDbEntity
  8
CONTINUOUS1
100
AcDbLine
 10
226.3841999999999
 20
265.341768
 30
0.0
 11
226.4735799999999
 21
265.3393879999999
 31
0.0
  0
LINE
  5
17C
330
1E
100
AcDbEntity
  8
CONTINUOUS1
100
AcDbLine
 10
226.4735799999999
 20
265.3393879999999
 30
0.0
 11
226.5629589999999
 21
265.341768
 31
0.0
  0
LINE
  5
17D
330
1E
100
AcDbEntity
  8
CONTINUOUS1
100
AcDbLine
 10
226.5629589999999
 20
265.341768
 30
0.0
 11
226.6521689999999
 21
265.3489009999999
 31
0.0
  0
LINE
  5
17E
330
1E
100
AcDbEntity
  8
CONTINUOUS1
100
AcDbLine
 10
226.6521689999999
 20
265.3489009999999
 30
0.0
 11
226.7410379999999
 21
265.3607759999999
 31
0.0
  0
LINE
  5
17F
330
1E
100
AcDbEntity
  8
CONTINUOUS1
100
AcDbLine
 10
226.7410379999999
 20
265.3607759999999
 30
0.0
 11
226.829398
 21
265.3773689999999
 31
0.0
  0
LINE
  5
180
330
1E
100
AcDbEntity
  8
CONTINUOUS1
100
AcDbLine
 10
226.829398
 20
265.3773689999999
 30
0.0
 11
226.9170809999999
 21
265.3986479999999
 31
0.0
  0
LINE
  5
181
330
1E
100
AcDbEntity
  8
CONTINUOUS1
100
AcDbLine
 10
226.9170809999999
 20
265.3986479999999
 30
0.0
 11
227.00392
 21
265.4245739999999
 31
0.0
  0
LINE
  5
182
330
1E
100
AcDbEntity
  8
CONTINUOUS1
100
AcDbLine
 10
227.00392
 20
265.4245739999999
 30
0.0
 11
227.089749
 21
265.4550959999999
 31
0.0
  0
LINE
  5
183
330
1E
100
AcDbEntity
  8
CONTINUOUS1
100
AcDbLine
 10
227.089749
 20
265.4550959999999
 30
0.0
 11
227.174406
 21
265.490157
 31
0.0
  0
LINE
  5
184
330
1E
100
AcDbEntity
  8
CONTINUOUS1
100
AcDbLine
 10
227.174406
 20
265.490157
 30
0.0
 11
227.2577279999999
 21
265.529689
 31
0.0
  0
LINE
  5
185
330
1E
100
AcDbEntity
  8
CONTINUOUS1
100
AcDbLine
 10
227.2577279999999
 20
265.529689
 30
0.0
 11
227.339558
 21
265.573619
 31
0.0
  0
LINE
  5
186
330
1E
100
AcDbEntity
  8
CONTINUOUS1
100
AcDbLine
 10
227.339558
 20
265.573619
 30
0.0
 11
227.419739
 21
265.6218609999999
 31
0.0
  0
LINE
  5
187
330
1E
100
AcDbEntity
  8
CONTINUOUS1
100
AcDbLine
 10
227.419739
 20
265.6218609999999
 30
0.0
 11
227.498119
 21
265.674325
 31
0.0
  0
LINE
  5
188
330
1E
100
AcDbEntity
  8
CONTINUOUS1
100
AcDbLine
 10
227.498119
 20
265.674325
 30
0.0
 11
227.574549
 21
265.7309099999999
 31
0.0
  0
LINE
  5
189
330
1E
100
AcDbEntity
  8
CONTINUOUS1
100
AcDbLine
 10
227.574549
 20
265.7309099999999
 30
0.0
 11
227.648883
 21
265.791508
 31
0.0
  0
LINE
  5
18A
330
1E
100
AcDbEntity
  8
CONTINUOUS1
100
AcDbLine
 10
227.648883
 20
265.791508
 30
0.0
 11
227.720979
 21
265.8560049999999
 31
0.0
  0
LINE
  5
18B
330
1E
100
AcDbEntity
  8
CONTINUOUS1
100
AcDbLine
 10
227.720979
 20
265.8560049999999
 30
0.0
 11
227.790702
 21
265.924277
 31
0.0
  0
LINE
  5
18C
330
1E
100
AcDbEntity
  8
CONTINUOUS1
100
AcDbLine
 10
227.790702
 20
265.924277
 30
0.0
 11
227.8579169999999
 21
265.996195
 31
0.0
  0
LINE
  5
18D
330
1E
100
AcDbEntity
  8
CONTINUOUS1
100
AcDbLine
 10
227.8579169999999
 20
265.996195
 30
0.0
 11
227.922497
 21
266.0716209999999
 31
0.0
  0
LINE
  5
18E
330
1E
100
AcDbEntity
  8
CONTINUOUS1
100
AcDbLine
 10
227.922497
 20
266.0716209999999
 30
0.0
 11
227.984319
 21
266.150413
 31
0.0
  0
LINE
  5
18F
330
1E
100
AcDbEntity
  8
CONTINUOUS1
100
AcDbLine
 10
227.984319
 20
266.150413
 30
0.0
 11
228.0432649999999
 21
266.232419
 31
0.0
  0
LINE
  5
190
330
1E
100
AcDbEntity
  8
CONTINUOUS1
100
AcDbLine
 10
228.0432649999999
 20
266.232419
 30
0.0
 11
228.0992229999999
 21
266.317485
 31
0.0
  0
LINE
  5
191
330
1E
100
AcDbEntity
  8
CONTINUOUS1
100
AcDbLine
 10
228.0992229999999
 20
266.317485
 30
0.0
 11
228.152086
 21
266.405447
 31
0.0
  0
LINE
  5
192
330
1E
100
AcDbEntity
  8
CONTINUOUS1
100
AcDbLine
 10
228.152086
 20
266.405447
 30
0.0
 11
228.2017549999999
 21
266.496139
 31
0.0
  0
LINE
  5
193
330
1E
100
AcDbEntity
  8
CONTINUOUS1
100
AcDbLine
 10
228.2017549999999
 20
266.496139
 30
0.0
 11
228.2481329999999
 21
266.589388
 31
0.0
  0
LINE
  5
194
330
1E
100
AcDbEntity
  8
CONTINUOUS1
100
AcDbLine
 10
228.2481329999999
 20
266.589388
 30
0.0
 11
228.2911339999999
 21
266.685017
 31
0.0
  0
LINE
  5
195
330
1E
100
AcDbEntity
  8
CONTINUOUS1
100
AcDbLine
 10
228.2911339999999
 20
266.685017
 30
0.0
 11
228.330675
 21
266.782842
 31
0.0
  0
LINE
  5
196
330
1E
100
AcDbEntity
  8
CONTINUOUS1
100
AcDbLine
 10
228.330675
 20
266.782842
 30
0.0
 11
228.366681
 21
266.88268
 31
0.0
  0
LINE
  5
197
330
1E
100
AcDbEntity
  8
CONTINUOUS1
100
AcDbLine
 10
228.366681
 20
266.88268
 30
0.0
 11
228.399083
 21
266.9843379999999
 31
0.0
  0
LINE
  5
198
330
1E
100
AcDbEntity
  8
CONTINUOUS1
100
AcDbLine
 10
228.399083
 20
266.9843379999999
 30
0.0
 11
228.42782
 21
267.087624
 31
0.0
  0
LINE
  5
199
330
1E
100
AcDbEntity
  8
CONTINUOUS1
100
AcDbLine
 10
228.42782
 20
267.087624
 30
0.0
 11
228.452837
 21
267.192341
 31
0.0
  0
LINE
  5
19A
330
1E
100
AcDbEntity
  8
CONTINUOUS1
100
AcDbLine
 10
228.452837
 20
267.192341
 30
0.0
 11
228.4740859999999
 21
267.298289
 31
0.0
  0
LINE
  5
19B
330
1E
100
AcDbEntity
  8
CONTINUOUS1
100
AcDbLine
 10
228.4740859999999
 20
267.298289
 30
0.0
 11
228.4915279999999
 21
267.405268
 31
0.0
  0
LINE
  5
19C
330
1E
100
AcDbEntity
  8
CONTINUOUS1
100
AcDbLine
 10
228.4915279999999
 20
267.405268
 30
0.0
 11
228.5051279999999
 21
267.513073
 31
0.0
  0
LINE
  5
19D
330
1E
100
AcDbEntity
  8
CONTINUOUS1
100
AcDbLine
 10
228.5051279999999
 20
267.513073
 30
0.0
 11
228.5148599999999
 21
267.621499
 31
0.0
  0
LINE
  5
19E
330
1E
100
AcDbEntity
  8
CONTINUOUS1
100
AcDbLine
 10
228.5148599999999
 20
267.621499
 30
0.0
 11
228.5207069999999
 21
267.7303399999999
 31
0.0
  0
LINE
  5
19F
330
1E
100
AcDbEntity
  8
CONTINUOUS1
100
AcDbLine
 10
228.5207069999999
 20
267.7303399999999
 30
0.0
 11
228.522658
 21
267.8393879999999
 31
0.0
  0
LINE
  5
1A0
330
1E
100
AcDbEntity
  8
CONTINUOUS1
100
AcDbLine
 10
232.221262
 20
267.8393879999999
 30
0.0
 11
232.222987
 21
267.7303399999999
 31
0.0
  0
LINE
  5
1A1
330
1E
100
AcDbEntity
  8
CONTINUOUS1
100
AcDbLine
 10
232.222987
 20
267.7303399999999
 30
0.0
 11
232.2281589999999
 21
267.621499
 31
0.0
  0
LINE
  5
1A2
330
1E
100
AcDbEntity
  8
CONTINUOUS1
100
AcDbLine
 10
232.2281589999999
 20
267.621499
 30
0.0
 11
232.2367689999999
 21
267.513073
 31
0.0
  0
LINE
  5
1A3
330
1E
100
AcDbEntity
  8
CONTINUOUS1
100
AcDbLine
 10
232.2367689999999
 20
267.513073
 30
0.0
 11
232.248798
 21
267.405268
 31
0.0
  0
LINE
  5
1A4
330
1E
100
AcDbEntity
  8
CONTINUOUS1
100
AcDbLine
 10
232.248798
 20
267.405268
 30
0.0
 11
232.2642259999999
 21
267.298289
 31
0.0
  0
LINE
  5
1A5
330
1E
100
AcDbEntity
  8
CONTINUOUS1
100
AcDbLine
 10
232.2642259999999
 20
267.298289
 30
0.0
 11
232.283022
 21
267.192341
 31
0.0
  0
LINE
  5
1A6
330
1E
100
AcDbEntity
  8
CONTINUOUS1
100
AcDbLine
 10
232.283022
 20
267.192341
 30
0.0
 11
232.3051509999999
 21
267.087624
 31
0.0
  0
LINE
  5
1A7
330
1E
100
AcDbEntity
  8
CONTINUOUS1
100
AcDbLine
 10
232.3051509999999
 20
267.087624
 30
0.0
 11
232.33057
 21
266.9843379999999
 31
0.0
  0
LINE
  5
1A8
330
1E
100
AcDbEntity
  8
CONTINUOUS1
100
AcDbLine
 10
232.33057
 20
266.9843379999999
 30
0.0
 11
232.3592319999999
 21
266.88268
 31
0.0
  0
LINE
  5
1A9
330
1E
100
AcDbEntity
  8
CONTINUOUS1
100
AcDbLine
 10
232.3592319999999
 20
266.88268
 30
0.0
 11
232.391081
 21
266.782842
 31
0.0
  0
LINE
  5
1AA
330
1E
100
AcDbEntity
  8
CONTINUOUS1
100
AcDbLine
 10
232.391081
 20
266.782842
 30
0.0
 11
232.4260569999999
 21
266.685017
 31
0.0
  0
LINE
  5
1AB
330
1E
100
AcDbEntity
  8
CONTINUOUS1
100
AcDbLine
 10
232.4260569999999
 20
266.685017
 30
0.0
 11
232.464093
 21
266.589388
 31
0.0
  0
LINE
  5
1AC
330
1E
100
AcDbEntity
  8
CONTINUOUS1
100
AcDbLine
 10
232.464093
 20
266.589388
 30
0.0
 11
232.5051179999999
 21
266.496139
 31
0.0
  0
LINE
  5
1AD
330
1E
100
AcDbEntity
  8
CONTINUOUS1
100
AcDbLine
 10
232.5051179999999
 20
266.496139
 30
0.0
 11
232.5490519999999
 21
266.405447
 31
0.0
  0
LINE
  5
1AE
330
1E
100
AcDbEntity
  8
CONTINUOUS1
100
AcDbLine
 10
232.5490519999999
 20
266.405447
 30
0.0
 11
232.595813
 21
266.317485
 31
0.0
  0
LINE
  5
1AF
330
1E
100
AcDbEntity
  8
CONTINUOUS1
100
AcDbLine
 10
232.595813
 20
266.317485
 30
0.0
 11
232.64531
 21
266.232419
 31
0.0
  0
LINE
  5
1B0
330
1E
100
AcDbEntity
  8
CONTINUOUS1
100
AcDbLine
 10
232.64531
 20
266.232419
 30
0.0
 11
232.6974509999999
 21
266.150413
 31
0.0
  0
LINE
  5
1B1
330
1E
100
AcDbEntity
  8
CONTINUOUS1
100
AcDbLine
 10
232.6974509999999
 20
266.150413
 30
0.0
 11
232.7521359999999
 21
266.0716209999999
 31
0.0
  0
LINE
  5
1B2
330
1E
100
AcDbEntity
  8
CONTINUOUS1
100
AcDbLine
 10
232.7521359999999
 20
266.0716209999999
 30
0.0
 11
232.80926
 21
265.996195
 31
0.0
  0
LINE
  5
1B3
330
1E
100
AcDbEntity
  8
CONTINUOUS1
100
AcDbLine
 10
232.80926
 20
265.996195
 30
0.0
 11
232.8687149999999
 21
265.924277
 31
0.0
  0
LINE
  5
1B4
330
1E
100
AcDbEntity
  8
CONTINUOUS1
100
AcDbLine
 10
232.8687149999999
 20
265.924277
 30
0.0
 11
232.9303879999999
 21
265.8560049999999
 31
0.0
  0
LINE
  5
1B5
330
1E
100
AcDbEntity
  8
CONTINUOUS1
100
AcDbLine
 10
232.9303879999999
 20
265.8560049999999
 30
0.0
 11
232.994162
 21
265.791508
 31
0.0
  0
LINE
  5
1B6
330
1E
100
AcDbEntity
  8
CONTINUOUS1
100
AcDbLine
 10
232.994162
 20
265.791508
 30
0.0
 11
233.059914
 21
265.7309099999999
 31
0.0
  0
LINE
  5
1B7
330
1E
100
AcDbEntity
  8
CONTINUOUS1
100
AcDbLine
 10
233.059914
 20
265.7309099999999
 30
0.0
 11
233.12752
 21
265.674325
 31
0.0
  0
LINE
  5
1B8
330
1E
100
AcDbEntity
  8
CONTINUOUS1
100
AcDbLine
 10
233.12752
 20
265.674325
 30
0.0
 11
233.1968509999999
 21
265.6218609999999
 31
0.0
  0
LINE
  5
1B9
330
1E
100
AcDbEntity
  8
CONTINUOUS1
100
AcDbLine
 10
233.1968509999999
 20
265.6218609999999
 30
0.0
 11
233.2677759999999
 21
265.573619
 31
0.0
  0
LINE
  5
1BA
330
1E
100
AcDbEntity
  8
CONTINUOUS1
100
AcDbLine
 10
233.2677759999999
 20
265.573619
 30
0.0
 11
233.3401579999999
 21
265.529689
 31
0.0
  0
LINE
  5
1BB
330
1E
100
AcDbEntity
  8
CONTINUOUS1
100
AcDbLine
 10
233.3401579999999
 20
265.529689
 30
0.0
 11
233.413861
 21
265.490157
 31
0.0
  0
LINE
  5
1BC
330
1E
100
AcDbEntity
  8
CONTINUOUS1
100
AcDbLine
 10
233.413861
 20
265.490157
 30
0.0
 11
233.488744
 21
265.4550959999999
 31
0.0
  0
LINE
  5
1BD
330
1E
100
AcDbEntity
  8
CONTINUOUS1
100
AcDbLine
 10
233.488744
 20
265.4550959999999
 30
0.0
 11
233.564665
 21
265.4245739999999
 31
0.0
  0
LINE
  5
1BE
330
1E
100
AcDbEntity
  8
CONTINUOUS1
100
AcDbLine
 10
233.564665
 20
265.4245739999999
 30
0.0
 11
233.6414779999999
 21
265.3986479999999
 31
0.0
  0
LINE
  5
1BF
330
1E
100
AcDbEntity
  8
CONTINUOUS1
100
AcDbLine
 10
233.6414779999999
 20
265.3986479999999
 30
0.0
 11
233.719038
 21
265.3773689999999
 31
0.0
  0
LINE
  5
1C0
330
1E
100
AcDbEntity
  8
CONTINUOUS1
100
AcDbLine
 10
233.719038
 20
265.3773689999999
 30
0.0
 11
233.797197
 21
265.3607759999999
 31
0.0
  0
LINE
  5
1C1
330
1E
100
AcDbEntity
  8
CONTINUOUS1
100
AcDbLine
 10
233.797197
 20
265.3607759999999
 30
0.0
 11
233.8758069999999
 21
265.3489009999999
 31
0.0
  0
LINE
  5
1C2
330
1E
100
AcDbEntity
  8
CONTINUOUS1
100
AcDbLine
 10
233.8758069999999
 20
265.3489009999999
 30
0.0
 11
233.9547169999999
 21
265.341768
 31
0.0
  0
LINE
  5
1C3
330
1E
100
AcDbEntity
  8
CONTINUOUS1
100
AcDbLine
 10
233.9547169999999
 20
265.341768
 30
0.0
 11
234.033778
 21
265.3393879999999
 31
0.0
  0
LINE
  5
1C4
330
1E
100
AcDbEntity
  8
CONTINUOUS1
100
AcDbLine
 10
234.033778
 20
265.3393879999999
 30
0.0
 11
234.112839
 21
265.341768
 31
0.0
  0
LINE
  5
1C5
330
1E
100
AcDbEntity
  8
CONTINUOUS1
100
AcDbLine
 10
234.112839
 20
265.341768
 30
0.0
 11
234.191749
 21
265.3489009999999
 31
0.0
  0
LINE
  5
1C6
330
1E
100
AcDbEntity
  8
CONTINUOUS1
100
AcDbLine
 10
234.191749
 20
265.3489009999999
 30
0.0
 11
234.2703589999999
 21
265.3607759999999
 31
0.0
  0
LINE
  5
1C7
330
1E
100
AcDbEntity
  8
CONTINUOUS1
100
AcDbLine
 10
234.2703589999999
 20
265.3607759999999
 30
0.0
 11
234.348518
 21
265.3773689999999
 31
0.0
  0
LINE
  5
1C8
330
1E
100
AcDbEntity
  8
CONTINUOUS1
100
AcDbLine
 10
234.348518
 20
265.3773689999999
 30
0.0
 11
234.4260779999999
 21
265.3986479999999
 31
0.0
  0
LINE
  5
1C9
330
1E
100
AcDbEntity
  8
CONTINUOUS1
100
AcDbLine
 10
234.4260779999999
 20
265.3986479999999
 30
0.0
 11
234.502892
 21
265.4245739999999
 31
0.0
  0
LINE
  5
1CA
330
1E
100
AcDbEntity
  8
CONTINUOUS1
100
AcDbLine
 10
234.502892
 20
265.4245739999999
 30
0.0
 11
234.5788119999999
 21
265.4550959999999
 31
0.0
  0
LINE
  5
1CB
330
1E
100
AcDbEntity
  8
CONTINUOUS1
100
AcDbLine
 10
234.5788119999999
 20
265.4550959999999
 30
0.0
 11
234.653695
 21
265.490157
 31
0.0
  0
LINE
  5
1CC
330
1E
100
AcDbEntity
  8
CONTINUOUS1
100
AcDbLine
 10
234.653695
 20
265.490157
 30
0.0
 11
234.727398
 21
265.529689
 31
0.0
  0
LINE
  5
1CD
330
1E
100
AcDbEntity
  8
CONTINUOUS1
100
AcDbLine
 10
234.727398
 20
265.529689
 30
0.0
 11
234.7997799999999
 21
265.573619
 31
0.0
  0
LINE
  5
1CE
330
1E
100
AcDbEntity
  8
CONTINUOUS1
100
AcDbLine
 10
234.7997799999999
 20
265.573619
 30
0.0
 11
234.8707049999999
 21
265.6218609999999
 31
0.0
  0
LINE
  5
1CF
330
1E
100
AcDbEntity
  8
CONTINUOUS1
100
AcDbLine
 10
234.8707049999999
 20
265.6218609999999
 30
0.0
 11
234.940036
 21
265.674325
 31
0.0
  0
LINE
  5
1D0
330
1E
100
AcDbEntity
  8
CONTINUOUS1
100
AcDbLine
 10
234.940036
 20
265.674325
 30
0.0
 11
235.007642
 21
265.7309099999999
 31
0.0
  0
LINE
  5
1D1
330
1E
100
AcDbEntity
  8
CONTINUOUS1
100
AcDbLine
 10
235.007642
 20
265.7309099999999
 30
0.0
 11
235.0733949999999
 21
265.791508
 31
0.0
  0
LINE
  5
1D2
330
1E
100
AcDbEntity
  8
CONTINUOUS1
100
AcDbLine
 10
235.0733949999999
 20
265.791508
 30
0.0
 11
235.137168
 21
265.8560049999999
 31
0.0
  0
LINE
  5
1D3
330
1E
100
AcDbEntity
  8
CONTINUOUS1
100
AcDbLine
 10
235.137168
 20
265.8560049999999
 30
0.0
 11
235.198841
 21
265.924277
 31
0.0
  0
LINE
  5
1D4
330
1E
100
AcDbEntity
  8
CONTINUOUS1
100
AcDbLine
 10
235.198841
 20
265.924277
 30
0.0
 11
235.2582959999999
 21
265.996195
 31
0.0
  0
LINE
  5
1D5
330
1E
100
AcDbEntity
  8
CONTINUOUS1
100
AcDbLine
 10
235.2582959999999
 20
265.996195
 30
0.0
 11
235.31542
 21
266.0716209999999
 31
0.0
  0
LINE
  5
1D6
330
1E
100
AcDbEntity
  8
CONTINUOUS1
100
AcDbLine
 10
235.31542
 20
266.0716209999999
 30
0.0
 11
235.370105
 21
266.150413
 31
0.0
  0
LINE
  5
1D7
330
1E
100
AcDbEntity
  8
CONTINUOUS1
100
AcDbLine
 10
235.370105
 20
266.150413
 30
0.0
 11
235.4222459999999
 21
266.232419
 31
0.0
  0
LINE
  5
1D8
330
1E
100
AcDbEntity
  8
CONTINUOUS1
100
AcDbLine
 10
235.4222459999999
 20
266.232419
 30
0.0
 11
235.4717439999999
 21
266.317485
 31
0.0
  0
LINE
  5
1D9
330
1E
100
AcDbEntity
  8
CONTINUOUS1
100
AcDbLine
 10
235.4717439999999
 20
266.317485
 30
0.0
 11
235.518504
 21
266.405447
 31
0.0
  0
LINE
  5
1DA
330
1E
100
AcDbEntity
  8
CONTINUOUS1
100
AcDbLine
 10
235.518504
 20
266.405447
 30
0.0
 11
235.562439
 21
266.496139
 31
0.0
  0
LINE
  5
1DB
330
1E
100
AcDbEntity
  8
CONTINUOUS1
100
AcDbLine
 10
235.562439
 20
266.496139
 30
0.0
 11
235.6034629999999
 21
266.589388
 31
0.0
  0
LINE
  5
1DC
330
1E
100
AcDbEntity
  8
CONTINUOUS1
100
AcDbLine
 10
235.6034629999999
 20
266.589388
 30
0.0
 11
235.641499
 21
266.685017
 31
0.0
  0
LINE
  5
1DD
330
1E
100
AcDbEntity
  8
CONTINUOUS1
100
AcDbLine
 10
235.641499
 20
266.685017
 30
0.0
 11
235.6764749999999
 21
266.782842
 31
0.0
  0
LINE
  5
1DE
330
1E
100
AcDbEntity
  8
CONTINUOUS1
100
AcDbLine
 10
235.6764749999999
 20
266.782842
 30
0.0
 11
235.708324
 21
266.88268
 31
0.0
  0
LINE
  5
1DF
330
1E
100
AcDbEntity
  8
CONTINUOUS1
100
AcDbLine
 10
235.708324
 20
266.88268
 30
0.0
 11
235.7369859999999
 21
266.9843379999999
 31
0.0
  0
LINE
  5
1E0
330
1E
100
AcDbEntity
  8
CONTINUOUS1
100
AcDbLine
 10
235.7369859999999
 20
266.9843379999999
 30
0.0
 11
235.7624049999999
 21
267.087624
 31
0.0
  0
LINE
  5
1E1
330
1E
100
AcDbEntity
  8
CONTINUOUS1
100
AcDbLine
 10
235.7624049999999
 20
267.087624
 30
0.0
 11
235.7845339999999
 21
267.192341
 31
0.0
  0
LINE
  5
1E2
330
1E
100
AcDbEntity
  8
CONTINUOUS1
100
AcDbLine
 10
235.7845339999999
 20
267.192341
 30
0.0
 11
235.8033299999999
 21
267.298289
 31
0.0
  0
LINE
  5
1E3
330
1E
100
AcDbEntity
  8
CONTINUOUS1
100
AcDbLine
 10
235.8033299999999
 20
267.298289
 30
0.0
 11
235.818758
 21
267.405268
 31
0.0
  0
LINE
  5
1E4
330
1E
100
AcDbEntity
  8
CONTINUOUS1
100
AcDbLine
 10
235.818758
 20
267.405268
 30
0.0
 11
235.8307879999999
 21
267.513073
 31
0.0
  0
LINE
  5
1E5
330
1E
100
AcDbEntity
  8
CONTINUOUS1
100
AcDbLine
 10
235.8307879999999
 20
267.513073
 30
0.0
 11
235.839397
 21
267.621499
 31
0.0
  0
LINE
  5
1E6
330
1E
100
AcDbEntity
  8
CONTINUOUS1
100
AcDbLine
 10
235.839397
 20
267.621499
 30
0.0
 11
235.8445689999999
 21
267.7303399999999
 31
0.0
  0
LINE
  5
1E7
330
1E
100
AcDbEntity
  8
CONTINUOUS1
100
AcDbLine
 10
235.8445689999999
 20
267.7303399999999
 30
0.0
 11
235.8462939999999
 21
267.8393879999999
 31
0.0
  0
LINE
  5
1E8
330
1E
100
AcDbEntity
  8
CONTINUOUS1
100
AcDbLine
 10
239.0389959999999
 20
267.8393879999999
 30
0.0
 11
239.040444
 21
267.7303399999999
 31
0.0
  0
LINE
  5
1E9
330
1E
100
AcDbEntity
  8
CONTINUOUS1
100
AcDbLine
 10
239.040444
 20
267.7303399999999
 30
0.0
 11
239.0447829999999
 21
267.621499
 31
0.0
  0
LINE
  5
1EA
330
1E
100
AcDbEntity
  8
CONTINUOUS1
100
AcDbLine
 10
239.0447829999999
 20
267.621499
 30
0.0
 11
239.0520069999999
 21
267.513073
 31
0.0
  0
LINE
  5
1EB
330
1E
100
AcDbEntity
  8
CONTINUOUS1
100
AcDbLine
 10
239.0520069999999
 20
267.513073
 30
0.0
 11
239.062102
 21
267.405268
 31
0.0
  0
LINE
  5
1EC
330
1E
100
AcDbEntity
  8
CONTINUOUS1
100
AcDbLine
 10
239.062102
 20
267.405268
 30
0.0
 11
239.0750469999999
 21
267.298289
 31
0.0
  0
LINE
  5
1ED
330
1E
100
AcDbEntity
  8
CONTINUOUS1
100
AcDbLine
 10
239.0750469999999
 20
267.298289
 30
0.0
 11
239.0908189999999
 21
267.192341
 31
0.0
  0
LINE
  5
1EE
330
1E
100
AcDbEntity
  8
CONTINUOUS1
100
AcDbLine
 10
239.0908189999999
 20
267.192341
 30
0.0
 11
239.109387
 21
267.087624
 31
0.0
  0
LINE
  5
1EF
330
1E
100
AcDbEntity
  8
CONTINUOUS1
100
AcDbLine
 10
239.109387
 20
267.087624
 30
0.0
 11
239.130716
 21
266.9843379999999
 31
0.0
  0
LINE
  5
1F0
330
1E
100
AcDbEntity
  8
CONTINUOUS1
100
AcDbLine
 10
239.130716
 20
266.9843379999999
 30
0.0
 11
239.154766
 21
266.88268
 31
0.0
  0
LINE
  5
1F1
330
1E
100
AcDbEntity
  8
CONTINUOUS1
100
AcDbLine
 10
239.154766
 20
266.88268
 30
0.0
 11
239.181491
 21
266.782842
 31
0.0
  0
LINE
  5
1F2
330
1E
100
AcDbEntity
  8
CONTINUOUS1
100
AcDbLine
 10
239.181491
 20
266.782842
 30
0.0
 11
239.210839
 21
266.685017
 31
0.0
  0
LINE
  5
1F3
330
1E
100
AcDbEntity
  8
CONTINUOUS1
100
AcDbLine
 10
239.210839
 20
266.685017
 30
0.0
 11
239.2427549999999
 21
266.589388
 31
0.0
  0
LINE
  5
1F4
330
1E
100
AcDbEntity
  8
CONTINUOUS1
100
AcDbLine
 10
239.2427549999999
 20
266.589388
 30
0.0
 11
239.2771789999999
 21
266.496139
 31
0.0
  0
LINE
  5
1F5
330
1E
100
AcDbEntity
  8
CONTINUOUS1
100
AcDbLine
 10
239.2771789999999
 20
266.496139
 30
0.0
 11
239.3140439999999
 21
266.405447
 31
0.0
  0
LINE
  5
1F6
330
1E
100
AcDbEntity
  8
CONTINUOUS1
100
AcDbLine
 10
239.3140439999999
 20
266.405447
 30
0.0
 11
239.3532809999999
 21
266.317485
 31
0.0
  0
LINE
  5
1F7
330
1E
100
AcDbEntity
  8
CONTINUOUS1
100
AcDbLine
 10
239.3532809999999
 20
266.317485
 30
0.0
 11
239.3948149999999
 21
266.232419
 31
0.0
  0
LINE
  5
1F8
330
1E
100
AcDbEntity
  8
CONTINUOUS1
100
AcDbLine
 10
239.3948149999999
 20
266.232419
 30
0.0
 11
239.438566
 21
266.150413
 31
0.0
  0
LINE
  5
1F9
330
1E
100
AcDbEntity
  8
CONTINUOUS1
100
AcDbLine
 10
239.438566
 20
266.150413
 30
0.0
 11
239.4844519999999
 21
266.0716209999999
 31
0.0
  0
LINE
  5
1FA
330
1E
100
AcDbEntity
  8
CONTINUOUS1
100
AcDbLine
 10
239.4844519999999
 20
266.0716209999999
 30
0.0
 11
239.532385
 21
265.996195
 31
0.0
  0
LINE
  5
1FB
330
1E
100
AcDbEntity
  8
CONTINUOUS1
100
AcDbLine
 10
239.532385
 20
265.996195
 30
0.0
 11
239.582274
 21
265.924277
 31
0.0
  0
LINE
  5
1FC
330
1E
100
AcDbEntity
  8
CONTINUOUS1
100
AcDbLine
 10
239.582274
 20
265.924277
 30
0.0
 11
239.6340229999999
 21
265.8560049999999
 31
0.0
  0
LINE
  5
1FD
330
1E
100
AcDbEntity
  8
CONTINUOUS1
100
AcDbLine
 10
239.6340229999999
 20
265.8560049999999
 30
0.0
 11
239.687536
 21
265.791508
 31
0.0
  0
LINE
  5
1FE
330
1E
100
AcDbEntity
  8
CONTINUOUS1
100
AcDbLine
 10
239.687536
 20
265.791508
 30
0.0
 11
239.7427079999999
 21
265.7309099999999
 31
0.0
  0
LINE
  5
1FF
330
1E
100
AcDbEntity
  8
CONTINUOUS1
100
AcDbLine
 10
239.7427079999999
 20
265.7309099999999
 30
0.0
 11
239.799437
 21
265.674325
 31
0.0
  0
LINE
  5
200
330
1E
100
AcDbEntity
  8
CONTINUOUS1
100
AcDbLine
 10
239.799437
 20
265.674325
 30
0.0
 11
239.857612
 21
265.6218609999999
 31
0.0
  0
LINE
  5
201
330
1E
100
AcDbEntity
  8
CONTINUOUS1
100
AcDbLine
 10
239.857612
 20
265.6218609999999
 30
0.0
 11
239.917125
 21
265.573619
 31
0.0
  0
LINE
  5
202
330
1E
100
AcDbEntity
  8
CONTINUOUS1
100
AcDbLine
 10
239.917125
 20
265.573619
 30
0.0
 11
239.9778609999999
 21
265.529689
 31
0.0
  0
LINE
  5
203
330
1E
100
AcDbEntity
  8
CONTINUOUS1
100
AcDbLine
 10
239.9778609999999
 20
265.529689
 30
0.0
 11
240.0397049999999
 21
265.490157
 31
0.0
  0
LINE
  5
204
330
1E
100
AcDbEntity
  8
CONTINUOUS1
100
AcDbLine
 10
240.0397049999999
 20
265.490157
 30
0.0
 11
240.1025399999999
 21
265.4550959999999
 31
0.0
  0
LINE
  5
205
330
1E
100
AcDbEntity
  8
CONTINUOUS1
100
AcDbLine
 10
240.1025399999999
 20
265.4550959999999
 30
0.0
 11
240.1662439999999
 21
265.4245739999999
 31
0.0
  0
LINE
  5
206
330
1E
100
AcDbEntity
  8
CONTINUOUS1
100
AcDbLine
 10
240.1662439999999
 20
265.4245739999999
 30
0.0
 11
240.230698
 21
265.3986479999999
 31
0.0
  0
LINE
  5
207
330
1E
100
AcDbEntity
  8
CONTINUOUS1
100
AcDbLine
 10
240.230698
 20
265.3986479999999
 30
0.0
 11
240.295779
 21
265.3773689999999
 31
0.0
  0
LINE
  5
208
330
1E
100
AcDbEntity
  8
CONTINUOUS1
100
AcDbLine
 10
240.295779
 20
265.3773689999999
 30
0.0
 11
240.3613629999999
 21
265.3607759999999
 31
0.0
  0
LINE
  5
209
330
1E
100
AcDbEntity
  8
CONTINUOUS1
100
AcDbLine
 10
240.3613629999999
 20
265.3607759999999
 30
0.0
 11
240.427324
 21
265.3489009999999
 31
0.0
  0
LINE
  5
20A
330
1E
100
AcDbEntity
  8
CONTINUOUS1
100
AcDbLine
 10
240.427324
 20
265.3489009999999
 30
0.0
 11
240.493537
 21
265.341768
 31
0.0
  0
LINE
  5
20B
330
1E
100
AcDbEntity
  8
CONTINUOUS1
100
AcDbLine
 10
240.493537
 20
265.341768
 30
0.0
 11
240.559877
 21
265.3393879999999
 31
0.0
  0
LINE
  5
20C
330
1E
100
AcDbEntity
  8
CONTINUOUS1
100
AcDbLine
 10
240.559877
 20
265.3393879999999
 30
0.0
 11
240.626217
 21
265.341768
 31
0.0
  0
LINE
  5
20D
330
1E
100
AcDbEntity
  8
CONTINUOUS1
100
AcDbLine
 10
240.626217
 20
265.341768
 30
0.0
 11
240.6924309999999
 21
265.3489009999999
 31
0.0
  0
LINE
  5
20E
330
1E
100
AcDbEntity
  8
CONTINUOUS1
100
AcDbLine
 10
240.6924309999999
 20
265.3489009999999
 30
0.0
 11
240.7583919999999
 21
265.3607759999999
 31
0.0
  0
LINE
  5
20F
330
1E
100
AcDbEntity
  8
CONTINUOUS1
100
AcDbLine
 10
240.7583919999999
 20
265.3607759999999
 30
0.0
 11
240.8239759999999
 21
265.3773689999999
 31
0.0
  0
LINE
  5
210
330
1E
100
AcDbEntity
  8
CONTINUOUS1
100
AcDbLine
 10
240.8239759999999
 20
265.3773689999999
 30
0.0
 11
240.889056
 21
265.3986479999999
 31
0.0
  0
LINE
  5
211
330
1E
100
AcDbEntity
  8
CONTINUOUS1
100
AcDbLine
 10
240.889056
 20
265.3986479999999
 30
0.0
 11
240.95351
 21
265.4245739999999
 31
0.0
  0
LINE
  5
212
330
1E
100
AcDbEntity
  8
CONTINUOUS1
100
AcDbLine
 10
240.95351
 20
265.4245739999999
 30
0.0
 11
241.017215
 21
265.4550959999999
 31
0.0
  0
LINE
  5
213
330
1E
100
AcDbEntity
  8
CONTINUOUS1
100
AcDbLine
 10
241.017215
 20
265.4550959999999
 30
0.0
 11
241.080049
 21
265.490157
 31
0.0
  0
LINE
  5
214
330
1E
100
AcDbEntity
  8
CONTINUOUS1
100
AcDbLine
 10
241.080049
 20
265.490157
 30
0.0
 11
241.1418929999999
 21
265.529689
 31
0.0
  0
LINE
  5
215
330
1E
100
AcDbEntity
  8
CONTINUOUS1
100
AcDbLine
 10
241.1418929999999
 20
265.529689
 30
0.0
 11
241.2026299999999
 21
265.573619
 31
0.0
  0
LINE
  5
216
330
1E
100
AcDbEntity
  8
CONTINUOUS1
100
AcDbLine
 10
241.2026299999999
 20
265.573619
 30
0.0
 11
241.2621419999999
 21
265.6218609999999
 31
0.0
  0
LINE
  5
217
330
1E
100
AcDbEntity
  8
CONTINUOUS1
100
AcDbLine
 10
241.2621419999999
 20
265.6218609999999
 30
0.0
 11
241.320318
 21
265.674325
 31
0.0
  0
LINE
  5
218
330
1E
100
AcDbEntity
  8
CONTINUOUS1
100
AcDbLine
 10
241.320318
 20
265.674325
 30
0.0
 11
241.377046
 21
265.7309099999999
 31
0.0
  0
LINE
  5
219
330
1E
100
AcDbEntity
  8
CONTINUOUS1
100
AcDbLine
 10
241.377046
 20
265.7309099999999
 30
0.0
 11
241.432219
 21
265.791508
 31
0.0
  0
LINE
  5
21A
330
1E
100
AcDbEntity
  8
CONTINUOUS1
100
AcDbLine
 10
241.432219
 20
265.791508
 30
0.0
 11
241.485731
 21
265.8560049999999
 31
0.0
  0
LINE
  5
21B
330
1E
100
AcDbEntity
  8
CONTINUOUS1
100
AcDbLine
 10
241.485731
 20
265.8560049999999
 30
0.0
 11
241.537481
 21
265.924277
 31
0.0
  0
LINE
  5
21C
330
1E
100
AcDbEntity
  8
CONTINUOUS1
100
AcDbLine
 10
241.537481
 20
265.924277
 30
0.0
 11
241.58737
 21
265.996195
 31
0.0
  0
LINE
  5
21D
330
1E
100
AcDbEntity
  8
CONTINUOUS1
100
AcDbLine
 10
241.58737
 20
265.996195
 30
0.0
 11
241.6353029999999
 21
266.0716209999999
 31
0.0
  0
LINE
  5
21E
330
1E
100
AcDbEntity
  8
CONTINUOUS1
100
AcDbLine
 10
241.6353029999999
 20
266.0716209999999
 30
0.0
 11
241.681189
 21
266.150413
 31
0.0
  0
LINE
  5
21F
330
1E
100
AcDbEntity
  8
CONTINUOUS1
100
AcDbLine
 10
241.681189
 20
266.150413
 30
0.0
 11
241.72494
 21
266.232419
 31
0.0
  0
LINE
  5
220
330
1E
100
AcDbEntity
  8
CONTINUOUS1
100
AcDbLine
 10
241.72494
 20
266.232419
 30
0.0
 11
241.766474
 21
266.317485
 31
0.0
  0
LINE
  5
221
330
1E
100
AcDbEntity
  8
CONTINUOUS1
100
AcDbLine
 10
241.766474
 20
266.317485
 30
0.0
 11
241.8057099999999
 21
266.405447
 31
0.0
  0
LINE
  5
222
330
1E
100
AcDbEntity
  8
CONTINUOUS1
100
AcDbLine
 10
241.8057099999999
 20
266.405447
 30
0.0
 11
241.8425759999999
 21
266.496139
 31
0.0
  0
LINE
  5
223
330
1E
100
AcDbEntity
  8
CONTINUOUS1
100
AcDbLine
 10
241.8425759999999
 20
266.496139
 30
0.0
 11
241.876999
 21
266.589388
 31
0.0
  0
LINE
  5
224
330
1E
100
AcDbEntity
  8
CONTINUOUS1
100
AcDbLine
 10
241.876999
 20
266.589388
 30
0.0
 11
241.9089159999999
 21
266.685017
 31
0.0
  0
LINE
  5
225
330
1E
100
AcDbEntity
  8
CONTINUOUS1
100
AcDbLine
 10
241.9089159999999
 20
266.685017
 30
0.0
 11
241.938264
 21
266.782842
 31
0.0
  0
LINE
  5
226
330
1E
100
AcDbEntity
  8
CONTINUOUS1
100
AcDbLine
 10
241.938264
 20
266.782842
 30
0.0
 11
241.964989
 21
266.88268
 31
0.0
  0
LINE
  5
227
330
1E
100
AcDbEntity
  8
CONTINUOUS1
100
AcDbLine
 10
241.964989
 20
266.88268
 30
0.0
 11
241.989038
 21
266.9843379999999
 31
0.0
  0
LINE
  5
228
330
1E
100
AcDbEntity
  8
CONTINUOUS1
100
AcDbLine
 10
241.989038
 20
266.9843379999999
 30
0.0
 11
242.010368
 21
267.087624
 31
0.0
  0
LINE
  5
229
330
1E
100
AcDbEntity
  8
CONTINUOUS1
100
AcDbLine
 10
242.010368
 20
267.087624
 30
0.0
 11
242.0289359999999
 21
267.192341
 31
0.0
  0
LINE
  5
22A
330
1E
100
AcDbEntity
  8
CONTINUOUS1
100
AcDbLine
 10
242.0289359999999
 20
267.192341
 30
0.0
 11
242.044708
 21
267.298289
 31
0.0
  0
LINE
  5
22B
330
1E
100
AcDbEntity
  8
CONTINUOUS1
100
AcDbLine
 10
242.044708
 20
267.298289
 30
0.0
 11
242.0576529999999
 21
267.405268
 31
0.0
  0
LINE
  5
22C
330
1E
100
AcDbEntity
  8
CONTINUOUS1
100
AcDbLine
 10
242.0576529999999
 20
267.405268
 30
0.0
 11
242.067747
 21
267.513073
 31
0.0
  0
LINE
  5
22D
330
1E
100
AcDbEntity
  8
CONTINUOUS1
100
AcDbLine
 10
242.067747
 20
267.513073
 30
0.0
 11
242.0749709999999
 21
267.621499
 31
0.0
  0
LINE
  5
22E
330
1E
100
AcDbEntity
  8
CONTINUOUS1
100
AcDbLine
 10
242.0749709999999
 20
267.621499
 30
0.0
 11
242.0793109999999
 21
267.7303399999999
 31
0.0
  0
LINE
  5
22F
330
1E
100
AcDbEntity
  8
CONTINUOUS1
100
AcDbLine
 10
242.0793109999999
 20
267.7303399999999
 30
0.0
 11
242.0807589999999
 21
267.8393879999999
 31
0.0
  0
LINE
  5
230
330
1E
100
AcDbEntity
  8
CONTINUOUS1
100
AcDbLine
 10
247.0366209999999
 20
267.8393879999999
 30
0.0
 11
247.0366209999999
 21
277.8393879999999
 31
0.0
  0
LINE
  5
231
330
1E
100
AcDbEntity
  8
CONTINUOUS1
100
AcDbLine
 10
248.944811
 20
277.8393879999999
 30
0.0
 11
248.944811
 21
267.8393879999999
 31
0.0
  0
LINE
  5
232
330
1E
100
AcDbEntity
  8
CONTINUOUS1
100
AcDbLine
 10
250.563299
 20
277.8393879999999
 30
0.0
 11
250.563299
 21
267.8393879999999
 31
0.0
  0
LINE
  5
233
330
1E
100
AcDbEntity
  8
CONTINUOUS1
100
AcDbLine
 10
251.7319089999999
 20
277.8393879999999
 30
0.0
 11
251.7319089999999
 21
267.8393879999999
 31
0.0
  0
LINE
  5
234
330
1E
100
AcDbEntity
  8
CONTINUOUS1
100
AcDbLine
 10
252.553637
 20
277.8393879999999
 30
0.0
 11
252.553637
 21
267.8393879999999
 31
0.0
  0
LINE
  5
235
330
1E
100
AcDbEntity
  8
CONTINUOUS1
100
AcDbLine
 10
244.6705499999999
 20
267.8393879999999
 30
0.0
 11
244.671676
 21
267.7303399999999
 31
0.0
  0
LINE
  5
236
330
1E
100
AcDbEntity
  8
CONTINUOUS1
100
AcDbLine
 10
244.671676
 20
267.7303399999999
 30
0.0
 11
244.6750509999999
 21
267.621499
 31
0.0
  0
LINE
  5
237
330
1E
100
AcDbEntity
  8
CONTINUOUS1
100
AcDbLine
 10
244.6750509999999
 20
267.621499
 30
0.0
 11
244.680671
 21
267.513073
 31
0.0
  0
LINE
  5
238
330
1E
100
AcDbEntity
  8
CONTINUOUS1
100
AcDbLine
 10
244.680671
 20
267.513073
 30
0.0
 11
244.688522
 21
267.405268
 31
0.0
  0
LINE
  5
239
330
1E
100
AcDbEntity
  8
CONTINUOUS1
100
AcDbLine
 10
244.688522
 20
267.405268
 30
0.0
 11
244.6985919999999
 21
267.298289
 31
0.0
  0
LINE
  5
23A
330
1E
100
AcDbEntity
  8
CONTINUOUS1
100
AcDbLine
 10
244.6985919999999
 20
267.298289
 30
0.0
 11
244.7108599999999
 21
267.192341
 31
0.0
  0
LINE
  5
23B
330
1E
100
AcDbEntity
  8
CONTINUOUS1
100
AcDbLine
 10
244.7108599999999
 20
267.192341
 30
0.0
 11
244.725304
 21
267.087624
 31
0.0
  0
LINE
  5
23C
330
1E
100
AcDbEntity
  8
CONTINUOUS1
100
AcDbLine
 10
244.725304
 20
267.087624
 30
0.0
 11
244.741895
 21
266.9843379999999
 31
0.0
  0
LINE
  5
23D
330
1E
100
AcDbEntity
  8
CONTINUOUS1
100
AcDbLine
 10
244.741895
 20
266.9843379999999
 30
0.0
 11
244.7606029999999
 21
266.88268
 31
0.0
  0
LINE
  5
23E
330
1E
100
AcDbEntity
  8
CONTINUOUS1
100
AcDbLine
 10
244.7606029999999
 20
266.88268
 30
0.0
 11
244.781391
 21
266.782842
 31
0.0
  0
LINE
  5
23F
330
1E
100
AcDbEntity
  8
CONTINUOUS1
100
AcDbLine
 10
244.781391
 20
266.782842
 30
0.0
 11
244.80422
 21
266.685017
 31
0.0
  0
LINE
  5
240
330
1E
100
AcDbEntity
  8
CONTINUOUS1
100
AcDbLine
 10
244.80422
 20
266.685017
 30
0.0
 11
244.8290459999999
 21
266.589388
 31
0.0
  0
LINE
  5
241
330
1E
100
AcDbEntity
  8
CONTINUOUS1
100
AcDbLine
 10
244.8290459999999
 20
266.589388
 30
0.0
 11
244.8558229999999
 21
266.496139
 31
0.0
  0
LINE
  5
242
330
1E
100
AcDbEntity
  8
CONTINUOUS1
100
AcDbLine
 10
244.8558229999999
 20
266.496139
 30
0.0
 11
244.884499
 21
266.405447
 31
0.0
  0
LINE
  5
243
330
1E
100
AcDbEntity
  8
CONTINUOUS1
100
AcDbLine
 10
244.884499
 20
266.405447
 30
0.0
 11
244.91502
 21
266.317485
 31
0.0
  0
LINE
  5
244
330
1E
100
AcDbEntity
  8
CONTINUOUS1
100
AcDbLine
 10
244.91502
 20
266.317485
 30
0.0
 11
244.9473269999999
 21
266.232419
 31
0.0
  0
LINE
  5
245
330
1E
100
AcDbEntity
  8
CONTINUOUS1
100
AcDbLine
 10
244.9473269999999
 20
266.232419
 30
0.0
 11
244.98136
 21
266.150413
 31
0.0
  0
LINE
  5
246
330
1E
100
AcDbEntity
  8
CONTINUOUS1
100
AcDbLine
 10
244.98136
 20
266.150413
 30
0.0
 11
245.0170529999999
 21
266.0716209999999
 31
0.0
  0
LINE
  5
247
330
1E
100
AcDbEntity
  8
CONTINUOUS1
100
AcDbLine
 10
245.0170529999999
 20
266.0716209999999
 30
0.0
 11
245.054338
 21
265.996195
 31
0.0
  0
LINE
  5
248
330
1E
100
AcDbEntity
  8
CONTINUOUS1
100
AcDbLine
 10
245.054338
 20
265.996195
 30
0.0
 11
245.093145
 21
265.924277
 31
0.0
  0
LINE
  5
249
330
1E
100
AcDbEntity
  8
CONTINUOUS1
100
AcDbLine
 10
245.093145
 20
265.924277
 30
0.0
 11
245.133399
 21
265.8560049999999
 31
0.0
  0
LINE
  5
24A
330
1E
100
AcDbEntity
  8
CONTINUOUS1
100
AcDbLine
 10
245.133399
 20
265.8560049999999
 30
0.0
 11
245.175024
 21
265.791508
 31
0.0
  0
LINE
  5
24B
330
1E
100
AcDbEntity
  8
CONTINUOUS1
100
AcDbLine
 10
245.175024
 20
265.791508
 30
0.0
 11
245.217941
 21
265.7309099999999
 31
0.0
  0
LINE
  5
24C
330
1E
100
AcDbEntity
  8
CONTINUOUS1
100
AcDbLine
 10
245.217941
 20
265.7309099999999
 30
0.0
 11
245.2620669999999
 21
265.674325
 31
0.0
  0
LINE
  5
24D
330
1E
100
AcDbEntity
  8
CONTINUOUS1
100
AcDbLine
 10
245.2620669999999
 20
265.674325
 30
0.0
 11
245.30732
 21
265.6218609999999
 31
0.0
  0
LINE
  5
24E
330
1E
100
AcDbEntity
  8
CONTINUOUS1
100
AcDbLine
 10
245.30732
 20
265.6218609999999
 30
0.0
 11
245.3536129999999
 21
265.573619
 31
0.0
  0
LINE
  5
24F
330
1E
100
AcDbEntity
  8
CONTINUOUS1
100
AcDbLine
 10
245.3536129999999
 20
265.573619
 30
0.0
 11
245.4008569999999
 21
265.529689
 31
0.0
  0
LINE
  5
250
330
1E
100
AcDbEntity
  8
CONTINUOUS1
100
AcDbLine
 10
245.4008569999999
 20
265.529689
 30
0.0
 11
245.4489629999999
 21
265.490157
 31
0.0
  0
LINE
  5
251
330
1E
100
AcDbEntity
  8
CONTINUOUS1
100
AcDbLine
 10
245.4489629999999
 20
265.490157
 30
0.0
 11
245.4978399999999
 21
265.4550959999999
 31
0.0
  0
LINE
  5
252
330
1E
100
AcDbEntity
  8
CONTINUOUS1
100
AcDbLine
 10
245.4978399999999
 20
265.4550959999999
 30
0.0
 11
245.547393
 21
265.4245739999999
 31
0.0
  0
LINE
  5
253
330
1E
100
AcDbEntity
  8
CONTINUOUS1
100
AcDbLine
 10
245.547393
 20
265.4245739999999
 30
0.0
 11
245.597529
 21
265.3986479999999
 31
0.0
  0
LINE
  5
254
330
1E
100
AcDbEntity
  8
CONTINUOUS1
100
AcDbLine
 10
245.597529
 20
265.3986479999999
 30
0.0
 11
245.648153
 21
265.3773689999999
 31
0.0
  0
LINE
  5
255
330
1E
100
AcDbEntity
  8
CONTINUOUS1
100
AcDbLine
 10
245.648153
 20
265.3773689999999
 30
0.0
 11
245.699168
 21
265.3607759999999
 31
0.0
  0
LINE
  5
256
330
1E
100
AcDbEntity
  8
CONTINUOUS1
100
AcDbLine
 10
245.699168
 20
265.3607759999999
 30
0.0
 11
245.7504769999999
 21
265.3489009999999
 31
0.0
  0
LINE
  5
257
330
1E
100
AcDbEntity
  8
CONTINUOUS1
100
AcDbLine
 10
245.7504769999999
 20
265.3489009999999
 30
0.0
 11
245.801982
 21
265.341768
 31
0.0
  0
LINE
  5
258
330
1E
100
AcDbEntity
  8
CONTINUOUS1
100
AcDbLine
 10
245.801982
 20
265.341768
 30
0.0
 11
245.853585
 21
265.3393879999999
 31
0.0
  0
LINE
  5
259
330
1E
100
AcDbEntity
  8
CONTINUOUS1
100
AcDbLine
 10
245.853585
 20
265.3393879999999
 30
0.0
 11
245.905189
 21
265.341768
 31
0.0
  0
LINE
  5
25A
330
1E
100
AcDbEntity
  8
CONTINUOUS1
100
AcDbLine
 10
245.905189
 20
265.341768
 30
0.0
 11
245.956694
 21
265.3489009999999
 31
0.0
  0
LINE
  5
25B
330
1E
100
AcDbEntity
  8
CONTINUOUS1
100
AcDbLine
 10
245.956694
 20
265.3489009999999
 30
0.0
 11
246.0080019999999
 21
265.3607759999999
 31
0.0
  0
LINE
  5
25C
330
1E
100
AcDbEntity
  8
CONTINUOUS1
100
AcDbLine
 10
246.0080019999999
 20
265.3607759999999
 30
0.0
 11
246.0590169999999
 21
265.3773689999999
 31
0.0
  0
LINE
  5
25D
330
1E
100
AcDbEntity
  8
CONTINUOUS1
100
AcDbLine
 10
246.0590169999999
 20
265.3773689999999
 30
0.0
 11
246.109641
 21
265.3986479999999
 31
0.0
  0
LINE
  5
25E
330
1E
100
AcDbEntity
  8
CONTINUOUS1
100
AcDbLine
 10
246.109641
 20
265.3986479999999
 30
0.0
 11
246.159777
 21
265.4245739999999
 31
0.0
  0
LINE
  5
25F
330
1E
100
AcDbEntity
  8
CONTINUOUS1
100
AcDbLine
 10
246.159777
 20
265.4245739999999
 30
0.0
 11
246.2093309999999
 21
265.4550959999999
 31
0.0
  0
LINE
  5
260
330
1E
100
AcDbEntity
  8
CONTINUOUS1
100
AcDbLine
 10
246.2093309999999
 20
265.4550959999999
 30
0.0
 11
246.2582069999999
 21
265.490157
 31
0.0
  0
LINE
  5
261
330
1E
100
AcDbEntity
  8
CONTINUOUS1
100
AcDbLine
 10
246.2582069999999
 20
265.490157
 30
0.0
 11
246.306313
 21
265.529689
 31
0.0
  0
LINE
  5
262
330
1E
100
AcDbEntity
  8
CONTINUOUS1
100
AcDbLine
 10
246.306313
 20
265.529689
 30
0.0
 11
246.353558
 21
265.573619
 31
0.0
  0
LINE
  5
263
330
1E
100
AcDbEntity
  8
CONTINUOUS1
100
AcDbLine
 10
246.353558
 20
265.573619
 30
0.0
 11
246.3998499999999
 21
265.6218609999999
 31
0.0
  0
LINE
  5
264
330
1E
100
AcDbEntity
  8
CONTINUOUS1
100
AcDbLine
 10
246.3998499999999
 20
265.6218609999999
 30
0.0
 11
246.4451029999999
 21
265.674325
 31
0.0
  0
LINE
  5
265
330
1E
100
AcDbEntity
  8
CONTINUOUS1
100
AcDbLine
 10
246.4451029999999
 20
265.674325
 30
0.0
 11
246.4892299999999
 21
265.7309099999999
 31
0.0
  0
LINE
  5
266
330
1E
100
AcDbEntity
  8
CONTINUOUS1
100
AcDbLine
 10
246.4892299999999
 20
265.7309099999999
 30
0.0
 11
246.532147
 21
265.791508
 31
0.0
  0
LINE
  5
267
330
1E
100
AcDbEntity
  8
CONTINUOUS1
100
AcDbLine
 10
246.532147
 20
265.791508
 30
0.0
 11
246.573772
 21
265.8560049999999
 31
0.0
  0
LINE
  5
268
330
1E
100
AcDbEntity
  8
CONTINUOUS1
100
AcDbLine
 10
246.573772
 20
265.8560049999999
 30
0.0
 11
246.6140259999999
 21
265.924277
 31
0.0
  0
LINE
  5
269
330
1E
100
AcDbEntity
  8
CONTINUOUS1
100
AcDbLine
 10
246.6140259999999
 20
265.924277
 30
0.0
 11
246.652833
 21
265.996195
 31
0.0
  0
LINE
  5
26A
330
1E
100
AcDbEntity
  8
CONTINUOUS1
100
AcDbLine
 10
246.652833
 20
265.996195
 30
0.0
 11
246.690118
 21
266.0716209999999
 31
0.0
  0
LINE
  5
26B
330
1E
100
AcDbEntity
  8
CONTINUOUS1
100
AcDbLine
 10
246.690118
 20
266.0716209999999
 30
0.0
 11
246.7258109999999
 21
266.150413
 31
0.0
  0
LINE
  5
26C
330
1E
100
AcDbEntity
  8
CONTINUOUS1
100
AcDbLine
 10
246.7258109999999
 20
266.150413
 30
0.0
 11
246.759843
 21
266.232419
 31
0.0
  0
LINE
  5
26D
330
1E
100
AcDbEntity
  8
CONTINUOUS1
100
AcDbLine
 10
246.759843
 20
266.232419
 30
0.0
 11
246.792151
 21
266.317485
 31
0.0
  0
LINE
  5
26E
330
1E
100
AcDbEntity
  8
CONTINUOUS1
100
AcDbLine
 10
246.792151
 20
266.317485
 30
0.0
 11
246.8226709999999
 21
266.405447
 31
0.0
  0
LINE
  5
26F
330
1E
100
AcDbEntity
  8
CONTINUOUS1
100
AcDbLine
 10
246.8226709999999
 20
266.405447
 30
0.0
 11
246.851347
 21
266.496139
 31
0.0
  0
LINE
  5
270
330
1E
100
AcDbEntity
  8
CONTINUOUS1
100
AcDbLine
 10
246.851347
 20
266.496139
 30
0.0
 11
246.878124
 21
266.589388
 31
0.0
  0
LINE
  5
271
330
1E
100
AcDbEntity
  8
CONTINUOUS1
100
AcDbLine
 10
246.878124
 20
266.589388
 30
0.0
 11
246.9029509999999
 21
266.685017
 31
0.0
  0
LINE
  5
272
330
1E
100
AcDbEntity
  8
CONTINUOUS1
100
AcDbLine
 10
246.9029509999999
 20
266.685017
 30
0.0
 11
246.9257799999999
 21
266.782842
 31
0.0
  0
LINE
  5
273
330
1E
100
AcDbEntity
  8
CONTINUOUS1
100
AcDbLine
 10
246.9257799999999
 20
266.782842
 30
0.0
 11
246.946568
 21
266.88268
 31
0.0
  0
LINE
  5
274
330
1E
100
AcDbEntity
  8
CONTINUOUS1
100
AcDbLine
 10
246.946568
 20
266.88268
 30
0.0
 11
246.9652749999999
 21
266.9843379999999
 31
0.0
  0
LINE
  5
275
330
1E
100
AcDbEntity
  8
CONTINUOUS1
100
AcDbLine
 10
246.9652749999999
 20
266.9843379999999
 30
0.0
 11
246.981866
 21
267.087624
 31
0.0
  0
LINE
  5
276
330
1E
100
AcDbEntity
  8
CONTINUOUS1
100
AcDbLine
 10
246.981866
 20
267.087624
 30
0.0
 11
246.99631
 21
267.192341
 31
0.0
  0
LINE
  5
277
330
1E
100
AcDbEntity
  8
CONTINUOUS1
100
AcDbLine
 10
246.99631
 20
267.192341
 30
0.0
 11
247.0085779999999
 21
267.298289
 31
0.0
  0
LINE
  5
278
330
1E
100
AcDbEntity
  8
CONTINUOUS1
100
AcDbLine
 10
247.0085779999999
 20
267.298289
 30
0.0
 11
247.0186479999999
 21
267.405268
 31
0.0
  0
LINE
  5
279
330
1E
100
AcDbEntity
  8
CONTINUOUS1
100
AcDbLine
 10
247.0186479999999
 20
267.405268
 30
0.0
 11
247.0264999999999
 21
267.513073
 31
0.0
  0
LINE
  5
27A
330
1E
100
AcDbEntity
  8
CONTINUOUS1
100
AcDbLine
 10
247.0264999999999
 20
267.513073
 30
0.0
 11
247.0321189999999
 21
267.621499
 31
0.0
  0
LINE
  5
27B
330
1E
100
AcDbEntity
  8
CONTINUOUS1
100
AcDbLine
 10
247.0321189999999
 20
267.621499
 30
0.0
 11
247.035495
 21
267.7303399999999
 31
0.0
  0
LINE
  5
27C
330
1E
100
AcDbEntity
  8
CONTINUOUS1
100
AcDbLine
 10
247.035495
 20
267.7303399999999
 30
0.0
 11
247.0366209999999
 21
267.8393879999999
 31
0.0
  0
LINE
  5
27D
330
1E
100
AcDbEntity
  8
CONTINUOUS1
100
AcDbLine
 10
248.944811
 20
267.8393879999999
 30
0.0
 11
248.9455809999999
 21
267.7303399999999
 31
0.0
  0
LINE
  5
27E
330
1E
100
AcDbEntity
  8
CONTINUOUS1
100
AcDbLine
 10
248.9455809999999
 20
267.7303399999999
 30
0.0
 11
248.9478899999999
 21
267.621499
 31
0.0
  0
LINE
  5
27F
330
1E
100
AcDbEntity
  8
CONTINUOUS1
100
AcDbLine
 10
248.9478899999999
 20
267.621499
 30
0.0
 11
248.9517339999999
 21
267.513073
 31
0.0
  0
LINE
  5
280
330
1E
100
AcDbEntity
  8
CONTINUOUS1
100
AcDbLine
 10
248.9517339999999
 20
267.513073
 30
0.0
 11
248.9571049999999
 21
267.405268
 31
0.0
  0
LINE
  5
281
330
1E
100
AcDbEntity
  8
CONTINUOUS1
100
AcDbLine
 10
248.9571049999999
 20
267.405268
 30
0.0
 11
248.963993
 21
267.298289
 31
0.0
  0
LINE
  5
282
330
1E
100
AcDbEntity
  8
CONTINUOUS1
100
AcDbLine
 10
248.963993
 20
267.298289
 30
0.0
 11
248.972385
 21
267.192341
 31
0.0
  0
LINE
  5
283
330
1E
100
AcDbEntity
  8
CONTINUOUS1
100
AcDbLine
 10
248.972385
 20
267.192341
 30
0.0
 11
248.9822649999999
 21
267.087624
 31
0.0
  0
LINE
  5
284
330
1E
100
AcDbEntity
  8
CONTINUOUS1
100
AcDbLine
 10
248.9822649999999
 20
267.087624
 30
0.0
 11
248.993614
 21
266.9843379999999
 31
0.0
  0
LINE
  5
285
330
1E
100
AcDbEntity
  8
CONTINUOUS1
100
AcDbLine
 10
248.993614
 20
266.9843379999999
 30
0.0
 11
249.006411
 21
266.88268
 31
0.0
  0
LINE
  5
286
330
1E
100
AcDbEntity
  8
CONTINUOUS1
100
AcDbLine
 10
249.006411
 20
266.88268
 30
0.0
 11
249.020631
 21
266.782842
 31
0.0
  0
LINE
  5
287
330
1E
100
AcDbEntity
  8
CONTINUOUS1
100
AcDbLine
 10
249.020631
 20
266.782842
 30
0.0
 11
249.036247
 21
266.685017
 31
0.0
  0
LINE
  5
288
330
1E
100
AcDbEntity
  8
CONTINUOUS1
100
AcDbLine
 10
249.036247
 20
266.685017
 30
0.0
 11
249.053229
 21
266.589388
 31
0.0
  0
LINE
  5
289
330
1E
100
AcDbEntity
  8
CONTINUOUS1
100
AcDbLine
 10
249.053229
 20
266.589388
 30
0.0
 11
249.071546
 21
266.496139
 31
0.0
  0
LINE
  5
28A
330
1E
100
AcDbEntity
  8
CONTINUOUS1
100
AcDbLine
 10
249.071546
 20
266.496139
 30
0.0
 11
249.0911609999999
 21
266.405447
 31
0.0
  0
LINE
  5
28B
330
1E
100
AcDbEntity
  8
CONTINUOUS1
100
AcDbLine
 10
249.0911609999999
 20
266.405447
 30
0.0
 11
249.112039
 21
266.317485
 31
0.0
  0
LINE
  5
28C
330
1E
100
AcDbEntity
  8
CONTINUOUS1
100
AcDbLine
 10
249.112039
 20
266.317485
 30
0.0
 11
249.1341379999999
 21
266.232419
 31
0.0
  0
LINE
  5
28D
330
1E
100
AcDbEntity
  8
CONTINUOUS1
100
AcDbLine
 10
249.1341379999999
 20
266.232419
 30
0.0
 11
249.157418
 21
266.150413
 31
0.0
  0
LINE
  5
28E
330
1E
100
AcDbEntity
  8
CONTINUOUS1
100
AcDbLine
 10
249.157418
 20
266.150413
 30
0.0
 11
249.181833
 21
266.0716209999999
 31
0.0
  0
LINE
  5
28F
330
1E
100
AcDbEntity
  8
CONTINUOUS1
100
AcDbLine
 10
249.181833
 20
266.0716209999999
 30
0.0
 11
249.2073379999999
 21
265.996195
 31
0.0
  0
LINE
  5
290
330
1E
100
AcDbEntity
  8
CONTINUOUS1
100
AcDbLine
 10
249.2073379999999
 20
265.996195
 30
0.0
 11
249.233883
 21
265.924277
 31
0.0
  0
LINE
  5
291
330
1E
100
AcDbEntity
  8
CONTINUOUS1
100
AcDbLine
 10
249.233883
 20
265.924277
 30
0.0
 11
249.2614189999999
 21
265.8560049999999
 31
0.0
  0
LINE
  5
292
330
1E
100
AcDbEntity
  8
CONTINUOUS1
100
AcDbLine
 10
249.2614189999999
 20
265.8560049999999
 30
0.0
 11
249.289892
 21
265.791508
 31
0.0
  0
LINE
  5
293
330
1E
100
AcDbEntity
  8
CONTINUOUS1
100
AcDbLine
 10
249.289892
 20
265.791508
 30
0.0
 11
249.319249
 21
265.7309099999999
 31
0.0
  0
LINE
  5
294
330
1E
100
AcDbEntity
  8
CONTINUOUS1
100
AcDbLine
 10
249.319249
 20
265.7309099999999
 30
0.0
 11
249.349433
 21
265.674325
 31
0.0
  0
LINE
  5
295
330
1E
100
AcDbEntity
  8
CONTINUOUS1
100
AcDbLine
 10
249.349433
 20
265.674325
 30
0.0
 11
249.3803879999999
 21
265.6218609999999
 31
0.0
  0
LINE
  5
296
330
1E
100
AcDbEntity
  8
CONTINUOUS1
100
AcDbLine
 10
249.3803879999999
 20
265.6218609999999
 30
0.0
 11
249.412054
 21
265.573619
 31
0.0
  0
LINE
  5
297
330
1E
100
AcDbEntity
  8
CONTINUOUS1
100
AcDbLine
 10
249.412054
 20
265.573619
 30
0.0
 11
249.444371
 21
265.529689
 31
0.0
  0
LINE
  5
298
330
1E
100
AcDbEntity
  8
CONTINUOUS1
100
AcDbLine
 10
249.444371
 20
265.529689
 30
0.0
 11
249.477277
 21
265.490157
 31
0.0
  0
LINE
  5
299
330
1E
100
AcDbEntity
  8
CONTINUOUS1
100
AcDbLine
 10
249.477277
 20
265.490157
 30
0.0
 11
249.5107109999999
 21
265.4550959999999
 31
0.0
  0
LINE
  5
29A
330
1E
100
AcDbEntity
  8
CONTINUOUS1
100
AcDbLine
 10
249.5107109999999
 20
265.4550959999999
 30
0.0
 11
249.5446069999999
 21
265.4245739999999
 31
0.0
  0
LINE
  5
29B
330
1E
100
AcDbEntity
  8
CONTINUOUS1
100
AcDbLine
 10
249.5446069999999
 20
265.4245739999999
 30
0.0
 11
249.5789029999999
 21
265.3986479999999
 31
0.0
  0
LINE
  5
29C
330
1E
100
AcDbEntity
  8
CONTINUOUS1
100
AcDbLine
 10
249.5789029999999
 20
265.3986479999999
 30
0.0
 11
249.613531
 21
265.3773689999999
 31
0.0
  0
LINE
  5
29D
330
1E
100
AcDbEntity
  8
CONTINUOUS1
100
AcDbLine
 10
249.613531
 20
265.3773689999999
 30
0.0
 11
249.6484279999999
 21
265.3607759999999
 31
0.0
  0
LINE
  5
29E
330
1E
100
AcDbEntity
  8
CONTINUOUS1
100
AcDbLine
 10
249.6484279999999
 20
265.3607759999999
 30
0.0
 11
249.683525
 21
265.3489009999999
 31
0.0
  0
LINE
  5
29F
330
1E
100
AcDbEntity
  8
CONTINUOUS1
100
AcDbLine
 10
249.683525
 20
265.3489009999999
 30
0.0
 11
249.7187559999999
 21
265.341768
 31
0.0
  0
LINE
  5
2A0
330
1E
100
AcDbEntity
  8
CONTINUOUS1
100
AcDbLine
 10
249.7187559999999
 20
265.341768
 30
0.0
 11
249.754055
 21
265.3393879999999
 31
0.0
  0
LINE
  5
2A1
330
1E
100
AcDbEntity
  8
CONTINUOUS1
100
AcDbLine
 10
249.754055
 20
265.3393879999999
 30
0.0
 11
249.789354
 21
265.341768
 31
0.0
  0
LINE
  5
2A2
330
1E
100
AcDbEntity
  8
CONTINUOUS1
100
AcDbLine
 10
249.789354
 20
265.341768
 30
0.0
 11
249.8245849999999
 21
265.3489009999999
 31
0.0
  0
LINE
  5
2A3
330
1E
100
AcDbEntity
  8
CONTINUOUS1
100
AcDbLine
 10
249.8245849999999
 20
265.3489009999999
 30
0.0
 11
249.859683
 21
265.3607759999999
 31
0.0
  0
LINE
  5
2A4
330
1E
100
AcDbEntity
  8
CONTINUOUS1
100
AcDbLine
 10
249.859683
 20
265.3607759999999
 30
0.0
 11
249.894579
 21
265.3773689999999
 31
0.0
  0
LINE
  5
2A5
330
1E
100
AcDbEntity
  8
CONTINUOUS1
100
AcDbLine
 10
249.894579
 20
265.3773689999999
 30
0.0
 11
249.929208
 21
265.3986479999999
 31
0.0
  0
LINE
  5
2A6
330
1E
100
AcDbEntity
  8
CONTINUOUS1
100
AcDbLine
 10
249.929208
 20
265.3986479999999
 30
0.0
 11
249.9635029999999
 21
265.4245739999999
 31
0.0
  0
LINE
  5
2A7
330
1E
100
AcDbEntity
  8
CONTINUOUS1
100
AcDbLine
 10
249.9635029999999
 20
265.4245739999999
 30
0.0
 11
249.9973999999999
 21
265.4550959999999
 31
0.0
  0
LINE
  5
2A8
330
1E
100
AcDbEntity
  8
CONTINUOUS1
100
AcDbLine
 10
249.9973999999999
 20
265.4550959999999
 30
0.0
 11
250.030833
 21
265.490157
 31
0.0
  0
LINE
  5
2A9
330
1E
100
AcDbEntity
  8
CONTINUOUS1
100
AcDbLine
 10
250.030833
 20
265.490157
 30
0.0
 11
250.063739
 21
265.529689
 31
0.0
  0
LINE
  5
2AA
330
1E
100
AcDbEntity
  8
CONTINUOUS1
100
AcDbLine
 10
250.063739
 20
265.529689
 30
0.0
 11
250.096056
 21
265.573619
 31
0.0
  0
LINE
  5
2AB
330
1E
100
AcDbEntity
  8
CONTINUOUS1
100
AcDbLine
 10
250.096056
 20
265.573619
 30
0.0
 11
250.127722
 21
265.6218609999999
 31
0.0
  0
LINE
  5
2AC
330
1E
100
AcDbEntity
  8
CONTINUOUS1
100
AcDbLine
 10
250.127722
 20
265.6218609999999
 30
0.0
 11
250.158677
 21
265.674325
 31
0.0
  0
LINE
  5
2AD
330
1E
100
AcDbEntity
  8
CONTINUOUS1
100
AcDbLine
 10
250.158677
 20
265.674325
 30
0.0
 11
250.1888619999999
 21
265.7309099999999
 31
0.0
  0
LINE
  5
2AE
330
1E
100
AcDbEntity
  8
CONTINUOUS1
100
AcDbLine
 10
250.1888619999999
 20
265.7309099999999
 30
0.0
 11
250.218218
 21
265.791508
 31
0.0
  0
LINE
  5
2AF
330
1E
100
AcDbEntity
  8
CONTINUOUS1
100
AcDbLine
 10
250.218218
 20
265.791508
 30
0.0
 11
250.2466919999999
 21
265.8560049999999
 31
0.0
  0
LINE
  5
2B0
330
1E
100
AcDbEntity
  8
CONTINUOUS1
100
AcDbLine
 10
250.2466919999999
 20
265.8560049999999
 30
0.0
 11
250.274227
 21
265.924277
 31
0.0
  0
LINE
  5
2B1
330
1E
100
AcDbEntity
  8
CONTINUOUS1
100
AcDbLine
 10
250.274227
 20
265.924277
 30
0.0
 11
250.3007729999999
 21
265.996195
 31
0.0
  0
LINE
  5
2B2
330
1E
100
AcDbEntity
  8
CONTINUOUS1
100
AcDbLine
 10
250.3007729999999
 20
265.996195
 30
0.0
 11
250.326277
 21
266.0716209999999
 31
0.0
  0
LINE
  5
2B3
330
1E
100
AcDbEntity
  8
CONTINUOUS1
100
AcDbLine
 10
250.326277
 20
266.0716209999999
 30
0.0
 11
250.3506919999999
 21
266.150413
 31
0.0
  0
LINE
  5
2B4
330
1E
100
AcDbEntity
  8
CONTINUOUS1
100
AcDbLine
 10
250.3506919999999
 20
266.150413
 30
0.0
 11
250.373972
 21
266.232419
 31
0.0
  0
LINE
  5
2B5
330
1E
100
AcDbEntity
  8
CONTINUOUS1
100
AcDbLine
 10
250.373972
 20
266.232419
 30
0.0
 11
250.396072
 21
266.317485
 31
0.0
  0
LINE
  5
2B6
330
1E
100
AcDbEntity
  8
CONTINUOUS1
100
AcDbLine
 10
250.396072
 20
266.317485
 30
0.0
 11
250.416949
 21
266.405447
 31
0.0
  0
LINE
  5
2B7
330
1E
100
AcDbEntity
  8
CONTINUOUS1
100
AcDbLine
 10
250.416949
 20
266.405447
 30
0.0
 11
250.4365649999999
 21
266.496139
 31
0.0
  0
LINE
  5
2B8
330
1E
100
AcDbEntity
  8
CONTINUOUS1
100
AcDbLine
 10
250.4365649999999
 20
266.496139
 30
0.0
 11
250.454881
 21
266.589388
 31
0.0
  0
LINE
  5
2B9
330
1E
100
AcDbEntity
  8
CONTINUOUS1
100
AcDbLine
 10
250.454881
 20
266.589388
 30
0.0
 11
250.4718629999999
 21
266.685017
 31
0.0
  0
LINE
  5
2BA
330
1E
100
AcDbEntity
  8
CONTINUOUS1
100
AcDbLine
 10
250.4718629999999
 20
266.685017
 30
0.0
 11
250.487479
 21
266.782842
 31
0.0
  0
LINE
  5
2BB
330
1E
100
AcDbEntity
  8
CONTINUOUS1
100
AcDbLine
 10
250.487479
 20
266.782842
 30
0.0
 11
250.501699
 21
266.88268
 31
0.0
  0
LINE
  5
2BC
330
1E
100
AcDbEntity
  8
CONTINUOUS1
100
AcDbLine
 10
250.501699
 20
266.88268
 30
0.0
 11
250.5144959999999
 21
266.9843379999999
 31
0.0
  0
LINE
  5
2BD
330
1E
100
AcDbEntity
  8
CONTINUOUS1
100
AcDbLine
 10
250.5144959999999
 20
266.9843379999999
 30
0.0
 11
250.525845
 21
267.087624
 31
0.0
  0
LINE
  5
2BE
330
1E
100
AcDbEntity
  8
CONTINUOUS1
100
AcDbLine
 10
250.525845
 20
267.087624
 30
0.0
 11
250.535725
 21
267.192341
 31
0.0
  0
LINE
  5
2BF
330
1E
100
AcDbEntity
  8
CONTINUOUS1
100
AcDbLine
 10
250.535725
 20
267.192341
 30
0.0
 11
250.544117
 21
267.298289
 31
0.0
  0
LINE
  5
2C0
330
1E
100
AcDbEntity
  8
CONTINUOUS1
100
AcDbLine
 10
250.544117
 20
267.298289
 30
0.0
 11
250.5510049999999
 21
267.405268
 31
0.0
  0
LINE
  5
2C1
330
1E
100
AcDbEntity
  8
CONTINUOUS1
100
AcDbLine
 10
250.5510049999999
 20
267.405268
 30
0.0
 11
250.5563759999999
 21
267.513073
 31
0.0
  0
LINE
  5
2C2
330
1E
100
AcDbEntity
  8
CONTINUOUS1
100
AcDbLine
 10
250.5563759999999
 20
267.513073
 30
0.0
 11
250.56022
 21
267.621499
 31
0.0
  0
LINE
  5
2C3
330
1E
100
AcDbEntity
  8
CONTINUOUS1
100
AcDbLine
 10
250.56022
 20
267.621499
 30
0.0
 11
250.562529
 21
267.7303399999999
 31
0.0
  0
LINE
  5
2C4
330
1E
100
AcDbEntity
  8
CONTINUOUS1
100
AcDbLine
 10
250.562529
 20
267.7303399999999
 30
0.0
 11
250.563299
 21
267.8393879999999
 31
0.0
  0
LINE
  5
2C5
330
1E
100
AcDbEntity
  8
CONTINUOUS1
100
AcDbLine
 10
251.7319089999999
 20
267.8393879999999
 30
0.0
 11
251.7323
 21
267.7303399999999
 31
0.0
  0
LINE
  5
2C6
330
1E
100
AcDbEntity
  8
CONTINUOUS1
100
AcDbLine
 10
251.7323
 20
267.7303399999999
 30
0.0
 11
251.7334729999999
 21
267.621499
 31
0.0
  0
LINE
  5
2C7
330
1E
100
AcDbEntity
  8
CONTINUOUS1
100
AcDbLine
 10
251.7334729999999
 20
267.621499
 30
0.0
 11
251.735424
 21
267.513073
 31
0.0
  0
LINE
  5
2C8
330
1E
100
AcDbEntity
  8
CONTINUOUS1
100
AcDbLine
 10
251.735424
 20
267.513073
 30
0.0
 11
251.7381509999999
 21
267.405268
 31
0.0
  0
LINE
  5
2C9
330
1E
100
AcDbEntity
  8
CONTINUOUS1
100
AcDbLine
 10
251.7381509999999
 20
267.405268
 30
0.0
 11
251.741648
 21
267.298289
 31
0.0
  0
LINE
  5
2CA
330
1E
100
AcDbEntity
  8
CONTINUOUS1
100
AcDbLine
 10
251.741648
 20
267.298289
 30
0.0
 11
251.745909
 21
267.192341
 31
0.0
  0
LINE
  5
2CB
330
1E
100
AcDbEntity
  8
CONTINUOUS1
100
AcDbLine
 10
251.745909
 20
267.192341
 30
0.0
 11
251.7509249999999
 21
267.087624
 31
0.0
  0
LINE
  5
2CC
330
1E
100
AcDbEntity
  8
CONTINUOUS1
100
AcDbLine
 10
251.7509249999999
 20
267.087624
 30
0.0
 11
251.756687
 21
266.9843379999999
 31
0.0
  0
LINE
  5
2CD
330
1E
100
AcDbEntity
  8
CONTINUOUS1
100
AcDbLine
 10
251.756687
 20
266.9843379999999
 30
0.0
 11
251.7631839999999
 21
266.88268
 31
0.0
  0
LINE
  5
2CE
330
1E
100
AcDbEntity
  8
CONTINUOUS1
100
AcDbLine
 10
251.7631839999999
 20
266.88268
 30
0.0
 11
251.770404
 21
266.782842
 31
0.0
  0
LINE
  5
2CF
330
1E
100
AcDbEntity
  8
CONTINUOUS1
100
AcDbLine
 10
251.770404
 20
266.782842
 30
0.0
 11
251.7783319999999
 21
266.685017
 31
0.0
  0
LINE
  5
2D0
330
1E
100
AcDbEntity
  8
CONTINUOUS1
100
AcDbLine
 10
251.7783319999999
 20
266.685017
 30
0.0
 11
251.7869549999999
 21
266.589388
 31
0.0
  0
LINE
  5
2D1
330
1E
100
AcDbEntity
  8
CONTINUOUS1
100
AcDbLine
 10
251.7869549999999
 20
266.589388
 30
0.0
 11
251.796254
 21
266.496139
 31
0.0
  0
LINE
  5
2D2
330
1E
100
AcDbEntity
  8
CONTINUOUS1
100
AcDbLine
 10
251.796254
 20
266.496139
 30
0.0
 11
251.806213
 21
266.405447
 31
0.0
  0
LINE
  5
2D3
330
1E
100
AcDbEntity
  8
CONTINUOUS1
100
AcDbLine
 10
251.806213
 20
266.405447
 30
0.0
 11
251.8168129999999
 21
266.317485
 31
0.0
  0
LINE
  5
2D4
330
1E
100
AcDbEntity
  8
CONTINUOUS1
100
AcDbLine
 10
251.8168129999999
 20
266.317485
 30
0.0
 11
251.828033
 21
266.232419
 31
0.0
  0
LINE
  5
2D5
330
1E
100
AcDbEntity
  8
CONTINUOUS1
100
AcDbLine
 10
251.828033
 20
266.232419
 30
0.0
 11
251.8398529999999
 21
266.150413
 31
0.0
  0
LINE
  5
2D6
330
1E
100
AcDbEntity
  8
CONTINUOUS1
100
AcDbLine
 10
251.8398529999999
 20
266.150413
 30
0.0
 11
251.852249
 21
266.0716209999999
 31
0.0
  0
LINE
  5
2D7
330
1E
100
AcDbEntity
  8
CONTINUOUS1
100
AcDbLine
 10
251.852249
 20
266.0716209999999
 30
0.0
 11
251.865198
 21
265.996195
 31
0.0
  0
LINE
  5
2D8
330
1E
100
AcDbEntity
  8
CONTINUOUS1
100
AcDbLine
 10
251.865198
 20
265.996195
 30
0.0
 11
251.8786749999999
 21
265.924277
 31
0.0
  0
LINE
  5
2D9
330
1E
100
AcDbEntity
  8
CONTINUOUS1
100
AcDbLine
 10
251.8786749999999
 20
265.924277
 30
0.0
 11
251.8926549999999
 21
265.8560049999999
 31
0.0
  0
LINE
  5
2DA
330
1E
100
AcDbEntity
  8
CONTINUOUS1
100
AcDbLine
 10
251.8926549999999
 20
265.8560049999999
 30
0.0
 11
251.907111
 21
265.791508
 31
0.0
  0
LINE
  5
2DB
330
1E
100
AcDbEntity
  8
CONTINUOUS1
100
AcDbLine
 10
251.907111
 20
265.791508
 30
0.0
 11
251.922016
 21
265.7309099999999
 31
0.0
  0
LINE
  5
2DC
330
1E
100
AcDbEntity
  8
CONTINUOUS1
100
AcDbLine
 10
251.922016
 20
265.7309099999999
 30
0.0
 11
251.937341
 21
265.674325
 31
0.0
  0
LINE
  5
2DD
330
1E
100
AcDbEntity
  8
CONTINUOUS1
100
AcDbLine
 10
251.937341
 20
265.674325
 30
0.0
 11
251.9530569999999
 21
265.6218609999999
 31
0.0
  0
LINE
  5
2DE
330
1E
100
AcDbEntity
  8
CONTINUOUS1
100
AcDbLine
 10
251.9530569999999
 20
265.6218609999999
 30
0.0
 11
251.969135
 21
265.573619
 31
0.0
  0
LINE
  5
2DF
330
1E
100
AcDbEntity
  8
CONTINUOUS1
100
AcDbLine
 10
251.969135
 20
265.573619
 30
0.0
 11
251.9855419999999
 21
265.529689
 31
0.0
  0
LINE
  5
2E0
330
1E
100
AcDbEntity
  8
CONTINUOUS1
100
AcDbLine
 10
251.9855419999999
 20
265.529689
 30
0.0
 11
252.002249
 21
265.490157
 31
0.0
  0
LINE
  5
2E1
330
1E
100
AcDbEntity
  8
CONTINUOUS1
100
AcDbLine
 10
252.002249
 20
265.490157
 30
0.0
 11
252.019224
 21
265.4550959999999
 31
0.0
  0
LINE
  5
2E2
330
1E
100
AcDbEntity
  8
CONTINUOUS1
100
AcDbLine
 10
252.019224
 20
265.4550959999999
 30
0.0
 11
252.0364339999999
 21
265.4245739999999
 31
0.0
  0
LINE
  5
2E3
330
1E
100
AcDbEntity
  8
CONTINUOUS1
100
AcDbLine
 10
252.0364339999999
 20
265.4245739999999
 30
0.0
 11
252.053846
 21
265.3986479999999
 31
0.0
  0
LINE
  5
2E4
330
1E
100
AcDbEntity
  8
CONTINUOUS1
100
AcDbLine
 10
252.053846
 20
265.3986479999999
 30
0.0
 11
252.071427
 21
265.3773689999999
 31
0.0
  0
LINE
  5
2E5
330
1E
100
AcDbEntity
  8
CONTINUOUS1
100
AcDbLine
 10
252.071427
 20
265.3773689999999
 30
0.0
 11
252.089145
 21
265.3607759999999
 31
0.0
  0
LINE
  5
2E6
330
1E
100
AcDbEntity
  8
CONTINUOUS1
100
AcDbLine
 10
252.089145
 20
265.3607759999999
 30
0.0
 11
252.1069639999999
 21
265.3489009999999
 31
0.0
  0
LINE
  5
2E7
330
1E
100
AcDbEntity
  8
CONTINUOUS1
100
AcDbLine
 10
252.1069639999999
 20
265.3489009999999
 30
0.0
 11
252.1248519999999
 21
265.341768
 31
0.0
  0
LINE
  5
2E8
330
1E
100
AcDbEntity
  8
CONTINUOUS1
100
AcDbLine
 10
252.1248519999999
 20
265.341768
 30
0.0
 11
252.142773
 21
265.3393879999999
 31
0.0
  0
LINE
  5
2E9
330
1E
100
AcDbEntity
  8
CONTINUOUS1
100
AcDbLine
 10
252.142773
 20
265.3393879999999
 30
0.0
 11
252.160695
 21
265.341768
 31
0.0
  0
LINE
  5
2EA
330
1E
100
AcDbEntity
  8
CONTINUOUS1
100
AcDbLine
 10
252.160695
 20
265.341768
 30
0.0
 11
252.1785819999999
 21
265.3489009999999
 31
0.0
  0
LINE
  5
2EB
330
1E
100
AcDbEntity
  8
CONTINUOUS1
100
AcDbLine
 10
252.1785819999999
 20
265.3489009999999
 30
0.0
 11
252.1964019999999
 21
265.3607759999999
 31
0.0
  0
LINE
  5
2EC
330
1E
100
AcDbEntity
  8
CONTINUOUS1
100
AcDbLine
 10
252.1964019999999
 20
265.3607759999999
 30
0.0
 11
252.2141189999999
 21
265.3773689999999
 31
0.0
  0
LINE
  5
2ED
330
1E
100
AcDbEntity
  8
CONTINUOUS1
100
AcDbLine
 10
252.2141189999999
 20
265.3773689999999
 30
0.0
 11
252.2317
 21
265.3986479999999
 31
0.0
  0
LINE
  5
2EE
330
1E
100
AcDbEntity
  8
CONTINUOUS1
100
AcDbLine
 10
252.2317
 20
265.3986479999999
 30
0.0
 11
252.249113
 21
265.4245739999999
 31
0.0
  0
LINE
  5
2EF
330
1E
100
AcDbEntity
  8
CONTINUOUS1
100
AcDbLine
 10
252.249113
 20
265.4245739999999
 30
0.0
 11
252.266322
 21
265.4550959999999
 31
0.0
  0
LINE
  5
2F0
330
1E
100
AcDbEntity
  8
CONTINUOUS1
100
AcDbLine
 10
252.266322
 20
265.4550959999999
 30
0.0
 11
252.283297
 21
265.490157
 31
0.0
  0
LINE
  5
2F1
330
1E
100
AcDbEntity
  8
CONTINUOUS1
100
AcDbLine
 10
252.283297
 20
265.490157
 30
0.0
 11
252.3000039999999
 21
265.529689
 31
0.0
  0
LINE
  5
2F2
330
1E
100
AcDbEntity
  8
CONTINUOUS1
100
AcDbLine
 10
252.3000039999999
 20
265.529689
 30
0.0
 11
252.316412
 21
265.573619
 31
0.0
  0
LINE
  5
2F3
330
1E
100
AcDbEntity
  8
CONTINUOUS1
100
AcDbLine
 10
252.316412
 20
265.573619
 30
0.0
 11
252.332489
 21
265.6218609999999
 31
0.0
  0
LINE
  5
2F4
330
1E
100
AcDbEntity
  8
CONTINUOUS1
100
AcDbLine
 10
252.332489
 20
265.6218609999999
 30
0.0
 11
252.3482049999999
 21
265.674325
 31
0.0
  0
LINE
  5
2F5
330
1E
100
AcDbEntity
  8
CONTINUOUS1
100
AcDbLine
 10
252.3482049999999
 20
265.674325
 30
0.0
 11
252.3635299999999
 21
265.7309099999999
 31
0.0
  0
LINE
  5
2F6
330
1E
100
AcDbEntity
  8
CONTINUOUS1
100
AcDbLine
 10
252.3635299999999
 20
265.7309099999999
 30
0.0
 11
252.378435
 21
265.791508
 31
0.0
  0
LINE
  5
2F7
330
1E
100
AcDbEntity
  8
CONTINUOUS1
100
AcDbLine
 10
252.378435
 20
265.791508
 30
0.0
 11
252.392891
 21
265.8560049999999
 31
0.0
  0
LINE
  5
2F8
330
1E
100
AcDbEntity
  8
CONTINUOUS1
100
AcDbLine
 10
252.392891
 20
265.8560049999999
 30
0.0
 11
252.406872
 21
265.924277
 31
0.0
  0
LINE
  5
2F9
330
1E
100
AcDbEntity
  8
CONTINUOUS1
100
AcDbLine
 10
252.406872
 20
265.924277
 30
0.0
 11
252.420349
 21
265.996195
 31
0.0
  0
LINE
  5
2FA
330
1E
100
AcDbEntity
  8
CONTINUOUS1
100
AcDbLine
 10
252.420349
 20
265.996195
 30
0.0
 11
252.433298
 21
266.0716209999999
 31
0.0
  0
LINE
  5
2FB
330
1E
100
AcDbEntity
  8
CONTINUOUS1
100
AcDbLine
 10
252.433298
 20
266.0716209999999
 30
0.0
 11
252.4456939999999
 21
266.150413
 31
0.0
  0
LINE
  5
2FC
330
1E
100
AcDbEntity
  8
CONTINUOUS1
100
AcDbLine
 10
252.4456939999999
 20
266.150413
 30
0.0
 11
252.4575129999999
 21
266.232419
 31
0.0
  0
LINE
  5
2FD
330
1E
100
AcDbEntity
  8
CONTINUOUS1
100
AcDbLine
 10
252.4575129999999
 20
266.232419
 30
0.0
 11
252.4687339999999
 21
266.317485
 31
0.0
  0
LINE
  5
2FE
330
1E
100
AcDbEntity
  8
CONTINUOUS1
100
AcDbLine
 10
252.4687339999999
 20
266.317485
 30
0.0
 11
252.479333
 21
266.405447
 31
0.0
  0
LINE
  5
2FF
330
1E
100
AcDbEntity
  8
CONTINUOUS1
100
AcDbLine
 10
252.479333
 20
266.405447
 30
0.0
 11
252.489292
 21
266.496139
 31
0.0
  0
LINE
  5
300
330
1E
100
AcDbEntity
  8
CONTINUOUS1
100
AcDbLine
 10
252.489292
 20
266.496139
 30
0.0
 11
252.498592
 21
266.589388
 31
0.0
  0
LINE
  5
301
330
1E
100
AcDbEntity
  8
CONTINUOUS1
100
AcDbLine
 10
252.498592
 20
266.589388
 30
0.0
 11
252.507214
 21
266.685017
 31
0.0
  0
LINE
  5
302
330
1E
100
AcDbEntity
  8
CONTINUOUS1
100
AcDbLine
 10
252.507214
 20
266.685017
 30
0.0
 11
252.5151419999999
 21
266.782842
 31
0.0
  0
LINE
  5
303
330
1E
100
AcDbEntity
  8
CONTINUOUS1
100
AcDbLine
 10
252.5151419999999
 20
266.782842
 30
0.0
 11
252.522362
 21
266.88268
 31
0.0
  0
LINE
  5
304
330
1E
100
AcDbEntity
  8
CONTINUOUS1
100
AcDbLine
 10
252.522362
 20
266.88268
 30
0.0
 11
252.5288589999999
 21
266.9843379999999
 31
0.0
  0
LINE
  5
305
330
1E
100
AcDbEntity
  8
CONTINUOUS1
100
AcDbLine
 10
252.5288589999999
 20
266.9843379999999
 30
0.0
 11
252.5346209999999
 21
267.087624
 31
0.0
  0
LINE
  5
306
330
1E
100
AcDbEntity
  8
CONTINUOUS1
100
AcDbLine
 10
252.5346209999999
 20
267.087624
 30
0.0
 11
252.539637
 21
267.192341
 31
0.0
  0
LINE
  5
307
330
1E
100
AcDbEntity
  8
CONTINUOUS1
100
AcDbLine
 10
252.539637
 20
267.192341
 30
0.0
 11
252.543898
 21
267.298289
 31
0.0
  0
LINE
  5
308
330
1E
100
AcDbEntity
  8
CONTINUOUS1
100
AcDbLine
 10
252.543898
 20
267.298289
 30
0.0
 11
252.547395
 21
267.405268
 31
0.0
  0
LINE
  5
309
330
1E
100
AcDbEntity
  8
CONTINUOUS1
100
AcDbLine
 10
252.547395
 20
267.405268
 30
0.0
 11
252.550122
 21
267.513073
 31
0.0
  0
LINE
  5
30A
330
1E
100
AcDbEntity
  8
CONTINUOUS1
100
AcDbLine
 10
252.550122
 20
267.513073
 30
0.0
 11
252.552074
 21
267.621499
 31
0.0
  0
LINE
  5
30B
330
1E
100
AcDbEntity
  8
CONTINUOUS1
100
AcDbLine
 10
252.552074
 20
267.621499
 30
0.0
 11
252.5532459999999
 21
267.7303399999999
 31
0.0
  0
LINE
  5
30C
330
1E
100
AcDbEntity
  8
CONTINUOUS1
100
AcDbLine
 10
252.5532459999999
 20
267.7303399999999
 30
0.0
 11
252.553637
 21
267.8393879999999
 31
0.0
  0
LINE
  5
30D
330
1E
100
AcDbEntity
  8
CONTINUOUS1
100
AcDbLine
 10
193.1359479999999
 20
267.8393879999999
 30
0.0
 11
193.1359479999999
 21
277.8393879999999
 31
0.0
  0
LINE
  5
30E
330
1E
100
AcDbEntity
  8
CONTINUOUS1
100
AcDbLine
 10
188.4756969999999
 20
267.8393879999999
 30
0.0
 11
188.4756969999999
 21
277.8393879999999
 31
0.0
  0
LINE
  5
30F
330
1E
100
AcDbEntity
  8
CONTINUOUS1
100
AcDbLine
 10
184.1143849999999
 20
267.8393879999999
 30
0.0
 11
184.1143849999999
 21
277.8393879999999
 31
0.0
  0
LINE
  5
310
330
1E
100
AcDbEntity
  8
CONTINUOUS1
100
AcDbLine
 10
179.6676249999999
 20
267.8393879999999
 30
0.0
 11
179.6676249999999
 21
277.8393879999999
 31
0.0
  0
LINE
  5
311
330
1E
100
AcDbEntity
  8
CONTINUOUS1
100
AcDbLine
 10
175.575498
 20
267.8393879999999
 30
0.0
 11
175.575498
 21
277.8393879999999
 31
0.0
  0
LINE
  5
312
330
1E
100
AcDbEntity
  8
CONTINUOUS1
100
AcDbLine
 10
171.477342
 20
267.8393879999999
 30
0.0
 11
171.477342
 21
277.8393879999999
 31
0.0
  0
LINE
  5
313
330
1E
100
AcDbEntity
  8
CONTINUOUS1
100
AcDbLine
 10
167.7787379999999
 20
267.8393879999999
 30
0.0
 11
167.7787379999999
 21
277.8393879999999
 31
0.0
  0
LINE
  5
314
330
1E
100
AcDbEntity
  8
CONTINUOUS1
100
AcDbLine
 10
164.153706
 20
267.8393879999999
 30
0.0
 11
164.153706
 21
277.8393879999999
 31
0.0
  0
LINE
  5
315
330
1E
100
AcDbEntity
  8
CONTINUOUS1
100
AcDbLine
 10
160.9610039999999
 20
267.8393879999999
 30
0.0
 11
160.9610039999999
 21
277.8393879999999
 31
0.0
  0
LINE
  5
316
330
1E
100
AcDbEntity
  8
CONTINUOUS1
100
AcDbLine
 10
157.919241
 20
267.8393879999999
 30
0.0
 11
157.919241
 21
277.8393879999999
 31
0.0
  0
LINE
  5
317
330
1E
100
AcDbEntity
  8
CONTINUOUS1
100
AcDbLine
 10
155.3294499999999
 20
267.8393879999999
 30
0.0
 11
155.3294499999999
 21
277.8393879999999
 31
0.0
  0
LINE
  5
318
330
1E
100
AcDbEntity
  8
CONTINUOUS1
100
AcDbLine
 10
188.4756969999999
 20
267.8393879999999
 30
0.0
 11
188.4779149999999
 21
267.7303399999999
 31
0.0
  0
LINE
  5
319
330
1E
100
AcDbEntity
  8
CONTINUOUS1
100
AcDbLine
 10
188.4779149999999
 20
267.7303399999999
 30
0.0
 11
188.4845639999999
 21
267.621499
 31
0.0
  0
LINE
  5
31A
330
1E
100
AcDbEntity
  8
CONTINUOUS1
100
AcDbLine
 10
188.4845639999999
 20
267.621499
 30
0.0
 11
188.4956309999999
 21
267.513073
 31
0.0
  0
LINE
  5
31B
330
1E
100
AcDbEntity
  8
CONTINUOUS1
100
AcDbLine
 10
188.4956309999999
 20
267.513073
 30
0.0
 11
188.511097
 21
267.405268
 31
0.0
  0
LINE
  5
31C
330
1E
100
AcDbEntity
  8
CONTINUOUS1
100
AcDbLine
 10
188.511097
 20
267.405268
 30
0.0
 11
188.53093
 21
267.298289
 31
0.0
  0
LINE
  5
31D
330
1E
100
AcDbEntity
  8
CONTINUOUS1
100
AcDbLine
 10
188.53093
 20
267.298289
 30
0.0
 11
188.5550939999999
 21
267.192341
 31
0.0
  0
LINE
  5
31E
330
1E
100
AcDbEntity
  8
CONTINUOUS1
100
AcDbLine
 10
188.5550939999999
 20
267.192341
 30
0.0
 11
188.583542
 21
267.087624
 31
0.0
  0
LINE
  5
31F
330
1E
100
AcDbEntity
  8
CONTINUOUS1
100
AcDbLine
 10
188.583542
 20
267.087624
 30
0.0
 11
188.6162209999999
 21
266.9843379999999
 31
0.0
  0
LINE
  5
320
330
1E
100
AcDbEntity
  8
CONTINUOUS1
100
AcDbLine
 10
188.6162209999999
 20
266.9843379999999
 30
0.0
 11
188.6530669999999
 21
266.88268
 31
0.0
  0
LINE
  5
321
330
1E
100
AcDbEntity
  8
CONTINUOUS1
100
AcDbLine
 10
188.6530669999999
 20
266.88268
 30
0.0
 11
188.694011
 21
266.782842
 31
0.0
  0
LINE
  5
322
330
1E
100
AcDbEntity
  8
CONTINUOUS1
100
AcDbLine
 10
188.694011
 20
266.782842
 30
0.0
 11
188.7389759999999
 21
266.685017
 31
0.0
  0
LINE
  5
323
330
1E
100
AcDbEntity
  8
CONTINUOUS1
100
AcDbLine
 10
188.7389759999999
 20
266.685017
 30
0.0
 11
188.7878739999999
 21
266.589388
 31
0.0
  0
LINE
  5
324
330
1E
100
AcDbEntity
  8
CONTINUOUS1
100
AcDbLine
 10
188.7878739999999
 20
266.589388
 30
0.0
 11
188.8406139999999
 21
266.496139
 31
0.0
  0
LINE
  5
325
330
1E
100
AcDbEntity
  8
CONTINUOUS1
100
AcDbLine
 10
188.8406139999999
 20
266.496139
 30
0.0
 11
188.897095
 21
266.405447
 31
0.0
  0
LINE
  5
326
330
1E
100
AcDbEntity
  8
CONTINUOUS1
100
AcDbLine
 10
188.897095
 20
266.405447
 30
0.0
 11
188.957209
 21
266.317485
 31
0.0
  0
LINE
  5
327
330
1E
100
AcDbEntity
  8
CONTINUOUS1
100
AcDbLine
 10
188.957209
 20
266.317485
 30
0.0
 11
189.0208429999999
 21
266.232419
 31
0.0
  0
LINE
  5
328
330
1E
100
AcDbEntity
  8
CONTINUOUS1
100
AcDbLine
 10
189.0208429999999
 20
266.232419
 30
0.0
 11
189.0878739999999
 21
266.150413
 31
0.0
  0
LINE
  5
329
330
1E
100
AcDbEntity
  8
CONTINUOUS1
100
AcDbLine
 10
189.0878739999999
 20
266.150413
 30
0.0
 11
189.158175
 21
266.0716209999999
 31
0.0
  0
LINE
  5
32A
330
1E
100
AcDbEntity
  8
CONTINUOUS1
100
AcDbLine
 10
189.158175
 20
266.0716209999999
 30
0.0
 11
189.231612
 21
265.996195
 31
0.0
  0
LINE
  5
32B
330
1E
100
AcDbEntity
  8
CONTINUOUS1
100
AcDbLine
 10
189.231612
 20
265.996195
 30
0.0
 11
189.308046
 21
265.924277
 31
0.0
  0
LINE
  5
32C
330
1E
100
AcDbEntity
  8
CONTINUOUS1
100
AcDbLine
 10
189.308046
 20
265.924277
 30
0.0
 11
189.387332
 21
265.8560049999999
 31
0.0
  0
LINE
  5
32D
330
1E
100
AcDbEntity
  8
CONTINUOUS1
100
AcDbLine
 10
189.387332
 20
265.8560049999999
 30
0.0
 11
189.469317
 21
265.791508
 31
0.0
  0
LINE
  5
32E
330
1E
100
AcDbEntity
  8
CONTINUOUS1
100
AcDbLine
 10
189.469317
 20
265.791508
 30
0.0
 11
189.5538469999999
 21
265.7309099999999
 31
0.0
  0
LINE
  5
32F
330
1E
100
AcDbEntity
  8
CONTINUOUS1
100
AcDbLine
 10
189.5538469999999
 20
265.7309099999999
 30
0.0
 11
189.640759
 21
265.674325
 31
0.0
  0
LINE
  5
330
330
1E
100
AcDbEntity
  8
CONTINUOUS1
100
AcDbLine
 10
189.640759
 20
265.674325
 30
0.0
 11
189.7298899999999
 21
265.6218609999999
 31
0.0
  0
LINE
  5
331
330
1E
100
AcDbEntity
  8
CONTINUOUS1
100
AcDbLine
 10
189.7298899999999
 20
265.6218609999999
 30
0.0
 11
189.8210689999999
 21
265.573619
 31
0.0
  0
LINE
  5
332
330
1E
100
AcDbEntity
  8
CONTINUOUS1
100
AcDbLine
 10
189.8210689999999
 20
265.573619
 30
0.0
 11
189.9141219999999
 21
265.529689
 31
0.0
  0
LINE
  5
333
330
1E
100
AcDbEntity
  8
CONTINUOUS1
100
AcDbLine
 10
189.9141219999999
 20
265.529689
 30
0.0
 11
190.008872
 21
265.490157
 31
0.0
  0
LINE
  5
334
330
1E
100
AcDbEntity
  8
CONTINUOUS1
100
AcDbLine
 10
190.008872
 20
265.490157
 30
0.0
 11
190.1051399999999
 21
265.4550959999999
 31
0.0
  0
LINE
  5
335
330
1E
100
AcDbEntity
  8
CONTINUOUS1
100
AcDbLine
 10
190.1051399999999
 20
265.4550959999999
 30
0.0
 11
190.202741
 21
265.4245739999999
 31
0.0
  0
LINE
  5
336
330
1E
100
AcDbEntity
  8
CONTINUOUS1
100
AcDbLine
 10
190.202741
 20
265.4245739999999
 30
0.0
 11
190.3014909999999
 21
265.3986479999999
 31
0.0
  0
LINE
  5
337
330
1E
100
AcDbEntity
  8
CONTINUOUS1
100
AcDbLine
 10
190.3014909999999
 20
265.3986479999999
 30
0.0
 11
190.4011999999999
 21
265.3773689999999
 31
0.0
  0
LINE
  5
338
330
1E
100
AcDbEntity
  8
CONTINUOUS1
100
AcDbLine
 10
190.4011999999999
 20
265.3773689999999
 30
0.0
 11
190.50168
 21
265.3607759999999
 31
0.0
  0
LINE
  5
339
330
1E
100
AcDbEntity
  8
CONTINUOUS1
100
AcDbLine
 10
190.50168
 20
265.3607759999999
 30
0.0
 11
190.6027379999999
 21
265.3489009999999
 31
0.0
  0
LINE
  5
33A
330
1E
100
AcDbEntity
  8
CONTINUOUS1
100
AcDbLine
 10
190.6027379999999
 20
265.3489009999999
 30
0.0
 11
190.7041839999999
 21
265.341768
 31
0.0
  0
LINE
  5
33B
330
1E
100
AcDbEntity
  8
CONTINUOUS1
100
AcDbLine
 10
190.7041839999999
 20
265.341768
 30
0.0
 11
190.805822
 21
265.3393879999999
 31
0.0
  0
LINE
  5
33C
330
1E
100
AcDbEntity
  8
CONTINUOUS1
100
AcDbLine
 10
190.805822
 20
265.3393879999999
 30
0.0
 11
190.907461
 21
265.341768
 31
0.0
  0
LINE
  5
33D
330
1E
100
AcDbEntity
  8
CONTINUOUS1
100
AcDbLine
 10
190.907461
 20
265.341768
 30
0.0
 11
191.0089059999999
 21
265.3489009999999
 31
0.0
  0
LINE
  5
33E
330
1E
100
AcDbEntity
  8
CONTINUOUS1
100
AcDbLine
 10
191.0089059999999
 20
265.3489009999999
 30
0.0
 11
191.1099649999999
 21
265.3607759999999
 31
0.0
  0
LINE
  5
33F
330
1E
100
AcDbEntity
  8
CONTINUOUS1
100
AcDbLine
 10
191.1099649999999
 20
265.3607759999999
 30
0.0
 11
191.210444
 21
265.3773689999999
 31
0.0
  0
LINE
  5
340
330
1E
100
AcDbEntity
  8
CONTINUOUS1
100
AcDbLine
 10
191.210444
 20
265.3773689999999
 30
0.0
 11
191.310154
 21
265.3986479999999
 31
0.0
  0
LINE
  5
341
330
1E
100
AcDbEntity
  8
CONTINUOUS1
100
AcDbLine
 10
191.310154
 20
265.3986479999999
 30
0.0
 11
191.408903
 21
265.4245739999999
 31
0.0
  0
LINE
  5
342
330
1E
100
AcDbEntity
  8
CONTINUOUS1
100
AcDbLine
 10
191.408903
 20
265.4245739999999
 30
0.0
 11
191.5065039999999
 21
265.4550959999999
 31
0.0
  0
LINE
  5
343
330
1E
100
AcDbEntity
  8
CONTINUOUS1
100
AcDbLine
 10
191.5065039999999
 20
265.4550959999999
 30
0.0
 11
191.6027719999999
 21
265.490157
 31
0.0
  0
LINE
  5
344
330
1E
100
AcDbEntity
  8
CONTINUOUS1
100
AcDbLine
 10
191.6027719999999
 20
265.490157
 30
0.0
 11
191.697523
 21
265.529689
 31
0.0
  0
LINE
  5
345
330
1E
100
AcDbEntity
  8
CONTINUOUS1
100
AcDbLine
 10
191.697523
 20
265.529689
 30
0.0
 11
191.790576
 21
265.573619
 31
0.0
  0
LINE
  5
346
330
1E
100
AcDbEntity
  8
CONTINUOUS1
100
AcDbLine
 10
191.790576
 20
265.573619
 30
0.0
 11
191.881754
 21
265.6218609999999
 31
0.0
  0
LINE
  5
347
330
1E
100
AcDbEntity
  8
CONTINUOUS1
100
AcDbLine
 10
191.881754
 20
265.6218609999999
 30
0.0
 11
191.970885
 21
265.674325
 31
0.0
  0
LINE
  5
348
330
1E
100
AcDbEntity
  8
CONTINUOUS1
100
AcDbLine
 10
191.970885
 20
265.674325
 30
0.0
 11
192.057798
 21
265.7309099999999
 31
0.0
  0
LINE
  5
349
330
1E
100
AcDbEntity
  8
CONTINUOUS1
100
AcDbLine
 10
192.057798
 20
265.7309099999999
 30
0.0
 11
192.142327
 21
265.791508
 31
0.0
  0
LINE
  5
34A
330
1E
100
AcDbEntity
  8
CONTINUOUS1
100
AcDbLine
 10
192.142327
 20
265.791508
 30
0.0
 11
192.224313
 21
265.8560049999999
 31
0.0
  0
LINE
  5
34B
330
1E
100
AcDbEntity
  8
CONTINUOUS1
100
AcDbLine
 10
192.224313
 20
265.8560049999999
 30
0.0
 11
192.303598
 21
265.924277
 31
0.0
  0
LINE
  5
34C
330
1E
100
AcDbEntity
  8
CONTINUOUS1
100
AcDbLine
 10
192.303598
 20
265.924277
 30
0.0
 11
192.3800319999999
 21
265.996195
 31
0.0
  0
LINE
  5
34D
330
1E
100
AcDbEntity
  8
CONTINUOUS1
100
AcDbLine
 10
192.3800319999999
 20
265.996195
 30
0.0
 11
192.4534699999999
 21
266.0716209999999
 31
0.0
  0
LINE
  5
34E
330
1E
100
AcDbEntity
  8
CONTINUOUS1
100
AcDbLine
 10
192.4534699999999
 20
266.0716209999999
 30
0.0
 11
192.5237709999999
 21
266.150413
 31
0.0
  0
LINE
  5
34F
330
1E
100
AcDbEntity
  8
CONTINUOUS1
100
AcDbLine
 10
192.5237709999999
 20
266.150413
 30
0.0
 11
192.5908019999999
 21
266.232419
 31
0.0
  0
LINE
  5
350
330
1E
100
AcDbEntity
  8
CONTINUOUS1
100
AcDbLine
 10
192.5908019999999
 20
266.232419
 30
0.0
 11
192.654435
 21
266.317485
 31
0.0
  0
LINE
  5
351
330
1E
100
AcDbEntity
  8
CONTINUOUS1
100
AcDbLine
 10
192.654435
 20
266.317485
 30
0.0
 11
192.714549
 21
266.405447
 31
0.0
  0
LINE
  5
352
330
1E
100
AcDbEntity
  8
CONTINUOUS1
100
AcDbLine
 10
192.714549
 20
266.405447
 30
0.0
 11
192.77103
 21
266.496139
 31
0.0
  0
LINE
  5
353
330
1E
100
AcDbEntity
  8
CONTINUOUS1
100
AcDbLine
 10
192.77103
 20
266.496139
 30
0.0
 11
192.82377
 21
266.589388
 31
0.0
  0
LINE
  5
354
330
1E
100
AcDbEntity
  8
CONTINUOUS1
100
AcDbLine
 10
192.82377
 20
266.589388
 30
0.0
 11
192.8726689999999
 21
266.685017
 31
0.0
  0
LINE
  5
355
330
1E
100
AcDbEntity
  8
CONTINUOUS1
100
AcDbLine
 10
192.8726689999999
 20
266.685017
 30
0.0
 11
192.9176329999999
 21
266.782842
 31
0.0
  0
LINE
  5
356
330
1E
100
AcDbEntity
  8
CONTINUOUS1
100
AcDbLine
 10
192.9176329999999
 20
266.782842
 30
0.0
 11
192.9585769999999
 21
266.88268
 31
0.0
  0
LINE
  5
357
330
1E
100
AcDbEntity
  8
CONTINUOUS1
100
AcDbLine
 10
192.9585769999999
 20
266.88268
 30
0.0
 11
192.9954239999999
 21
266.9843379999999
 31
0.0
  0
LINE
  5
358
330
1E
100
AcDbEntity
  8
CONTINUOUS1
100
AcDbLine
 10
192.9954239999999
 20
266.9843379999999
 30
0.0
 11
193.0281019999999
 21
267.087624
 31
0.0
  0
LINE
  5
359
330
1E
100
AcDbEntity
  8
CONTINUOUS1
100
AcDbLine
 10
193.0281019999999
 20
267.087624
 30
0.0
 11
193.056551
 21
267.192341
 31
0.0
  0
LINE
  5
35A
330
1E
100
AcDbEntity
  8
CONTINUOUS1
100
AcDbLine
 10
193.056551
 20
267.192341
 30
0.0
 11
193.0807139999999
 21
267.298289
 31
0.0
  0
LINE
  5
35B
330
1E
100
AcDbEntity
  8
CONTINUOUS1
100
AcDbLine
 10
193.0807139999999
 20
267.298289
 30
0.0
 11
193.1005479999999
 21
267.405268
 31
0.0
  0
LINE
  5
35C
330
1E
100
AcDbEntity
  8
CONTINUOUS1
100
AcDbLine
 10
193.1005479999999
 20
267.405268
 30
0.0
 11
193.1160129999999
 21
267.513073
 31
0.0
  0
LINE
  5
35D
330
1E
100
AcDbEntity
  8
CONTINUOUS1
100
AcDbLine
 10
193.1160129999999
 20
267.513073
 30
0.0
 11
193.127081
 21
267.621499
 31
0.0
  0
LINE
  5
35E
330
1E
100
AcDbEntity
  8
CONTINUOUS1
100
AcDbLine
 10
193.127081
 20
267.621499
 30
0.0
 11
193.13373
 21
267.7303399999999
 31
0.0
  0
LINE
  5
35F
330
1E
100
AcDbEntity
  8
CONTINUOUS1
100
AcDbLine
 10
193.13373
 20
267.7303399999999
 30
0.0
 11
193.1359479999999
 21
267.8393879999999
 31
0.0
  0
LINE
  5
360
330
1E
100
AcDbEntity
  8
CONTINUOUS1
100
AcDbLine
 10
179.6676249999999
 20
267.8393879999999
 30
0.0
 11
179.6697409999999
 21
267.7303399999999
 31
0.0
  0
LINE
  5
361
330
1E
100
AcDbEntity
  8
CONTINUOUS1
100
AcDbLine
 10
179.6697409999999
 20
267.7303399999999
 30
0.0
 11
179.676086
 21
267.621499
 31
0.0
  0
LINE
  5
362
330
1E
100
AcDbEntity
  8
CONTINUOUS1
100
AcDbLine
 10
179.676086
 20
267.621499
 30
0.0
 11
179.6866459999999
 21
267.513073
 31
0.0
  0
LINE
  5
363
330
1E
100
AcDbEntity
  8
CONTINUOUS1
100
AcDbLine
 10
179.6866459999999
 20
267.513073
 30
0.0
 11
179.7014029999999
 21
267.405268
 31
0.0
  0
LINE
  5
364
330
1E
100
AcDbEntity
  8
CONTINUOUS1
100
AcDbLine
 10
179.7014029999999
 20
267.405268
 30
0.0
 11
179.7203279999999
 21
267.298289
 31
0.0
  0
LINE
  5
365
330
1E
100
AcDbEntity
  8
CONTINUOUS1
100
AcDbLine
 10
179.7203279999999
 20
267.298289
 30
0.0
 11
179.743385
 21
267.192341
 31
0.0
  0
LINE
  5
366
330
1E
100
AcDbEntity
  8
CONTINUOUS1
100
AcDbLine
 10
179.743385
 20
267.192341
 30
0.0
 11
179.77053
 21
267.087624
 31
0.0
  0
LINE
  5
367
330
1E
100
AcDbEntity
  8
CONTINUOUS1
100
AcDbLine
 10
179.77053
 20
267.087624
 30
0.0
 11
179.801711
 21
266.9843379999999
 31
0.0
  0
LINE
  5
368
330
1E
100
AcDbEntity
  8
CONTINUOUS1
100
AcDbLine
 10
179.801711
 20
266.9843379999999
 30
0.0
 11
179.83687
 21
266.88268
 31
0.0
  0
LINE
  5
369
330
1E
100
AcDbEntity
  8
CONTINUOUS1
100
AcDbLine
 10
179.83687
 20
266.88268
 30
0.0
 11
179.8759379999999
 21
266.782842
 31
0.0
  0
LINE
  5
36A
330
1E
100
AcDbEntity
  8
CONTINUOUS1
100
AcDbLine
 10
179.8759379999999
 20
266.782842
 30
0.0
 11
179.9188429999999
 21
266.685017
 31
0.0
  0
LINE
  5
36B
330
1E
100
AcDbEntity
  8
CONTINUOUS1
100
AcDbLine
 10
179.9188429999999
 20
266.685017
 30
0.0
 11
179.9655009999999
 21
266.589388
 31
0.0
  0
LINE
  5
36C
330
1E
100
AcDbEntity
  8
CONTINUOUS1
100
AcDbLine
 10
179.9655009999999
 20
266.589388
 30
0.0
 11
180.015825
 21
266.496139
 31
0.0
  0
LINE
  5
36D
330
1E
100
AcDbEntity
  8
CONTINUOUS1
100
AcDbLine
 10
180.015825
 20
266.496139
 30
0.0
 11
180.0697189999999
 21
266.405447
 31
0.0
  0
LINE
  5
36E
330
1E
100
AcDbEntity
  8
CONTINUOUS1
100
AcDbLine
 10
180.0697189999999
 20
266.405447
 30
0.0
 11
180.127079
 21
266.317485
 31
0.0
  0
LINE
  5
36F
330
1E
100
AcDbEntity
  8
CONTINUOUS1
100
AcDbLine
 10
180.127079
 20
266.317485
 30
0.0
 11
180.1877969999999
 21
266.232419
 31
0.0
  0
LINE
  5
370
330
1E
100
AcDbEntity
  8
CONTINUOUS1
100
AcDbLine
 10
180.1877969999999
 20
266.232419
 30
0.0
 11
180.251757
 21
266.150413
 31
0.0
  0
LINE
  5
371
330
1E
100
AcDbEntity
  8
CONTINUOUS1
100
AcDbLine
 10
180.251757
 20
266.150413
 30
0.0
 11
180.3188379999999
 21
266.0716209999999
 31
0.0
  0
LINE
  5
372
330
1E
100
AcDbEntity
  8
CONTINUOUS1
100
AcDbLine
 10
180.3188379999999
 20
266.0716209999999
 30
0.0
 11
180.388911
 21
265.996195
 31
0.0
  0
LINE
  5
373
330
1E
100
AcDbEntity
  8
CONTINUOUS1
100
AcDbLine
 10
180.388911
 20
265.996195
 30
0.0
 11
180.4618439999999
 21
265.924277
 31
0.0
  0
LINE
  5
374
330
1E
100
AcDbEntity
  8
CONTINUOUS1
100
AcDbLine
 10
180.4618439999999
 20
265.924277
 30
0.0
 11
180.537497
 21
265.8560049999999
 31
0.0
  0
LINE
  5
375
330
1E
100
AcDbEntity
  8
CONTINUOUS1
100
AcDbLine
 10
180.537497
 20
265.8560049999999
 30
0.0
 11
180.6157269999999
 21
265.791508
 31
0.0
  0
LINE
  5
376
330
1E
100
AcDbEntity
  8
CONTINUOUS1
100
AcDbLine
 10
180.6157269999999
 20
265.791508
 30
0.0
 11
180.6963839999999
 21
265.7309099999999
 31
0.0
  0
LINE
  5
377
330
1E
100
AcDbEntity
  8
CONTINUOUS1
100
AcDbLine
 10
180.6963839999999
 20
265.7309099999999
 30
0.0
 11
180.779315
 21
265.674325
 31
0.0
  0
LINE
  5
378
330
1E
100
AcDbEntity
  8
CONTINUOUS1
100
AcDbLine
 10
180.779315
 20
265.674325
 30
0.0
 11
180.8643619999999
 21
265.6218609999999
 31
0.0
  0
LINE
  5
379
330
1E
100
AcDbEntity
  8
CONTINUOUS1
100
AcDbLine
 10
180.8643619999999
 20
265.6218609999999
 30
0.0
 11
180.9513639999999
 21
265.573619
 31
0.0
  0
LINE
  5
37A
330
1E
100
AcDbEntity
  8
CONTINUOUS1
100
AcDbLine
 10
180.9513639999999
 20
265.573619
 30
0.0
 11
181.0401539999999
 21
265.529689
 31
0.0
  0
LINE
  5
37B
330
1E
100
AcDbEntity
  8
CONTINUOUS1
100
AcDbLine
 10
181.0401539999999
 20
265.529689
 30
0.0
 11
181.130564
 21
265.490157
 31
0.0
  0
LINE
  5
37C
330
1E
100
AcDbEntity
  8
CONTINUOUS1
100
AcDbLine
 10
181.130564
 20
265.490157
 30
0.0
 11
181.222422
 21
265.4550959999999
 31
0.0
  0
LINE
  5
37D
330
1E
100
AcDbEntity
  8
CONTINUOUS1
100
AcDbLine
 10
181.222422
 20
265.4550959999999
 30
0.0
 11
181.315552
 21
265.4245739999999
 31
0.0
  0
LINE
  5
37E
330
1E
100
AcDbEntity
  8
CONTINUOUS1
100
AcDbLine
 10
181.315552
 20
265.4245739999999
 30
0.0
 11
181.409777
 21
265.3986479999999
 31
0.0
  0
LINE
  5
37F
330
1E
100
AcDbEntity
  8
CONTINUOUS1
100
AcDbLine
 10
181.409777
 20
265.3986479999999
 30
0.0
 11
181.504919
 21
265.3773689999999
 31
0.0
  0
LINE
  5
380
330
1E
100
AcDbEntity
  8
CONTINUOUS1
100
AcDbLine
 10
181.504919
 20
265.3773689999999
 30
0.0
 11
181.600796
 21
265.3607759999999
 31
0.0
  0
LINE
  5
381
330
1E
100
AcDbEntity
  8
CONTINUOUS1
100
AcDbLine
 10
181.600796
 20
265.3607759999999
 30
0.0
 11
181.697225
 21
265.3489009999999
 31
0.0
  0
LINE
  5
382
330
1E
100
AcDbEntity
  8
CONTINUOUS1
100
AcDbLine
 10
181.697225
 20
265.3489009999999
 30
0.0
 11
181.7940219999999
 21
265.341768
 31
0.0
  0
LINE
  5
383
330
1E
100
AcDbEntity
  8
CONTINUOUS1
100
AcDbLine
 10
181.7940219999999
 20
265.341768
 30
0.0
 11
181.891005
 21
265.3393879999999
 31
0.0
  0
LINE
  5
384
330
1E
100
AcDbEntity
  8
CONTINUOUS1
100
AcDbLine
 10
181.891005
 20
265.3393879999999
 30
0.0
 11
181.987987
 21
265.341768
 31
0.0
  0
LINE
  5
385
330
1E
100
AcDbEntity
  8
CONTINUOUS1
100
AcDbLine
 10
181.987987
 20
265.341768
 30
0.0
 11
182.084785
 21
265.3489009999999
 31
0.0
  0
LINE
  5
386
330
1E
100
AcDbEntity
  8
CONTINUOUS1
100
AcDbLine
 10
182.084785
 20
265.3489009999999
 30
0.0
 11
182.1812139999999
 21
265.3607759999999
 31
0.0
  0
LINE
  5
387
330
1E
100
AcDbEntity
  8
CONTINUOUS1
100
AcDbLine
 10
182.1812139999999
 20
265.3607759999999
 30
0.0
 11
182.2770909999999
 21
265.3773689999999
 31
0.0
  0
LINE
  5
388
330
1E
100
AcDbEntity
  8
CONTINUOUS1
100
AcDbLine
 10
182.2770909999999
 20
265.3773689999999
 30
0.0
 11
182.3722319999999
 21
265.3986479999999
 31
0.0
  0
LINE
  5
389
330
1E
100
AcDbEntity
  8
CONTINUOUS1
100
AcDbLine
 10
182.3722319999999
 20
265.3986479999999
 30
0.0
 11
182.466458
 21
265.4245739999999
 31
0.0
  0
LINE
  5
38A
330
1E
100
AcDbEntity
  8
CONTINUOUS1
100
AcDbLine
 10
182.466458
 20
265.4245739999999
 30
0.0
 11
182.5595879999999
 21
265.4550959999999
 31
0.0
  0
LINE
  5
38B
330
1E
100
AcDbEntity
  8
CONTINUOUS1
100
AcDbLine
 10
182.5595879999999
 20
265.4550959999999
 30
0.0
 11
182.651446
 21
265.490157
 31
0.0
  0
LINE
  5
38C
330
1E
100
AcDbEntity
  8
CONTINUOUS1
100
AcDbLine
 10
182.651446
 20
265.490157
 30
0.0
 11
182.741856
 21
265.529689
 31
0.0
  0
LINE
  5
38D
330
1E
100
AcDbEntity
  8
CONTINUOUS1
100
AcDbLine
 10
182.741856
 20
265.529689
 30
0.0
 11
182.830646
 21
265.573619
 31
0.0
  0
LINE
  5
38E
330
1E
100
AcDbEntity
  8
CONTINUOUS1
100
AcDbLine
 10
182.830646
 20
265.573619
 30
0.0
 11
182.9176469999999
 21
265.6218609999999
 31
0.0
  0
LINE
  5
38F
330
1E
100
AcDbEntity
  8
CONTINUOUS1
100
AcDbLine
 10
182.9176469999999
 20
265.6218609999999
 30
0.0
 11
183.0026949999999
 21
265.674325
 31
0.0
  0
LINE
  5
390
330
1E
100
AcDbEntity
  8
CONTINUOUS1
100
AcDbLine
 10
183.0026949999999
 20
265.674325
 30
0.0
 11
183.085626
 21
265.7309099999999
 31
0.0
  0
LINE
  5
391
330
1E
100
AcDbEntity
  8
CONTINUOUS1
100
AcDbLine
 10
183.085626
 20
265.7309099999999
 30
0.0
 11
183.166283
 21
265.791508
 31
0.0
  0
LINE
  5
392
330
1E
100
AcDbEntity
  8
CONTINUOUS1
100
AcDbLine
 10
183.166283
 20
265.791508
 30
0.0
 11
183.2445129999999
 21
265.8560049999999
 31
0.0
  0
LINE
  5
393
330
1E
100
AcDbEntity
  8
CONTINUOUS1
100
AcDbLine
 10
183.2445129999999
 20
265.8560049999999
 30
0.0
 11
183.320166
 21
265.924277
 31
0.0
  0
LINE
  5
394
330
1E
100
AcDbEntity
  8
CONTINUOUS1
100
AcDbLine
 10
183.320166
 20
265.924277
 30
0.0
 11
183.3930989999999
 21
265.996195
 31
0.0
  0
LINE
  5
395
330
1E
100
AcDbEntity
  8
CONTINUOUS1
100
AcDbLine
 10
183.3930989999999
 20
265.996195
 30
0.0
 11
183.4631719999999
 21
266.0716209999999
 31
0.0
  0
LINE
  5
396
330
1E
100
AcDbEntity
  8
CONTINUOUS1
100
AcDbLine
 10
183.4631719999999
 20
266.0716209999999
 30
0.0
 11
183.5302519999999
 21
266.150413
 31
0.0
  0
LINE
  5
397
330
1E
100
AcDbEntity
  8
CONTINUOUS1
100
AcDbLine
 10
183.5302519999999
 20
266.150413
 30
0.0
 11
183.594213
 21
266.232419
 31
0.0
  0
LINE
  5
398
330
1E
100
AcDbEntity
  8
CONTINUOUS1
100
AcDbLine
 10
183.594213
 20
266.232419
 30
0.0
 11
183.654931
 21
266.317485
 31
0.0
  0
LINE
  5
399
330
1E
100
AcDbEntity
  8
CONTINUOUS1
100
AcDbLine
 10
183.654931
 20
266.317485
 30
0.0
 11
183.7122909999999
 21
266.405447
 31
0.0
  0
LINE
  5
39A
330
1E
100
AcDbEntity
  8
CONTINUOUS1
100
AcDbLine
 10
183.7122909999999
 20
266.405447
 30
0.0
 11
183.766184
 21
266.496139
 31
0.0
  0
LINE
  5
39B
330
1E
100
AcDbEntity
  8
CONTINUOUS1
100
AcDbLine
 10
183.766184
 20
266.496139
 30
0.0
 11
183.8165079999999
 21
266.589388
 31
0.0
  0
LINE
  5
39C
330
1E
100
AcDbEntity
  8
CONTINUOUS1
100
AcDbLine
 10
183.8165079999999
 20
266.589388
 30
0.0
 11
183.863167
 21
266.685017
 31
0.0
  0
LINE
  5
39D
330
1E
100
AcDbEntity
  8
CONTINUOUS1
100
AcDbLine
 10
183.863167
 20
266.685017
 30
0.0
 11
183.906071
 21
266.782842
 31
0.0
  0
LINE
  5
39E
330
1E
100
AcDbEntity
  8
CONTINUOUS1
100
AcDbLine
 10
183.906071
 20
266.782842
 30
0.0
 11
183.9451399999999
 21
266.88268
 31
0.0
  0
LINE
  5
39F
330
1E
100
AcDbEntity
  8
CONTINUOUS1
100
AcDbLine
 10
183.9451399999999
 20
266.88268
 30
0.0
 11
183.980299
 21
266.9843379999999
 31
0.0
  0
LINE
  5
3A0
330
1E
100
AcDbEntity
  8
CONTINUOUS1
100
AcDbLine
 10
183.980299
 20
266.9843379999999
 30
0.0
 11
184.01148
 21
267.087624
 31
0.0
  0
LINE
  5
3A1
330
1E
100
AcDbEntity
  8
CONTINUOUS1
100
AcDbLine
 10
184.01148
 20
267.087624
 30
0.0
 11
184.0386249999999
 21
267.192341
 31
0.0
  0
LINE
  5
3A2
330
1E
100
AcDbEntity
  8
CONTINUOUS1
100
AcDbLine
 10
184.0386249999999
 20
267.192341
 30
0.0
 11
184.061682
 21
267.298289
 31
0.0
  0
LINE
  5
3A3
330
1E
100
AcDbEntity
  8
CONTINUOUS1
100
AcDbLine
 10
184.061682
 20
267.298289
 30
0.0
 11
184.080607
 21
267.405268
 31
0.0
  0
LINE
  5
3A4
330
1E
100
AcDbEntity
  8
CONTINUOUS1
100
AcDbLine
 10
184.080607
 20
267.405268
 30
0.0
 11
184.0953629999999
 21
267.513073
 31
0.0
  0
LINE
  5
3A5
330
1E
100
AcDbEntity
  8
CONTINUOUS1
100
AcDbLine
 10
184.0953629999999
 20
267.513073
 30
0.0
 11
184.1059239999999
 21
267.621499
 31
0.0
  0
LINE
  5
3A6
330
1E
100
AcDbEntity
  8
CONTINUOUS1
100
AcDbLine
 10
184.1059239999999
 20
267.621499
 30
0.0
 11
184.1122689999999
 21
267.7303399999999
 31
0.0
  0
LINE
  5
3A7
330
1E
100
AcDbEntity
  8
CONTINUOUS1
100
AcDbLine
 10
184.1122689999999
 20
267.7303399999999
 30
0.0
 11
184.1143849999999
 21
267.8393879999999
 31
0.0
  0
LINE
  5
3A8
330
1E
100
AcDbEntity
  8
CONTINUOUS1
100
AcDbLine
 10
171.477342
 20
267.8393879999999
 30
0.0
 11
171.4792929999999
 21
267.7303399999999
 31
0.0
  0
LINE
  5
3A9
330
1E
100
AcDbEntity
  8
CONTINUOUS1
100
AcDbLine
 10
171.4792929999999
 20
267.7303399999999
 30
0.0
 11
171.48514
 21
267.621499
 31
0.0
  0
LINE
  5
3AA
330
1E
100
AcDbEntity
  8
CONTINUOUS1
100
AcDbLine
 10
171.48514
 20
267.621499
 30
0.0
 11
171.4948719999999
 21
267.513073
 31
0.0
  0
LINE
  5
3AB
330
1E
100
AcDbEntity
  8
CONTINUOUS1
100
AcDbLine
 10
171.4948719999999
 20
267.513073
 30
0.0
 11
171.5084719999999
 21
267.405268
 31
0.0
  0
LINE
  5
3AC
330
1E
100
AcDbEntity
  8
CONTINUOUS1
100
AcDbLine
 10
171.5084719999999
 20
267.405268
 30
0.0
 11
171.525914
 21
267.298289
 31
0.0
  0
LINE
  5
3AD
330
1E
100
AcDbEntity
  8
CONTINUOUS1
100
AcDbLine
 10
171.525914
 20
267.298289
 30
0.0
 11
171.5471629999999
 21
267.192341
 31
0.0
  0
LINE
  5
3AE
330
1E
100
AcDbEntity
  8
CONTINUOUS1
100
AcDbLine
 10
171.5471629999999
 20
267.192341
 30
0.0
 11
171.57218
 21
267.087624
 31
0.0
  0
LINE
  5
3AF
330
1E
100
AcDbEntity
  8
CONTINUOUS1
100
AcDbLine
 10
171.57218
 20
267.087624
 30
0.0
 11
171.6009169999999
 21
266.9843379999999
 31
0.0
  0
LINE
  5
3B0
330
1E
100
AcDbEntity
  8
CONTINUOUS1
100
AcDbLine
 10
171.6009169999999
 20
266.9843379999999
 30
0.0
 11
171.633319
 21
266.88268
 31
0.0
  0
LINE
  5
3B1
330
1E
100
AcDbEntity
  8
CONTINUOUS1
100
AcDbLine
 10
171.633319
 20
266.88268
 30
0.0
 11
171.6693249999999
 21
266.782842
 31
0.0
  0
LINE
  5
3B2
330
1E
100
AcDbEntity
  8
CONTINUOUS1
100
AcDbLine
 10
171.6693249999999
 20
266.782842
 30
0.0
 11
171.7088659999999
 21
266.685017
 31
0.0
  0
LINE
  5
3B3
330
1E
100
AcDbEntity
  8
CONTINUOUS1
100
AcDbLine
 10
171.7088659999999
 20
266.685017
 30
0.0
 11
171.751867
 21
266.589388
 31
0.0
  0
LINE
  5
3B4
330
1E
100
AcDbEntity
  8
CONTINUOUS1
100
AcDbLine
 10
171.751867
 20
266.589388
 30
0.0
 11
171.798245
 21
266.496139
 31
0.0
  0
LINE
  5
3B5
330
1E
100
AcDbEntity
  8
CONTINUOUS1
100
AcDbLine
 10
171.798245
 20
266.496139
 30
0.0
 11
171.847914
 21
266.405447
 31
0.0
  0
LINE
  5
3B6
330
1E
100
AcDbEntity
  8
CONTINUOUS1
100
AcDbLine
 10
171.847914
 20
266.405447
 30
0.0
 11
171.900777
 21
266.317485
 31
0.0
  0
LINE
  5
3B7
330
1E
100
AcDbEntity
  8
CONTINUOUS1
100
AcDbLine
 10
171.900777
 20
266.317485
 30
0.0
 11
171.956735
 21
266.232419
 31
0.0
  0
LINE
  5
3B8
330
1E
100
AcDbEntity
  8
CONTINUOUS1
100
AcDbLine
 10
171.956735
 20
266.232419
 30
0.0
 11
172.0156809999999
 21
266.150413
 31
0.0
  0
LINE
  5
3B9
330
1E
100
AcDbEntity
  8
CONTINUOUS1
100
AcDbLine
 10
172.0156809999999
 20
266.150413
 30
0.0
 11
172.077503
 21
266.0716209999999
 31
0.0
  0
LINE
  5
3BA
330
1E
100
AcDbEntity
  8
CONTINUOUS1
100
AcDbLine
 10
172.077503
 20
266.0716209999999
 30
0.0
 11
172.142083
 21
265.996195
 31
0.0
  0
LINE
  5
3BB
330
1E
100
AcDbEntity
  8
CONTINUOUS1
100
AcDbLine
 10
172.142083
 20
265.996195
 30
0.0
 11
172.209298
 21
265.924277
 31
0.0
  0
LINE
  5
3BC
330
1E
100
AcDbEntity
  8
CONTINUOUS1
100
AcDbLine
 10
172.209298
 20
265.924277
 30
0.0
 11
172.279021
 21
265.8560049999999
 31
0.0
  0
LINE
  5
3BD
330
1E
100
AcDbEntity
  8
CONTINUOUS1
100
AcDbLine
 10
172.279021
 20
265.8560049999999
 30
0.0
 11
172.3511169999999
 21
265.791508
 31
0.0
  0
LINE
  5
3BE
330
1E
100
AcDbEntity
  8
CONTINUOUS1
100
AcDbLine
 10
172.3511169999999
 20
265.791508
 30
0.0
 11
172.425451
 21
265.7309099999999
 31
0.0
  0
LINE
  5
3BF
330
1E
100
AcDbEntity
  8
CONTINUOUS1
100
AcDbLine
 10
172.425451
 20
265.7309099999999
 30
0.0
 11
172.5018809999999
 21
265.674325
 31
0.0
  0
LINE
  5
3C0
330
1E
100
AcDbEntity
  8
CONTINUOUS1
100
AcDbLine
 10
172.5018809999999
 20
265.674325
 30
0.0
 11
172.580261
 21
265.6218609999999
 31
0.0
  0
LINE
  5
3C1
330
1E
100
AcDbEntity
  8
CONTINUOUS1
100
AcDbLine
 10
172.580261
 20
265.6218609999999
 30
0.0
 11
172.6604419999999
 21
265.573619
 31
0.0
  0
LINE
  5
3C2
330
1E
100
AcDbEntity
  8
CONTINUOUS1
100
AcDbLine
 10
172.6604419999999
 20
265.573619
 30
0.0
 11
172.7422719999999
 21
265.529689
 31
0.0
  0
LINE
  5
3C3
330
1E
100
AcDbEntity
  8
CONTINUOUS1
100
AcDbLine
 10
172.7422719999999
 20
265.529689
 30
0.0
 11
172.8255939999999
 21
265.490157
 31
0.0
  0
LINE
  5
3C4
330
1E
100
AcDbEntity
  8
CONTINUOUS1
100
AcDbLine
 10
172.8255939999999
 20
265.490157
 30
0.0
 11
172.9102509999999
 21
265.4550959999999
 31
0.0
  0
LINE
  5
3C5
330
1E
100
AcDbEntity
  8
CONTINUOUS1
100
AcDbLine
 10
172.9102509999999
 20
265.4550959999999
 30
0.0
 11
172.99608
 21
265.4245739999999
 31
0.0
  0
LINE
  5
3C6
330
1E
100
AcDbEntity
  8
CONTINUOUS1
100
AcDbLine
 10
172.99608
 20
265.4245739999999
 30
0.0
 11
173.082919
 21
265.3986479999999
 31
0.0
  0
LINE
  5
3C7
330
1E
100
AcDbEntity
  8
CONTINUOUS1
100
AcDbLine
 10
173.082919
 20
265.3986479999999
 30
0.0
 11
173.170602
 21
265.3773689999999
 31
0.0
  0
LINE
  5
3C8
330
1E
100
AcDbEntity
  8
CONTINUOUS1
100
AcDbLine
 10
173.170602
 20
265.3773689999999
 30
0.0
 11
173.258962
 21
265.3607759999999
 31
0.0
  0
LINE
  5
3C9
330
1E
100
AcDbEntity
  8
CONTINUOUS1
100
AcDbLine
 10
173.258962
 20
265.3607759999999
 30
0.0
 11
173.347831
 21
265.3489009999999
 31
0.0
  0
LINE
  5
3CA
330
1E
100
AcDbEntity
  8
CONTINUOUS1
100
AcDbLine
 10
173.347831
 20
265.3489009999999
 30
0.0
 11
173.4370409999999
 21
265.341768
 31
0.0
  0
LINE
  5
3CB
330
1E
100
AcDbEntity
  8
CONTINUOUS1
100
AcDbLine
 10
173.4370409999999
 20
265.341768
 30
0.0
 11
173.52642
 21
265.3393879999999
 31
0.0
  0
LINE
  5
3CC
330
1E
100
AcDbEntity
  8
CONTINUOUS1
100
AcDbLine
 10
173.52642
 20
265.3393879999999
 30
0.0
 11
173.6158
 21
265.341768
 31
0.0
  0
LINE
  5
3CD
330
1E
100
AcDbEntity
  8
CONTINUOUS1
100
AcDbLine
 10
173.6158
 20
265.341768
 30
0.0
 11
173.705009
 21
265.3489009999999
 31
0.0
  0
LINE
  5
3CE
330
1E
100
AcDbEntity
  8
CONTINUOUS1
100
AcDbLine
 10
173.705009
 20
265.3489009999999
 30
0.0
 11
173.793879
 21
265.3607759999999
 31
0.0
  0
LINE
  5
3CF
330
1E
100
AcDbEntity
  8
CONTINUOUS1
100
AcDbLine
 10
173.793879
 20
265.3607759999999
 30
0.0
 11
173.8822389999999
 21
265.3773689999999
 31
0.0
  0
LINE
  5
3D0
330
1E
100
AcDbEntity
  8
CONTINUOUS1
100
AcDbLine
 10
173.8822389999999
 20
265.3773689999999
 30
0.0
 11
173.969922
 21
265.3986479999999
 31
0.0
  0
LINE
  5
3D1
330
1E
100
AcDbEntity
  8
CONTINUOUS1
100
AcDbLine
 10
173.969922
 20
265.3986479999999
 30
0.0
 11
174.056761
 21
265.4245739999999
 31
0.0
  0
LINE
  5
3D2
330
1E
100
AcDbEntity
  8
CONTINUOUS1
100
AcDbLine
 10
174.056761
 20
265.4245739999999
 30
0.0
 11
174.1425899999999
 21
265.4550959999999
 31
0.0
  0
LINE
  5
3D3
330
1E
100
AcDbEntity
  8
CONTINUOUS1
100
AcDbLine
 10
174.1425899999999
 20
265.4550959999999
 30
0.0
 11
174.227246
 21
265.490157
 31
0.0
  0
LINE
  5
3D4
330
1E
100
AcDbEntity
  8
CONTINUOUS1
100
AcDbLine
 10
174.227246
 20
265.490157
 30
0.0
 11
174.310568
 21
265.529689
 31
0.0
  0
LINE
  5
3D5
330
1E
100
AcDbEntity
  8
CONTINUOUS1
100
AcDbLine
 10
174.310568
 20
265.529689
 30
0.0
 11
174.3923979999999
 21
265.573619
 31
0.0
  0
LINE
  5
3D6
330
1E
100
AcDbEntity
  8
CONTINUOUS1
100
AcDbLine
 10
174.3923979999999
 20
265.573619
 30
0.0
 11
174.4725789999999
 21
265.6218609999999
 31
0.0
  0
LINE
  5
3D7
330
1E
100
AcDbEntity
  8
CONTINUOUS1
100
AcDbLine
 10
174.4725789999999
 20
265.6218609999999
 30
0.0
 11
174.550959
 21
265.674325
 31
0.0
  0
LINE
  5
3D8
330
1E
100
AcDbEntity
  8
CONTINUOUS1
100
AcDbLine
 10
174.550959
 20
265.674325
 30
0.0
 11
174.6273889999999
 21
265.7309099999999
 31
0.0
  0
LINE
  5
3D9
330
1E
100
AcDbEntity
  8
CONTINUOUS1
100
AcDbLine
 10
174.6273889999999
 20
265.7309099999999
 30
0.0
 11
174.7017229999999
 21
265.791508
 31
0.0
  0
LINE
  5
3DA
330
1E
100
AcDbEntity
  8
CONTINUOUS1
100
AcDbLine
 10
174.7017229999999
 20
265.791508
 30
0.0
 11
174.77382
 21
265.8560049999999
 31
0.0
  0
LINE
  5
3DB
330
1E
100
AcDbEntity
  8
CONTINUOUS1
100
AcDbLine
 10
174.77382
 20
265.8560049999999
 30
0.0
 11
174.8435419999999
 21
265.924277
 31
0.0
  0
LINE
  5
3DC
330
1E
100
AcDbEntity
  8
CONTINUOUS1
100
AcDbLine
 10
174.8435419999999
 20
265.924277
 30
0.0
 11
174.910757
 21
265.996195
 31
0.0
  0
LINE
  5
3DD
330
1E
100
AcDbEntity
  8
CONTINUOUS1
100
AcDbLine
 10
174.910757
 20
265.996195
 30
0.0
 11
174.975337
 21
266.0716209999999
 31
0.0
  0
LINE
  5
3DE
330
1E
100
AcDbEntity
  8
CONTINUOUS1
100
AcDbLine
 10
174.975337
 20
266.0716209999999
 30
0.0
 11
175.037159
 21
266.150413
 31
0.0
  0
LINE
  5
3DF
330
1E
100
AcDbEntity
  8
CONTINUOUS1
100
AcDbLine
 10
175.037159
 20
266.150413
 30
0.0
 11
175.0961049999999
 21
266.232419
 31
0.0
  0
LINE
  5
3E0
330
1E
100
AcDbEntity
  8
CONTINUOUS1
100
AcDbLine
 10
175.0961049999999
 20
266.232419
 30
0.0
 11
175.1520629999999
 21
266.317485
 31
0.0
  0
LINE
  5
3E1
330
1E
100
AcDbEntity
  8
CONTINUOUS1
100
AcDbLine
 10
175.1520629999999
 20
266.317485
 30
0.0
 11
175.204927
 21
266.405447
 31
0.0
  0
LINE
  5
3E2
330
1E
100
AcDbEntity
  8
CONTINUOUS1
100
AcDbLine
 10
175.204927
 20
266.405447
 30
0.0
 11
175.254595
 21
266.496139
 31
0.0
  0
LINE
  5
3E3
330
1E
100
AcDbEntity
  8
CONTINUOUS1
100
AcDbLine
 10
175.254595
 20
266.496139
 30
0.0
 11
175.3009739999999
 21
266.589388
 31
0.0
  0
LINE
  5
3E4
330
1E
100
AcDbEntity
  8
CONTINUOUS1
100
AcDbLine
 10
175.3009739999999
 20
266.589388
 30
0.0
 11
175.343975
 21
266.685017
 31
0.0
  0
LINE
  5
3E5
330
1E
100
AcDbEntity
  8
CONTINUOUS1
100
AcDbLine
 10
175.343975
 20
266.685017
 30
0.0
 11
175.3835159999999
 21
266.782842
 31
0.0
  0
LINE
  5
3E6
330
1E
100
AcDbEntity
  8
CONTINUOUS1
100
AcDbLine
 10
175.3835159999999
 20
266.782842
 30
0.0
 11
175.4195209999999
 21
266.88268
 31
0.0
  0
LINE
  5
3E7
330
1E
100
AcDbEntity
  8
CONTINUOUS1
100
AcDbLine
 10
175.4195209999999
 20
266.88268
 30
0.0
 11
175.451924
 21
266.9843379999999
 31
0.0
  0
LINE
  5
3E8
330
1E
100
AcDbEntity
  8
CONTINUOUS1
100
AcDbLine
 10
175.451924
 20
266.9843379999999
 30
0.0
 11
175.4806609999999
 21
267.087624
 31
0.0
  0
LINE
  5
3E9
330
1E
100
AcDbEntity
  8
CONTINUOUS1
100
AcDbLine
 10
175.4806609999999
 20
267.087624
 30
0.0
 11
175.5056779999999
 21
267.192341
 31
0.0
  0
LINE
  5
3EA
330
1E
100
AcDbEntity
  8
CONTINUOUS1
100
AcDbLine
 10
175.5056779999999
 20
267.192341
 30
0.0
 11
175.526927
 21
267.298289
 31
0.0
  0
LINE
  5
3EB
330
1E
100
AcDbEntity
  8
CONTINUOUS1
100
AcDbLine
 10
175.526927
 20
267.298289
 30
0.0
 11
175.5443679999999
 21
267.405268
 31
0.0
  0
LINE
  5
3EC
330
1E
100
AcDbEntity
  8
CONTINUOUS1
100
AcDbLine
 10
175.5443679999999
 20
267.405268
 30
0.0
 11
175.5579679999999
 21
267.513073
 31
0.0
  0
LINE
  5
3ED
330
1E
100
AcDbEntity
  8
CONTINUOUS1
100
AcDbLine
 10
175.5579679999999
 20
267.513073
 30
0.0
 11
175.567701
 21
267.621499
 31
0.0
  0
LINE
  5
3EE
330
1E
100
AcDbEntity
  8
CONTINUOUS1
100
AcDbLine
 10
175.567701
 20
267.621499
 30
0.0
 11
175.573548
 21
267.7303399999999
 31
0.0
  0
LINE
  5
3EF
330
1E
100
AcDbEntity
  8
CONTINUOUS1
100
AcDbLine
 10
175.573548
 20
267.7303399999999
 30
0.0
 11
175.575498
 21
267.8393879999999
 31
0.0
  0
LINE
  5
3F0
330
1E
100
AcDbEntity
  8
CONTINUOUS1
100
AcDbLine
 10
164.153706
 20
267.8393879999999
 30
0.0
 11
164.155431
 21
267.7303399999999
 31
0.0
  0
LINE
  5
3F1
330
1E
100
AcDbEntity
  8
CONTINUOUS1
100
AcDbLine
 10
164.155431
 20
267.7303399999999
 30
0.0
 11
164.160603
 21
267.621499
 31
0.0
  0
LINE
  5
3F2
330
1E
100
AcDbEntity
  8
CONTINUOUS1
100
AcDbLine
 10
164.160603
 20
267.621499
 30
0.0
 11
164.169212
 21
267.513073
 31
0.0
  0
LINE
  5
3F3
330
1E
100
AcDbEntity
  8
CONTINUOUS1
100
AcDbLine
 10
164.169212
 20
267.513073
 30
0.0
 11
164.1812419999999
 21
267.405268
 31
0.0
  0
LINE
  5
3F4
330
1E
100
AcDbEntity
  8
CONTINUOUS1
100
AcDbLine
 10
164.1812419999999
 20
267.405268
 30
0.0
 11
164.1966699999999
 21
267.298289
 31
0.0
  0
LINE
  5
3F5
330
1E
100
AcDbEntity
  8
CONTINUOUS1
100
AcDbLine
 10
164.1966699999999
 20
267.298289
 30
0.0
 11
164.2154659999999
 21
267.192341
 31
0.0
  0
LINE
  5
3F6
330
1E
100
AcDbEntity
  8
CONTINUOUS1
100
AcDbLine
 10
164.2154659999999
 20
267.192341
 30
0.0
 11
164.2375949999999
 21
267.087624
 31
0.0
  0
LINE
  5
3F7
330
1E
100
AcDbEntity
  8
CONTINUOUS1
100
AcDbLine
 10
164.2375949999999
 20
267.087624
 30
0.0
 11
164.263014
 21
266.9843379999999
 31
0.0
  0
LINE
  5
3F8
330
1E
100
AcDbEntity
  8
CONTINUOUS1
100
AcDbLine
 10
164.263014
 20
266.9843379999999
 30
0.0
 11
164.291676
 21
266.88268
 31
0.0
  0
LINE
  5
3F9
330
1E
100
AcDbEntity
  8
CONTINUOUS1
100
AcDbLine
 10
164.291676
 20
266.88268
 30
0.0
 11
164.323525
 21
266.782842
 31
0.0
  0
LINE
  5
3FA
330
1E
100
AcDbEntity
  8
CONTINUOUS1
100
AcDbLine
 10
164.323525
 20
266.782842
 30
0.0
 11
164.3585009999999
 21
266.685017
 31
0.0
  0
LINE
  5
3FB
330
1E
100
AcDbEntity
  8
CONTINUOUS1
100
AcDbLine
 10
164.3585009999999
 20
266.685017
 30
0.0
 11
164.396537
 21
266.589388
 31
0.0
  0
LINE
  5
3FC
330
1E
100
AcDbEntity
  8
CONTINUOUS1
100
AcDbLine
 10
164.396537
 20
266.589388
 30
0.0
 11
164.437561
 21
266.496139
 31
0.0
  0
LINE
  5
3FD
330
1E
100
AcDbEntity
  8
CONTINUOUS1
100
AcDbLine
 10
164.437561
 20
266.496139
 30
0.0
 11
164.4814959999999
 21
266.405447
 31
0.0
  0
LINE
  5
3FE
330
1E
100
AcDbEntity
  8
CONTINUOUS1
100
AcDbLine
 10
164.4814959999999
 20
266.405447
 30
0.0
 11
164.528256
 21
266.317485
 31
0.0
  0
LINE
  5
3FF
330
1E
100
AcDbEntity
  8
CONTINUOUS1
100
AcDbLine
 10
164.528256
 20
266.317485
 30
0.0
 11
164.577754
 21
266.232419
 31
0.0
  0
LINE
  5
400
330
1E
100
AcDbEntity
  8
CONTINUOUS1
100
AcDbLine
 10
164.577754
 20
266.232419
 30
0.0
 11
164.629895
 21
266.150413
 31
0.0
  0
LINE
  5
401
330
1E
100
AcDbEntity
  8
CONTINUOUS1
100
AcDbLine
 10
164.629895
 20
266.150413
 30
0.0
 11
164.68458
 21
266.0716209999999
 31
0.0
  0
LINE
  5
402
330
1E
100
AcDbEntity
  8
CONTINUOUS1
100
AcDbLine
 10
164.68458
 20
266.0716209999999
 30
0.0
 11
164.741704
 21
265.996195
 31
0.0
  0
LINE
  5
403
330
1E
100
AcDbEntity
  8
CONTINUOUS1
100
AcDbLine
 10
164.741704
 20
265.996195
 30
0.0
 11
164.801159
 21
265.924277
 31
0.0
  0
LINE
  5
404
330
1E
100
AcDbEntity
  8
CONTINUOUS1
100
AcDbLine
 10
164.801159
 20
265.924277
 30
0.0
 11
164.862832
 21
265.8560049999999
 31
0.0
  0
LINE
  5
405
330
1E
100
AcDbEntity
  8
CONTINUOUS1
100
AcDbLine
 10
164.862832
 20
265.8560049999999
 30
0.0
 11
164.926605
 21
265.791508
 31
0.0
  0
LINE
  5
406
330
1E
100
AcDbEntity
  8
CONTINUOUS1
100
AcDbLine
 10
164.926605
 20
265.791508
 30
0.0
 11
164.992358
 21
265.7309099999999
 31
0.0
  0
LINE
  5
407
330
1E
100
AcDbEntity
  8
CONTINUOUS1
100
AcDbLine
 10
164.992358
 20
265.7309099999999
 30
0.0
 11
165.0599639999999
 21
265.674325
 31
0.0
  0
LINE
  5
408
330
1E
100
AcDbEntity
  8
CONTINUOUS1
100
AcDbLine
 10
165.0599639999999
 20
265.674325
 30
0.0
 11
165.129295
 21
265.6218609999999
 31
0.0
  0
LINE
  5
409
330
1E
100
AcDbEntity
  8
CONTINUOUS1
100
AcDbLine
 10
165.129295
 20
265.6218609999999
 30
0.0
 11
165.20022
 21
265.573619
 31
0.0
  0
LINE
  5
40A
330
1E
100
AcDbEntity
  8
CONTINUOUS1
100
AcDbLine
 10
165.20022
 20
265.573619
 30
0.0
 11
165.272602
 21
265.529689
 31
0.0
  0
LINE
  5
40B
330
1E
100
AcDbEntity
  8
CONTINUOUS1
100
AcDbLine
 10
165.272602
 20
265.529689
 30
0.0
 11
165.346305
 21
265.490157
 31
0.0
  0
LINE
  5
40C
330
1E
100
AcDbEntity
  8
CONTINUOUS1
100
AcDbLine
 10
165.346305
 20
265.490157
 30
0.0
 11
165.421188
 21
265.4550959999999
 31
0.0
  0
LINE
  5
40D
330
1E
100
AcDbEntity
  8
CONTINUOUS1
100
AcDbLine
 10
165.421188
 20
265.4550959999999
 30
0.0
 11
165.4971079999999
 21
265.4245739999999
 31
0.0
  0
LINE
  5
40E
330
1E
100
AcDbEntity
  8
CONTINUOUS1
100
AcDbLine
 10
165.4971079999999
 20
265.4245739999999
 30
0.0
 11
165.573922
 21
265.3986479999999
 31
0.0
  0
LINE
  5
40F
330
1E
100
AcDbEntity
  8
CONTINUOUS1
100
AcDbLine
 10
165.573922
 20
265.3986479999999
 30
0.0
 11
165.651482
 21
265.3773689999999
 31
0.0
  0
LINE
  5
410
330
1E
100
AcDbEntity
  8
CONTINUOUS1
100
AcDbLine
 10
165.651482
 20
265.3773689999999
 30
0.0
 11
165.7296409999999
 21
265.3607759999999
 31
0.0
  0
LINE
  5
411
330
1E
100
AcDbEntity
  8
CONTINUOUS1
100
AcDbLine
 10
165.7296409999999
 20
265.3607759999999
 30
0.0
 11
165.808251
 21
265.3489009999999
 31
0.0
  0
LINE
  5
412
330
1E
100
AcDbEntity
  8
CONTINUOUS1
100
AcDbLine
 10
165.808251
 20
265.3489009999999
 30
0.0
 11
165.887161
 21
265.341768
 31
0.0
  0
LINE
  5
413
330
1E
100
AcDbEntity
  8
CONTINUOUS1
100
AcDbLine
 10
165.887161
 20
265.341768
 30
0.0
 11
165.9662219999999
 21
265.3393879999999
 31
0.0
  0
LINE
  5
414
330
1E
100
AcDbEntity
  8
CONTINUOUS1
100
AcDbLine
 10
165.9662219999999
 20
265.3393879999999
 30
0.0
 11
166.045283
 21
265.341768
 31
0.0
  0
LINE
  5
415
330
1E
100
AcDbEntity
  8
CONTINUOUS1
100
AcDbLine
 10
166.045283
 20
265.341768
 30
0.0
 11
166.1241929999999
 21
265.3489009999999
 31
0.0
  0
LINE
  5
416
330
1E
100
AcDbEntity
  8
CONTINUOUS1
100
AcDbLine
 10
166.1241929999999
 20
265.3489009999999
 30
0.0
 11
166.2028029999999
 21
265.3607759999999
 31
0.0
  0
LINE
  5
417
330
1E
100
AcDbEntity
  8
CONTINUOUS1
100
AcDbLine
 10
166.2028029999999
 20
265.3607759999999
 30
0.0
 11
166.280962
 21
265.3773689999999
 31
0.0
  0
LINE
  5
418
330
1E
100
AcDbEntity
  8
CONTINUOUS1
100
AcDbLine
 10
166.280962
 20
265.3773689999999
 30
0.0
 11
166.3585219999999
 21
265.3986479999999
 31
0.0
  0
LINE
  5
419
330
1E
100
AcDbEntity
  8
CONTINUOUS1
100
AcDbLine
 10
166.3585219999999
 20
265.3986479999999
 30
0.0
 11
166.435335
 21
265.4245739999999
 31
0.0
  0
LINE
  5
41A
330
1E
100
AcDbEntity
  8
CONTINUOUS1
100
AcDbLine
 10
166.435335
 20
265.4245739999999
 30
0.0
 11
166.511256
 21
265.4550959999999
 31
0.0
  0
LINE
  5
41B
330
1E
100
AcDbEntity
  8
CONTINUOUS1
100
AcDbLine
 10
166.511256
 20
265.4550959999999
 30
0.0
 11
166.586139
 21
265.490157
 31
0.0
  0
LINE
  5
41C
330
1E
100
AcDbEntity
  8
CONTINUOUS1
100
AcDbLine
 10
166.586139
 20
265.490157
 30
0.0
 11
166.6598419999999
 21
265.529689
 31
0.0
  0
LINE
  5
41D
330
1E
100
AcDbEntity
  8
CONTINUOUS1
100
AcDbLine
 10
166.6598419999999
 20
265.529689
 30
0.0
 11
166.732224
 21
265.573619
 31
0.0
  0
LINE
  5
41E
330
1E
100
AcDbEntity
  8
CONTINUOUS1
100
AcDbLine
 10
166.732224
 20
265.573619
 30
0.0
 11
166.8031489999999
 21
265.6218609999999
 31
0.0
  0
LINE
  5
41F
330
1E
100
AcDbEntity
  8
CONTINUOUS1
100
AcDbLine
 10
166.8031489999999
 20
265.6218609999999
 30
0.0
 11
166.8724799999999
 21
265.674325
 31
0.0
  0
LINE
  5
420
330
1E
100
AcDbEntity
  8
CONTINUOUS1
100
AcDbLine
 10
166.8724799999999
 20
265.674325
 30
0.0
 11
166.940086
 21
265.7309099999999
 31
0.0
  0
LINE
  5
421
330
1E
100
AcDbEntity
  8
CONTINUOUS1
100
AcDbLine
 10
166.940086
 20
265.7309099999999
 30
0.0
 11
167.0058379999999
 21
265.791508
 31
0.0
  0
LINE
  5
422
330
1E
100
AcDbEntity
  8
CONTINUOUS1
100
AcDbLine
 10
167.0058379999999
 20
265.791508
 30
0.0
 11
167.069612
 21
265.8560049999999
 31
0.0
  0
LINE
  5
423
330
1E
100
AcDbEntity
  8
CONTINUOUS1
100
AcDbLine
 10
167.069612
 20
265.8560049999999
 30
0.0
 11
167.131285
 21
265.924277
 31
0.0
  0
LINE
  5
424
330
1E
100
AcDbEntity
  8
CONTINUOUS1
100
AcDbLine
 10
167.131285
 20
265.924277
 30
0.0
 11
167.1907399999999
 21
265.996195
 31
0.0
  0
LINE
  5
425
330
1E
100
AcDbEntity
  8
CONTINUOUS1
100
AcDbLine
 10
167.1907399999999
 20
265.996195
 30
0.0
 11
167.247864
 21
266.0716209999999
 31
0.0
  0
LINE
  5
426
330
1E
100
AcDbEntity
  8
CONTINUOUS1
100
AcDbLine
 10
167.247864
 20
266.0716209999999
 30
0.0
 11
167.302549
 21
266.150413
 31
0.0
  0
LINE
  5
427
330
1E
100
AcDbEntity
  8
CONTINUOUS1
100
AcDbLine
 10
167.302549
 20
266.150413
 30
0.0
 11
167.3546899999999
 21
266.232419
 31
0.0
  0
LINE
  5
428
330
1E
100
AcDbEntity
  8
CONTINUOUS1
100
AcDbLine
 10
167.3546899999999
 20
266.232419
 30
0.0
 11
167.404187
 21
266.317485
 31
0.0
  0
LINE
  5
429
330
1E
100
AcDbEntity
  8
CONTINUOUS1
100
AcDbLine
 10
167.404187
 20
266.317485
 30
0.0
 11
167.450948
 21
266.405447
 31
0.0
  0
LINE
  5
42A
330
1E
100
AcDbEntity
  8
CONTINUOUS1
100
AcDbLine
 10
167.450948
 20
266.405447
 30
0.0
 11
167.494882
 21
266.496139
 31
0.0
  0
LINE
  5
42B
330
1E
100
AcDbEntity
  8
CONTINUOUS1
100
AcDbLine
 10
167.494882
 20
266.496139
 30
0.0
 11
167.535907
 21
266.589388
 31
0.0
  0
LINE
  5
42C
330
1E
100
AcDbEntity
  8
CONTINUOUS1
100
AcDbLine
 10
167.535907
 20
266.589388
 30
0.0
 11
167.5739429999999
 21
266.685017
 31
0.0
  0
LINE
  5
42D
330
1E
100
AcDbEntity
  8
CONTINUOUS1
100
AcDbLine
 10
167.5739429999999
 20
266.685017
 30
0.0
 11
167.6089189999999
 21
266.782842
 31
0.0
  0
LINE
  5
42E
330
1E
100
AcDbEntity
  8
CONTINUOUS1
100
AcDbLine
 10
167.6089189999999
 20
266.782842
 30
0.0
 11
167.6407679999999
 21
266.88268
 31
0.0
  0
LINE
  5
42F
330
1E
100
AcDbEntity
  8
CONTINUOUS1
100
AcDbLine
 10
167.6407679999999
 20
266.88268
 30
0.0
 11
167.66943
 21
266.9843379999999
 31
0.0
  0
LINE
  5
430
330
1E
100
AcDbEntity
  8
CONTINUOUS1
100
AcDbLine
 10
167.66943
 20
266.9843379999999
 30
0.0
 11
167.694849
 21
267.087624
 31
0.0
  0
LINE
  5
431
330
1E
100
AcDbEntity
  8
CONTINUOUS1
100
AcDbLine
 10
167.694849
 20
267.087624
 30
0.0
 11
167.716978
 21
267.192341
 31
0.0
  0
LINE
  5
432
330
1E
100
AcDbEntity
  8
CONTINUOUS1
100
AcDbLine
 10
167.716978
 20
267.192341
 30
0.0
 11
167.7357739999999
 21
267.298289
 31
0.0
  0
LINE
  5
433
330
1E
100
AcDbEntity
  8
CONTINUOUS1
100
AcDbLine
 10
167.7357739999999
 20
267.298289
 30
0.0
 11
167.7512019999999
 21
267.405268
 31
0.0
  0
LINE
  5
434
330
1E
100
AcDbEntity
  8
CONTINUOUS1
100
AcDbLine
 10
167.7512019999999
 20
267.405268
 30
0.0
 11
167.763231
 21
267.513073
 31
0.0
  0
LINE
  5
435
330
1E
100
AcDbEntity
  8
CONTINUOUS1
100
AcDbLine
 10
167.763231
 20
267.513073
 30
0.0
 11
167.7718409999999
 21
267.621499
 31
0.0
  0
LINE
  5
436
330
1E
100
AcDbEntity
  8
CONTINUOUS1
100
AcDbLine
 10
167.7718409999999
 20
267.621499
 30
0.0
 11
167.7770129999999
 21
267.7303399999999
 31
0.0
  0
LINE
  5
437
330
1E
100
AcDbEntity
  8
CONTINUOUS1
100
AcDbLine
 10
167.7770129999999
 20
267.7303399999999
 30
0.0
 11
167.7787379999999
 21
267.8393879999999
 31
0.0
  0
LINE
  5
438
330
1E
100
AcDbEntity
  8
CONTINUOUS1
100
AcDbLine
 10
157.919241
 20
267.8393879999999
 30
0.0
 11
157.9206889999999
 21
267.7303399999999
 31
0.0
  0
LINE
  5
439
330
1E
100
AcDbEntity
  8
CONTINUOUS1
100
AcDbLine
 10
157.9206889999999
 20
267.7303399999999
 30
0.0
 11
157.925029
 21
267.621499
 31
0.0
  0
LINE
  5
43A
330
1E
100
AcDbEntity
  8
CONTINUOUS1
100
AcDbLine
 10
157.925029
 20
267.621499
 30
0.0
 11
157.9322529999999
 21
267.513073
 31
0.0
  0
LINE
  5
43B
330
1E
100
AcDbEntity
  8
CONTINUOUS1
100
AcDbLine
 10
157.9322529999999
 20
267.513073
 30
0.0
 11
157.9423469999999
 21
267.405268
 31
0.0
  0
LINE
  5
43C
330
1E
100
AcDbEntity
  8
CONTINUOUS1
100
AcDbLine
 10
157.9423469999999
 20
267.405268
 30
0.0
 11
157.9552919999999
 21
267.298289
 31
0.0
  0
LINE
  5
43D
330
1E
100
AcDbEntity
  8
CONTINUOUS1
100
AcDbLine
 10
157.9552919999999
 20
267.298289
 30
0.0
 11
157.9710639999999
 21
267.192341
 31
0.0
  0
LINE
  5
43E
330
1E
100
AcDbEntity
  8
CONTINUOUS1
100
AcDbLine
 10
157.9710639999999
 20
267.192341
 30
0.0
 11
157.989632
 21
267.087624
 31
0.0
  0
LINE
  5
43F
330
1E
100
AcDbEntity
  8
CONTINUOUS1
100
AcDbLine
 10
157.989632
 20
267.087624
 30
0.0
 11
158.0109619999999
 21
266.9843379999999
 31
0.0
  0
LINE
  5
440
330
1E
100
AcDbEntity
  8
CONTINUOUS1
100
AcDbLine
 10
158.0109619999999
 20
266.9843379999999
 30
0.0
 11
158.0350109999999
 21
266.88268
 31
0.0
  0
LINE
  5
441
330
1E
100
AcDbEntity
  8
CONTINUOUS1
100
AcDbLine
 10
158.0350109999999
 20
266.88268
 30
0.0
 11
158.0617359999999
 21
266.782842
 31
0.0
  0
LINE
  5
442
330
1E
100
AcDbEntity
  8
CONTINUOUS1
100
AcDbLine
 10
158.0617359999999
 20
266.782842
 30
0.0
 11
158.091084
 21
266.685017
 31
0.0
  0
LINE
  5
443
330
1E
100
AcDbEntity
  8
CONTINUOUS1
100
AcDbLine
 10
158.091084
 20
266.685017
 30
0.0
 11
158.1230009999999
 21
266.589388
 31
0.0
  0
LINE
  5
444
330
1E
100
AcDbEntity
  8
CONTINUOUS1
100
AcDbLine
 10
158.1230009999999
 20
266.589388
 30
0.0
 11
158.1574239999999
 21
266.496139
 31
0.0
  0
LINE
  5
445
330
1E
100
AcDbEntity
  8
CONTINUOUS1
100
AcDbLine
 10
158.1574239999999
 20
266.496139
 30
0.0
 11
158.19429
 21
266.405447
 31
0.0
  0
LINE
  5
446
330
1E
100
AcDbEntity
  8
CONTINUOUS1
100
AcDbLine
 10
158.19429
 20
266.405447
 30
0.0
 11
158.233526
 21
266.317485
 31
0.0
  0
LINE
  5
447
330
1E
100
AcDbEntity
  8
CONTINUOUS1
100
AcDbLine
 10
158.233526
 20
266.317485
 30
0.0
 11
158.2750599999999
 21
266.232419
 31
0.0
  0
LINE
  5
448
330
1E
100
AcDbEntity
  8
CONTINUOUS1
100
AcDbLine
 10
158.2750599999999
 20
266.232419
 30
0.0
 11
158.318811
 21
266.150413
 31
0.0
  0
LINE
  5
449
330
1E
100
AcDbEntity
  8
CONTINUOUS1
100
AcDbLine
 10
158.318811
 20
266.150413
 30
0.0
 11
158.364697
 21
266.0716209999999
 31
0.0
  0
LINE
  5
44A
330
1E
100
AcDbEntity
  8
CONTINUOUS1
100
AcDbLine
 10
158.364697
 20
266.0716209999999
 30
0.0
 11
158.41263
 21
265.996195
 31
0.0
  0
LINE
  5
44B
330
1E
100
AcDbEntity
  8
CONTINUOUS1
100
AcDbLine
 10
158.41263
 20
265.996195
 30
0.0
 11
158.4625189999999
 21
265.924277
 31
0.0
  0
LINE
  5
44C
330
1E
100
AcDbEntity
  8
CONTINUOUS1
100
AcDbLine
 10
158.4625189999999
 20
265.924277
 30
0.0
 11
158.5142689999999
 21
265.8560049999999
 31
0.0
  0
LINE
  5
44D
330
1E
100
AcDbEntity
  8
CONTINUOUS1
100
AcDbLine
 10
158.5142689999999
 20
265.8560049999999
 30
0.0
 11
158.5677809999999
 21
265.791508
 31
0.0
  0
LINE
  5
44E
330
1E
100
AcDbEntity
  8
CONTINUOUS1
100
AcDbLine
 10
158.5677809999999
 20
265.791508
 30
0.0
 11
158.6229539999999
 21
265.7309099999999
 31
0.0
  0
LINE
  5
44F
330
1E
100
AcDbEntity
  8
CONTINUOUS1
100
AcDbLine
 10
158.6229539999999
 20
265.7309099999999
 30
0.0
 11
158.679682
 21
265.674325
 31
0.0
  0
LINE
  5
450
330
1E
100
AcDbEntity
  8
CONTINUOUS1
100
AcDbLine
 10
158.679682
 20
265.674325
 30
0.0
 11
158.737858
 21
265.6218609999999
 31
0.0
  0
LINE
  5
451
330
1E
100
AcDbEntity
  8
CONTINUOUS1
100
AcDbLine
 10
158.737858
 20
265.6218609999999
 30
0.0
 11
158.79737
 21
265.573619
 31
0.0
  0
LINE
  5
452
330
1E
100
AcDbEntity
  8
CONTINUOUS1
100
AcDbLine
 10
158.79737
 20
265.573619
 30
0.0
 11
158.858107
 21
265.529689
 31
0.0
  0
LINE
  5
453
330
1E
100
AcDbEntity
  8
CONTINUOUS1
100
AcDbLine
 10
158.858107
 20
265.529689
 30
0.0
 11
158.919951
 21
265.490157
 31
0.0
  0
LINE
  5
454
330
1E
100
AcDbEntity
  8
CONTINUOUS1
100
AcDbLine
 10
158.919951
 20
265.490157
 30
0.0
 11
158.9827849999999
 21
265.4550959999999
 31
0.0
  0
LINE
  5
455
330
1E
100
AcDbEntity
  8
CONTINUOUS1
100
AcDbLine
 10
158.9827849999999
 20
265.4550959999999
 30
0.0
 11
159.0464899999999
 21
265.4245739999999
 31
0.0
  0
LINE
  5
456
330
1E
100
AcDbEntity
  8
CONTINUOUS1
100
AcDbLine
 10
159.0464899999999
 20
265.4245739999999
 30
0.0
 11
159.1109439999999
 21
265.3986479999999
 31
0.0
  0
LINE
  5
457
330
1E
100
AcDbEntity
  8
CONTINUOUS1
100
AcDbLine
 10
159.1109439999999
 20
265.3986479999999
 30
0.0
 11
159.176024
 21
265.3773689999999
 31
0.0
  0
LINE
  5
458
330
1E
100
AcDbEntity
  8
CONTINUOUS1
100
AcDbLine
 10
159.176024
 20
265.3773689999999
 30
0.0
 11
159.241608
 21
265.3607759999999
 31
0.0
  0
LINE
  5
459
330
1E
100
AcDbEntity
  8
CONTINUOUS1
100
AcDbLine
 10
159.241608
 20
265.3607759999999
 30
0.0
 11
159.307569
 21
265.3489009999999
 31
0.0
  0
LINE
  5
45A
330
1E
100
AcDbEntity
  8
CONTINUOUS1
100
AcDbLine
 10
159.307569
 20
265.3489009999999
 30
0.0
 11
159.373783
 21
265.341768
 31
0.0
  0
LINE
  5
45B
330
1E
100
AcDbEntity
  8
CONTINUOUS1
100
AcDbLine
 10
159.373783
 20
265.341768
 30
0.0
 11
159.440123
 21
265.3393879999999
 31
0.0
  0
LINE
  5
45C
330
1E
100
AcDbEntity
  8
CONTINUOUS1
100
AcDbLine
 10
159.440123
 20
265.3393879999999
 30
0.0
 11
159.5064629999999
 21
265.341768
 31
0.0
  0
LINE
  5
45D
330
1E
100
AcDbEntity
  8
CONTINUOUS1
100
AcDbLine
 10
159.5064629999999
 20
265.341768
 30
0.0
 11
159.5726759999999
 21
265.3489009999999
 31
0.0
  0
LINE
  5
45E
330
1E
100
AcDbEntity
  8
CONTINUOUS1
100
AcDbLine
 10
159.5726759999999
 20
265.3489009999999
 30
0.0
 11
159.638637
 21
265.3607759999999
 31
0.0
  0
LINE
  5
45F
330
1E
100
AcDbEntity
  8
CONTINUOUS1
100
AcDbLine
 10
159.638637
 20
265.3607759999999
 30
0.0
 11
159.7042209999999
 21
265.3773689999999
 31
0.0
  0
LINE
  5
460
330
1E
100
AcDbEntity
  8
CONTINUOUS1
100
AcDbLine
 10
159.7042209999999
 20
265.3773689999999
 30
0.0
 11
159.769302
 21
265.3986479999999
 31
0.0
  0
LINE
  5
461
330
1E
100
AcDbEntity
  8
CONTINUOUS1
100
AcDbLine
 10
159.769302
 20
265.3986479999999
 30
0.0
 11
159.833756
 21
265.4245739999999
 31
0.0
  0
LINE
  5
462
330
1E
100
AcDbEntity
  8
CONTINUOUS1
100
AcDbLine
 10
159.833756
 20
265.4245739999999
 30
0.0
 11
159.89746
 21
265.4550959999999
 31
0.0
  0
LINE
  5
463
330
1E
100
AcDbEntity
  8
CONTINUOUS1
100
AcDbLine
 10
159.89746
 20
265.4550959999999
 30
0.0
 11
159.9602949999999
 21
265.490157
 31
0.0
  0
LINE
  5
464
330
1E
100
AcDbEntity
  8
CONTINUOUS1
100
AcDbLine
 10
159.9602949999999
 20
265.490157
 30
0.0
 11
160.0221389999999
 21
265.529689
 31
0.0
  0
LINE
  5
465
330
1E
100
AcDbEntity
  8
CONTINUOUS1
100
AcDbLine
 10
160.0221389999999
 20
265.529689
 30
0.0
 11
160.0828749999999
 21
265.573619
 31
0.0
  0
LINE
  5
466
330
1E
100
AcDbEntity
  8
CONTINUOUS1
100
AcDbLine
 10
160.0828749999999
 20
265.573619
 30
0.0
 11
160.1423879999999
 21
265.6218609999999
 31
0.0
  0
LINE
  5
467
330
1E
100
AcDbEntity
  8
CONTINUOUS1
100
AcDbLine
 10
160.1423879999999
 20
265.6218609999999
 30
0.0
 11
160.2005629999999
 21
265.674325
 31
0.0
  0
LINE
  5
468
330
1E
100
AcDbEntity
  8
CONTINUOUS1
100
AcDbLine
 10
160.2005629999999
 20
265.674325
 30
0.0
 11
160.257292
 21
265.7309099999999
 31
0.0
  0
LINE
  5
469
330
1E
100
AcDbEntity
  8
CONTINUOUS1
100
AcDbLine
 10
160.257292
 20
265.7309099999999
 30
0.0
 11
160.3124639999999
 21
265.791508
 31
0.0
  0
LINE
  5
46A
330
1E
100
AcDbEntity
  8
CONTINUOUS1
100
AcDbLine
 10
160.3124639999999
 20
265.791508
 30
0.0
 11
160.365977
 21
265.8560049999999
 31
0.0
  0
LINE
  5
46B
330
1E
100
AcDbEntity
  8
CONTINUOUS1
100
AcDbLine
 10
160.365977
 20
265.8560049999999
 30
0.0
 11
160.4177259999999
 21
265.924277
 31
0.0
  0
LINE
  5
46C
330
1E
100
AcDbEntity
  8
CONTINUOUS1
100
AcDbLine
 10
160.4177259999999
 20
265.924277
 30
0.0
 11
160.4676149999999
 21
265.996195
 31
0.0
  0
LINE
  5
46D
330
1E
100
AcDbEntity
  8
CONTINUOUS1
100
AcDbLine
 10
160.4676149999999
 20
265.996195
 30
0.0
 11
160.515548
 21
266.0716209999999
 31
0.0
  0
LINE
  5
46E
330
1E
100
AcDbEntity
  8
CONTINUOUS1
100
AcDbLine
 10
160.515548
 20
266.0716209999999
 30
0.0
 11
160.561434
 21
266.150413
 31
0.0
  0
LINE
  5
46F
330
1E
100
AcDbEntity
  8
CONTINUOUS1
100
AcDbLine
 10
160.561434
 20
266.150413
 30
0.0
 11
160.605185
 21
266.232419
 31
0.0
  0
LINE
  5
470
330
1E
100
AcDbEntity
  8
CONTINUOUS1
100
AcDbLine
 10
160.605185
 20
266.232419
 30
0.0
 11
160.646719
 21
266.317485
 31
0.0
  0
LINE
  5
471
330
1E
100
AcDbEntity
  8
CONTINUOUS1
100
AcDbLine
 10
160.646719
 20
266.317485
 30
0.0
 11
160.685956
 21
266.405447
 31
0.0
  0
LINE
  5
472
330
1E
100
AcDbEntity
  8
CONTINUOUS1
100
AcDbLine
 10
160.685956
 20
266.405447
 30
0.0
 11
160.722821
 21
266.496139
 31
0.0
  0
LINE
  5
473
330
1E
100
AcDbEntity
  8
CONTINUOUS1
100
AcDbLine
 10
160.722821
 20
266.496139
 30
0.0
 11
160.7572449999999
 21
266.589388
 31
0.0
  0
LINE
  5
474
330
1E
100
AcDbEntity
  8
CONTINUOUS1
100
AcDbLine
 10
160.7572449999999
 20
266.589388
 30
0.0
 11
160.789161
 21
266.685017
 31
0.0
  0
LINE
  5
475
330
1E
100
AcDbEntity
  8
CONTINUOUS1
100
AcDbLine
 10
160.789161
 20
266.685017
 30
0.0
 11
160.818509
 21
266.782842
 31
0.0
  0
LINE
  5
476
330
1E
100
AcDbEntity
  8
CONTINUOUS1
100
AcDbLine
 10
160.818509
 20
266.782842
 30
0.0
 11
160.845234
 21
266.88268
 31
0.0
  0
LINE
  5
477
330
1E
100
AcDbEntity
  8
CONTINUOUS1
100
AcDbLine
 10
160.845234
 20
266.88268
 30
0.0
 11
160.869284
 21
266.9843379999999
 31
0.0
  0
LINE
  5
478
330
1E
100
AcDbEntity
  8
CONTINUOUS1
100
AcDbLine
 10
160.869284
 20
266.9843379999999
 30
0.0
 11
160.890613
 21
267.087624
 31
0.0
  0
LINE
  5
479
330
1E
100
AcDbEntity
  8
CONTINUOUS1
100
AcDbLine
 10
160.890613
 20
267.087624
 30
0.0
 11
160.909181
 21
267.192341
 31
0.0
  0
LINE
  5
47A
330
1E
100
AcDbEntity
  8
CONTINUOUS1
100
AcDbLine
 10
160.909181
 20
267.192341
 30
0.0
 11
160.924953
 21
267.298289
 31
0.0
  0
LINE
  5
47B
330
1E
100
AcDbEntity
  8
CONTINUOUS1
100
AcDbLine
 10
160.924953
 20
267.298289
 30
0.0
 11
160.9378979999999
 21
267.405268
 31
0.0
  0
LINE
  5
47C
330
1E
100
AcDbEntity
  8
CONTINUOUS1
100
AcDbLine
 10
160.9378979999999
 20
267.405268
 30
0.0
 11
160.947993
 21
267.513073
 31
0.0
  0
LINE
  5
47D
330
1E
100
AcDbEntity
  8
CONTINUOUS1
100
AcDbLine
 10
160.947993
 20
267.513073
 30
0.0
 11
160.955217
 21
267.621499
 31
0.0
  0
LINE
  5
47E
330
1E
100
AcDbEntity
  8
CONTINUOUS1
100
AcDbLine
 10
160.955217
 20
267.621499
 30
0.0
 11
160.9595559999999
 21
267.7303399999999
 31
0.0
  0
LINE
  5
47F
330
1E
100
AcDbEntity
  8
CONTINUOUS1
100
AcDbLine
 10
160.9595559999999
 20
267.7303399999999
 30
0.0
 11
160.9610039999999
 21
267.8393879999999
 31
0.0
  0
LINE
  5
480
330
1E
100
AcDbEntity
  8
CONTINUOUS1
100
AcDbLine
 10
152.963379
 20
267.8393879999999
 30
0.0
 11
152.963379
 21
277.8393879999999
 31
0.0
  0
LINE
  5
481
330
1E
100
AcDbEntity
  8
CONTINUOUS1
100
AcDbLine
 10
151.0551889999999
 20
277.8393879999999
 30
0.0
 11
151.0551889999999
 21
267.8393879999999
 31
0.0
  0
LINE
  5
482
330
1E
100
AcDbEntity
  8
CONTINUOUS1
100
AcDbLine
 10
149.4367009999999
 20
277.8393879999999
 30
0.0
 11
149.4367009999999
 21
267.8393879999999
 31
0.0
  0
LINE
  5
483
330
1E
100
AcDbEntity
  8
CONTINUOUS1
100
AcDbLine
 10
148.268091
 20
277.8393879999999
 30
0.0
 11
148.268091
 21
267.8393879999999
 31
0.0
  0
LINE
  5
484
330
1E
100
AcDbEntity
  8
CONTINUOUS1
100
AcDbLine
 10
147.4463629999999
 20
277.8393879999999
 30
0.0
 11
147.4463629999999
 21
267.8393879999999
 31
0.0
  0
LINE
  5
485
330
1E
100
AcDbEntity
  8
CONTINUOUS1
100
AcDbLine
 10
152.963379
 20
267.8393879999999
 30
0.0
 11
152.964505
 21
267.7303399999999
 31
0.0
  0
LINE
  5
486
330
1E
100
AcDbEntity
  8
CONTINUOUS1
100
AcDbLine
 10
152.964505
 20
267.7303399999999
 30
0.0
 11
152.967881
 21
267.621499
 31
0.0
  0
LINE
  5
487
330
1E
100
AcDbEntity
  8
CONTINUOUS1
100
AcDbLine
 10
152.967881
 20
267.621499
 30
0.0
 11
152.9735
 21
267.513073
 31
0.0
  0
LINE
  5
488
330
1E
100
AcDbEntity
  8
CONTINUOUS1
100
AcDbLine
 10
152.9735
 20
267.513073
 30
0.0
 11
152.981352
 21
267.405268
 31
0.0
  0
LINE
  5
489
330
1E
100
AcDbEntity
  8
CONTINUOUS1
100
AcDbLine
 10
152.981352
 20
267.405268
 30
0.0
 11
152.991422
 21
267.298289
 31
0.0
  0
LINE
  5
48A
330
1E
100
AcDbEntity
  8
CONTINUOUS1
100
AcDbLine
 10
152.991422
 20
267.298289
 30
0.0
 11
153.0036899999999
 21
267.192341
 31
0.0
  0
LINE
  5
48B
330
1E
100
AcDbEntity
  8
CONTINUOUS1
100
AcDbLine
 10
153.0036899999999
 20
267.192341
 30
0.0
 11
153.018134
 21
267.087624
 31
0.0
  0
LINE
  5
48C
330
1E
100
AcDbEntity
  8
CONTINUOUS1
100
AcDbLine
 10
153.018134
 20
267.087624
 30
0.0
 11
153.034725
 21
266.9843379999999
 31
0.0
  0
LINE
  5
48D
330
1E
100
AcDbEntity
  8
CONTINUOUS1
100
AcDbLine
 10
153.034725
 20
266.9843379999999
 30
0.0
 11
153.053432
 21
266.88268
 31
0.0
  0
LINE
  5
48E
330
1E
100
AcDbEntity
  8
CONTINUOUS1
100
AcDbLine
 10
153.053432
 20
266.88268
 30
0.0
 11
153.0742199999999
 21
266.782842
 31
0.0
  0
LINE
  5
48F
330
1E
100
AcDbEntity
  8
CONTINUOUS1
100
AcDbLine
 10
153.0742199999999
 20
266.782842
 30
0.0
 11
153.097049
 21
266.685017
 31
0.0
  0
LINE
  5
490
330
1E
100
AcDbEntity
  8
CONTINUOUS1
100
AcDbLine
 10
153.097049
 20
266.685017
 30
0.0
 11
153.121876
 21
266.589388
 31
0.0
  0
LINE
  5
491
330
1E
100
AcDbEntity
  8
CONTINUOUS1
100
AcDbLine
 10
153.121876
 20
266.589388
 30
0.0
 11
153.148653
 21
266.496139
 31
0.0
  0
LINE
  5
492
330
1E
100
AcDbEntity
  8
CONTINUOUS1
100
AcDbLine
 10
153.148653
 20
266.496139
 30
0.0
 11
153.177329
 21
266.405447
 31
0.0
  0
LINE
  5
493
330
1E
100
AcDbEntity
  8
CONTINUOUS1
100
AcDbLine
 10
153.177329
 20
266.405447
 30
0.0
 11
153.207849
 21
266.317485
 31
0.0
  0
LINE
  5
494
330
1E
100
AcDbEntity
  8
CONTINUOUS1
100
AcDbLine
 10
153.207849
 20
266.317485
 30
0.0
 11
153.240157
 21
266.232419
 31
0.0
  0
LINE
  5
495
330
1E
100
AcDbEntity
  8
CONTINUOUS1
100
AcDbLine
 10
153.240157
 20
266.232419
 30
0.0
 11
153.2741889999999
 21
266.150413
 31
0.0
  0
LINE
  5
496
330
1E
100
AcDbEntity
  8
CONTINUOUS1
100
AcDbLine
 10
153.2741889999999
 20
266.150413
 30
0.0
 11
153.309882
 21
266.0716209999999
 31
0.0
  0
LINE
  5
497
330
1E
100
AcDbEntity
  8
CONTINUOUS1
100
AcDbLine
 10
153.309882
 20
266.0716209999999
 30
0.0
 11
153.3471669999999
 21
265.996195
 31
0.0
  0
LINE
  5
498
330
1E
100
AcDbEntity
  8
CONTINUOUS1
100
AcDbLine
 10
153.3471669999999
 20
265.996195
 30
0.0
 11
153.385974
 21
265.924277
 31
0.0
  0
LINE
  5
499
330
1E
100
AcDbEntity
  8
CONTINUOUS1
100
AcDbLine
 10
153.385974
 20
265.924277
 30
0.0
 11
153.426228
 21
265.8560049999999
 31
0.0
  0
LINE
  5
49A
330
1E
100
AcDbEntity
  8
CONTINUOUS1
100
AcDbLine
 10
153.426228
 20
265.8560049999999
 30
0.0
 11
153.4678529999999
 21
265.791508
 31
0.0
  0
LINE
  5
49B
330
1E
100
AcDbEntity
  8
CONTINUOUS1
100
AcDbLine
 10
153.4678529999999
 20
265.791508
 30
0.0
 11
153.51077
 21
265.7309099999999
 31
0.0
  0
LINE
  5
49C
330
1E
100
AcDbEntity
  8
CONTINUOUS1
100
AcDbLine
 10
153.51077
 20
265.7309099999999
 30
0.0
 11
153.554897
 21
265.674325
 31
0.0
  0
LINE
  5
49D
330
1E
100
AcDbEntity
  8
CONTINUOUS1
100
AcDbLine
 10
153.554897
 20
265.674325
 30
0.0
 11
153.60015
 21
265.6218609999999
 31
0.0
  0
LINE
  5
49E
330
1E
100
AcDbEntity
  8
CONTINUOUS1
100
AcDbLine
 10
153.60015
 20
265.6218609999999
 30
0.0
 11
153.6464419999999
 21
265.573619
 31
0.0
  0
LINE
  5
49F
330
1E
100
AcDbEntity
  8
CONTINUOUS1
100
AcDbLine
 10
153.6464419999999
 20
265.573619
 30
0.0
 11
153.693687
 21
265.529689
 31
0.0
  0
LINE
  5
4A0
330
1E
100
AcDbEntity
  8
CONTINUOUS1
100
AcDbLine
 10
153.693687
 20
265.529689
 30
0.0
 11
153.741793
 21
265.490157
 31
0.0
  0
LINE
  5
4A1
330
1E
100
AcDbEntity
  8
CONTINUOUS1
100
AcDbLine
 10
153.741793
 20
265.490157
 30
0.0
 11
153.7906689999999
 21
265.4550959999999
 31
0.0
  0
LINE
  5
4A2
330
1E
100
AcDbEntity
  8
CONTINUOUS1
100
AcDbLine
 10
153.7906689999999
 20
265.4550959999999
 30
0.0
 11
153.840223
 21
265.4245739999999
 31
0.0
  0
LINE
  5
4A3
330
1E
100
AcDbEntity
  8
CONTINUOUS1
100
AcDbLine
 10
153.840223
 20
265.4245739999999
 30
0.0
 11
153.890359
 21
265.3986479999999
 31
0.0
  0
LINE
  5
4A4
330
1E
100
AcDbEntity
  8
CONTINUOUS1
100
AcDbLine
 10
153.890359
 20
265.3986479999999
 30
0.0
 11
153.940983
 21
265.3773689999999
 31
0.0
  0
LINE
  5
4A5
330
1E
100
AcDbEntity
  8
CONTINUOUS1
100
AcDbLine
 10
153.940983
 20
265.3773689999999
 30
0.0
 11
153.991998
 21
265.3607759999999
 31
0.0
  0
LINE
  5
4A6
330
1E
100
AcDbEntity
  8
CONTINUOUS1
100
AcDbLine
 10
153.991998
 20
265.3607759999999
 30
0.0
 11
154.0433059999999
 21
265.3489009999999
 31
0.0
  0
LINE
  5
4A7
330
1E
100
AcDbEntity
  8
CONTINUOUS1
100
AcDbLine
 10
154.0433059999999
 20
265.3489009999999
 30
0.0
 11
154.094811
 21
265.341768
 31
0.0
  0
LINE
  5
4A8
330
1E
100
AcDbEntity
  8
CONTINUOUS1
100
AcDbLine
 10
154.094811
 20
265.341768
 30
0.0
 11
154.1464149999999
 21
265.3393879999999
 31
0.0
  0
LINE
  5
4A9
330
1E
100
AcDbEntity
  8
CONTINUOUS1
100
AcDbLine
 10
154.1464149999999
 20
265.3393879999999
 30
0.0
 11
154.1980179999999
 21
265.341768
 31
0.0
  0
LINE
  5
4AA
330
1E
100
AcDbEntity
  8
CONTINUOUS1
100
AcDbLine
 10
154.1980179999999
 20
265.341768
 30
0.0
 11
154.249523
 21
265.3489009999999
 31
0.0
  0
LINE
  5
4AB
330
1E
100
AcDbEntity
  8
CONTINUOUS1
100
AcDbLine
 10
154.249523
 20
265.3489009999999
 30
0.0
 11
154.300832
 21
265.3607759999999
 31
0.0
  0
LINE
  5
4AC
330
1E
100
AcDbEntity
  8
CONTINUOUS1
100
AcDbLine
 10
154.300832
 20
265.3607759999999
 30
0.0
 11
154.3518469999999
 21
265.3773689999999
 31
0.0
  0
LINE
  5
4AD
330
1E
100
AcDbEntity
  8
CONTINUOUS1
100
AcDbLine
 10
154.3518469999999
 20
265.3773689999999
 30
0.0
 11
154.4024709999999
 21
265.3986479999999
 31
0.0
  0
LINE
  5
4AE
330
1E
100
AcDbEntity
  8
CONTINUOUS1
100
AcDbLine
 10
154.4024709999999
 20
265.3986479999999
 30
0.0
 11
154.452607
 21
265.4245739999999
 31
0.0
  0
LINE
  5
4AF
330
1E
100
AcDbEntity
  8
CONTINUOUS1
100
AcDbLine
 10
154.452607
 20
265.4245739999999
 30
0.0
 11
154.50216
 21
265.4550959999999
 31
0.0
  0
LINE
  5
4B0
330
1E
100
AcDbEntity
  8
CONTINUOUS1
100
AcDbLine
 10
154.50216
 20
265.4550959999999
 30
0.0
 11
154.551037
 21
265.490157
 31
0.0
  0
LINE
  5
4B1
330
1E
100
AcDbEntity
  8
CONTINUOUS1
100
AcDbLine
 10
154.551037
 20
265.490157
 30
0.0
 11
154.5991429999999
 21
265.529689
 31
0.0
  0
LINE
  5
4B2
330
1E
100
AcDbEntity
  8
CONTINUOUS1
100
AcDbLine
 10
154.5991429999999
 20
265.529689
 30
0.0
 11
154.646387
 21
265.573619
 31
0.0
  0
LINE
  5
4B3
330
1E
100
AcDbEntity
  8
CONTINUOUS1
100
AcDbLine
 10
154.646387
 20
265.573619
 30
0.0
 11
154.69268
 21
265.6218609999999
 31
0.0
  0
LINE
  5
4B4
330
1E
100
AcDbEntity
  8
CONTINUOUS1
100
AcDbLine
 10
154.69268
 20
265.6218609999999
 30
0.0
 11
154.737933
 21
265.674325
 31
0.0
  0
LINE
  5
4B5
330
1E
100
AcDbEntity
  8
CONTINUOUS1
100
AcDbLine
 10
154.737933
 20
265.674325
 30
0.0
 11
154.782059
 21
265.7309099999999
 31
0.0
  0
LINE
  5
4B6
330
1E
100
AcDbEntity
  8
CONTINUOUS1
100
AcDbLine
 10
154.782059
 20
265.7309099999999
 30
0.0
 11
154.824976
 21
265.791508
 31
0.0
  0
LINE
  5
4B7
330
1E
100
AcDbEntity
  8
CONTINUOUS1
100
AcDbLine
 10
154.824976
 20
265.791508
 30
0.0
 11
154.8666009999999
 21
265.8560049999999
 31
0.0
  0
LINE
  5
4B8
330
1E
100
AcDbEntity
  8
CONTINUOUS1
100
AcDbLine
 10
154.8666009999999
 20
265.8560049999999
 30
0.0
 11
154.906855
 21
265.924277
 31
0.0
  0
LINE
  5
4B9
330
1E
100
AcDbEntity
  8
CONTINUOUS1
100
AcDbLine
 10
154.906855
 20
265.924277
 30
0.0
 11
154.9456619999999
 21
265.996195
 31
0.0
  0
LINE
  5
4BA
330
1E
100
AcDbEntity
  8
CONTINUOUS1
100
AcDbLine
 10
154.9456619999999
 20
265.996195
 30
0.0
 11
154.9829469999999
 21
266.0716209999999
 31
0.0
  0
LINE
  5
4BB
330
1E
100
AcDbEntity
  8
CONTINUOUS1
100
AcDbLine
 10
154.9829469999999
 20
266.0716209999999
 30
0.0
 11
155.01864
 21
266.150413
 31
0.0
  0
LINE
  5
4BC
330
1E
100
AcDbEntity
  8
CONTINUOUS1
100
AcDbLine
 10
155.01864
 20
266.150413
 30
0.0
 11
155.052673
 21
266.232419
 31
0.0
  0
LINE
  5
4BD
330
1E
100
AcDbEntity
  8
CONTINUOUS1
100
AcDbLine
 10
155.052673
 20
266.232419
 30
0.0
 11
155.0849799999999
 21
266.317485
 31
0.0
  0
LINE
  5
4BE
330
1E
100
AcDbEntity
  8
CONTINUOUS1
100
AcDbLine
 10
155.0849799999999
 20
266.317485
 30
0.0
 11
155.115501
 21
266.405447
 31
0.0
  0
LINE
  5
4BF
330
1E
100
AcDbEntity
  8
CONTINUOUS1
100
AcDbLine
 10
155.115501
 20
266.405447
 30
0.0
 11
155.144177
 21
266.496139
 31
0.0
  0
LINE
  5
4C0
330
1E
100
AcDbEntity
  8
CONTINUOUS1
100
AcDbLine
 10
155.144177
 20
266.496139
 30
0.0
 11
155.170954
 21
266.589388
 31
0.0
  0
LINE
  5
4C1
330
1E
100
AcDbEntity
  8
CONTINUOUS1
100
AcDbLine
 10
155.170954
 20
266.589388
 30
0.0
 11
155.19578
 21
266.685017
 31
0.0
  0
LINE
  5
4C2
330
1E
100
AcDbEntity
  8
CONTINUOUS1
100
AcDbLine
 10
155.19578
 20
266.685017
 30
0.0
 11
155.218609
 21
266.782842
 31
0.0
  0
LINE
  5
4C3
330
1E
100
AcDbEntity
  8
CONTINUOUS1
100
AcDbLine
 10
155.218609
 20
266.782842
 30
0.0
 11
155.2393969999999
 21
266.88268
 31
0.0
  0
LINE
  5
4C4
330
1E
100
AcDbEntity
  8
CONTINUOUS1
100
AcDbLine
 10
155.2393969999999
 20
266.88268
 30
0.0
 11
155.258105
 21
266.9843379999999
 31
0.0
  0
LINE
  5
4C5
330
1E
100
AcDbEntity
  8
CONTINUOUS1
100
AcDbLine
 10
155.258105
 20
266.9843379999999
 30
0.0
 11
155.274696
 21
267.087624
 31
0.0
  0
LINE
  5
4C6
330
1E
100
AcDbEntity
  8
CONTINUOUS1
100
AcDbLine
 10
155.274696
 20
267.087624
 30
0.0
 11
155.28914
 21
267.192341
 31
0.0
  0
LINE
  5
4C7
330
1E
100
AcDbEntity
  8
CONTINUOUS1
100
AcDbLine
 10
155.28914
 20
267.192341
 30
0.0
 11
155.301408
 21
267.298289
 31
0.0
  0
LINE
  5
4C8
330
1E
100
AcDbEntity
  8
CONTINUOUS1
100
AcDbLine
 10
155.301408
 20
267.298289
 30
0.0
 11
155.311478
 21
267.405268
 31
0.0
  0
LINE
  5
4C9
330
1E
100
AcDbEntity
  8
CONTINUOUS1
100
AcDbLine
 10
155.311478
 20
267.405268
 30
0.0
 11
155.319329
 21
267.513073
 31
0.0
  0
LINE
  5
4CA
330
1E
100
AcDbEntity
  8
CONTINUOUS1
100
AcDbLine
 10
155.319329
 20
267.513073
 30
0.0
 11
155.3249489999999
 21
267.621499
 31
0.0
  0
LINE
  5
4CB
330
1E
100
AcDbEntity
  8
CONTINUOUS1
100
AcDbLine
 10
155.3249489999999
 20
267.621499
 30
0.0
 11
155.328324
 21
267.7303399999999
 31
0.0
  0
LINE
  5
4CC
330
1E
100
AcDbEntity
  8
CONTINUOUS1
100
AcDbLine
 10
155.328324
 20
267.7303399999999
 30
0.0
 11
155.3294499999999
 21
267.8393879999999
 31
0.0
  0
LINE
  5
4CD
330
1E
100
AcDbEntity
  8
CONTINUOUS1
100
AcDbLine
 10
149.4367009999999
 20
267.8393879999999
 30
0.0
 11
149.4374709999999
 21
267.7303399999999
 31
0.0
  0
LINE
  5
4CE
330
1E
100
AcDbEntity
  8
CONTINUOUS1
100
AcDbLine
 10
149.4374709999999
 20
267.7303399999999
 30
0.0
 11
149.43978
 21
267.621499
 31
0.0
  0
LINE
  5
4CF
330
1E
100
AcDbEntity
  8
CONTINUOUS1
100
AcDbLine
 10
149.43978
 20
267.621499
 30
0.0
 11
149.4436239999999
 21
267.513073
 31
0.0
  0
LINE
  5
4D0
330
1E
100
AcDbEntity
  8
CONTINUOUS1
100
AcDbLine
 10
149.4436239999999
 20
267.513073
 30
0.0
 11
149.448995
 21
267.405268
 31
0.0
  0
LINE
  5
4D1
330
1E
100
AcDbEntity
  8
CONTINUOUS1
100
AcDbLine
 10
149.448995
 20
267.405268
 30
0.0
 11
149.455883
 21
267.298289
 31
0.0
  0
LINE
  5
4D2
330
1E
100
AcDbEntity
  8
CONTINUOUS1
100
AcDbLine
 10
149.455883
 20
267.298289
 30
0.0
 11
149.4642749999999
 21
267.192341
 31
0.0
  0
LINE
  5
4D3
330
1E
100
AcDbEntity
  8
CONTINUOUS1
100
AcDbLine
 10
149.4642749999999
 20
267.192341
 30
0.0
 11
149.474155
 21
267.087624
 31
0.0
  0
LINE
  5
4D4
330
1E
100
AcDbEntity
  8
CONTINUOUS1
100
AcDbLine
 10
149.474155
 20
267.087624
 30
0.0
 11
149.485504
 21
266.9843379999999
 31
0.0
  0
LINE
  5
4D5
330
1E
100
AcDbEntity
  8
CONTINUOUS1
100
AcDbLine
 10
149.485504
 20
266.9843379999999
 30
0.0
 11
149.498301
 21
266.88268
 31
0.0
  0
LINE
  5
4D6
330
1E
100
AcDbEntity
  8
CONTINUOUS1
100
AcDbLine
 10
149.498301
 20
266.88268
 30
0.0
 11
149.5125209999999
 21
266.782842
 31
0.0
  0
LINE
  5
4D7
330
1E
100
AcDbEntity
  8
CONTINUOUS1
100
AcDbLine
 10
149.5125209999999
 20
266.782842
 30
0.0
 11
149.528137
 21
266.685017
 31
0.0
  0
LINE
  5
4D8
330
1E
100
AcDbEntity
  8
CONTINUOUS1
100
AcDbLine
 10
149.528137
 20
266.685017
 30
0.0
 11
149.5451189999999
 21
266.589388
 31
0.0
  0
LINE
  5
4D9
330
1E
100
AcDbEntity
  8
CONTINUOUS1
100
AcDbLine
 10
149.5451189999999
 20
266.589388
 30
0.0
 11
149.563435
 21
266.496139
 31
0.0
  0
LINE
  5
4DA
330
1E
100
AcDbEntity
  8
CONTINUOUS1
100
AcDbLine
 10
149.563435
 20
266.496139
 30
0.0
 11
149.583051
 21
266.405447
 31
0.0
  0
LINE
  5
4DB
330
1E
100
AcDbEntity
  8
CONTINUOUS1
100
AcDbLine
 10
149.583051
 20
266.405447
 30
0.0
 11
149.6039279999999
 21
266.317485
 31
0.0
  0
LINE
  5
4DC
330
1E
100
AcDbEntity
  8
CONTINUOUS1
100
AcDbLine
 10
149.6039279999999
 20
266.317485
 30
0.0
 11
149.6260279999999
 21
266.232419
 31
0.0
  0
LINE
  5
4DD
330
1E
100
AcDbEntity
  8
CONTINUOUS1
100
AcDbLine
 10
149.6260279999999
 20
266.232419
 30
0.0
 11
149.649308
 21
266.150413
 31
0.0
  0
LINE
  5
4DE
330
1E
100
AcDbEntity
  8
CONTINUOUS1
100
AcDbLine
 10
149.649308
 20
266.150413
 30
0.0
 11
149.6737229999999
 21
266.0716209999999
 31
0.0
  0
LINE
  5
4DF
330
1E
100
AcDbEntity
  8
CONTINUOUS1
100
AcDbLine
 10
149.6737229999999
 20
266.0716209999999
 30
0.0
 11
149.6992269999999
 21
265.996195
 31
0.0
  0
LINE
  5
4E0
330
1E
100
AcDbEntity
  8
CONTINUOUS1
100
AcDbLine
 10
149.6992269999999
 20
265.996195
 30
0.0
 11
149.725773
 21
265.924277
 31
0.0
  0
LINE
  5
4E1
330
1E
100
AcDbEntity
  8
CONTINUOUS1
100
AcDbLine
 10
149.725773
 20
265.924277
 30
0.0
 11
149.753308
 21
265.8560049999999
 31
0.0
  0
LINE
  5
4E2
330
1E
100
AcDbEntity
  8
CONTINUOUS1
100
AcDbLine
 10
149.753308
 20
265.8560049999999
 30
0.0
 11
149.7817819999999
 21
265.791508
 31
0.0
  0
LINE
  5
4E3
330
1E
100
AcDbEntity
  8
CONTINUOUS1
100
AcDbLine
 10
149.7817819999999
 20
265.791508
 30
0.0
 11
149.811138
 21
265.7309099999999
 31
0.0
  0
LINE
  5
4E4
330
1E
100
AcDbEntity
  8
CONTINUOUS1
100
AcDbLine
 10
149.811138
 20
265.7309099999999
 30
0.0
 11
149.8413229999999
 21
265.674325
 31
0.0
  0
LINE
  5
4E5
330
1E
100
AcDbEntity
  8
CONTINUOUS1
100
AcDbLine
 10
149.8413229999999
 20
265.674325
 30
0.0
 11
149.872278
 21
265.6218609999999
 31
0.0
  0
LINE
  5
4E6
330
1E
100
AcDbEntity
  8
CONTINUOUS1
100
AcDbLine
 10
149.872278
 20
265.6218609999999
 30
0.0
 11
149.9039439999999
 21
265.573619
 31
0.0
  0
LINE
  5
4E7
330
1E
100
AcDbEntity
  8
CONTINUOUS1
100
AcDbLine
 10
149.9039439999999
 20
265.573619
 30
0.0
 11
149.936261
 21
265.529689
 31
0.0
  0
LINE
  5
4E8
330
1E
100
AcDbEntity
  8
CONTINUOUS1
100
AcDbLine
 10
149.936261
 20
265.529689
 30
0.0
 11
149.9691669999999
 21
265.490157
 31
0.0
  0
LINE
  5
4E9
330
1E
100
AcDbEntity
  8
CONTINUOUS1
100
AcDbLine
 10
149.9691669999999
 20
265.490157
 30
0.0
 11
150.0026
 21
265.4550959999999
 31
0.0
  0
LINE
  5
4EA
330
1E
100
AcDbEntity
  8
CONTINUOUS1
100
AcDbLine
 10
150.0026
 20
265.4550959999999
 30
0.0
 11
150.0364969999999
 21
265.4245739999999
 31
0.0
  0
LINE
  5
4EB
330
1E
100
AcDbEntity
  8
CONTINUOUS1
100
AcDbLine
 10
150.0364969999999
 20
265.4245739999999
 30
0.0
 11
150.0707919999999
 21
265.3986479999999
 31
0.0
  0
LINE
  5
4EC
330
1E
100
AcDbEntity
  8
CONTINUOUS1
100
AcDbLine
 10
150.0707919999999
 20
265.3986479999999
 30
0.0
 11
150.105421
 21
265.3773689999999
 31
0.0
  0
LINE
  5
4ED
330
1E
100
AcDbEntity
  8
CONTINUOUS1
100
AcDbLine
 10
150.105421
 20
265.3773689999999
 30
0.0
 11
150.1403169999999
 21
265.3607759999999
 31
0.0
  0
LINE
  5
4EE
330
1E
100
AcDbEntity
  8
CONTINUOUS1
100
AcDbLine
 10
150.1403169999999
 20
265.3607759999999
 30
0.0
 11
150.175415
 21
265.3489009999999
 31
0.0
  0
LINE
  5
4EF
330
1E
100
AcDbEntity
  8
CONTINUOUS1
100
AcDbLine
 10
150.175415
 20
265.3489009999999
 30
0.0
 11
150.210646
 21
265.341768
 31
0.0
  0
LINE
  5
4F0
330
1E
100
AcDbEntity
  8
CONTINUOUS1
100
AcDbLine
 10
150.210646
 20
265.341768
 30
0.0
 11
150.245945
 21
265.3393879999999
 31
0.0
  0
LINE
  5
4F1
330
1E
100
AcDbEntity
  8
CONTINUOUS1
100
AcDbLine
 10
150.245945
 20
265.3393879999999
 30
0.0
 11
150.2812439999999
 21
265.341768
 31
0.0
  0
LINE
  5
4F2
330
1E
100
AcDbEntity
  8
CONTINUOUS1
100
AcDbLine
 10
150.2812439999999
 20
265.341768
 30
0.0
 11
150.316475
 21
265.3489009999999
 31
0.0
  0
LINE
  5
4F3
330
1E
100
AcDbEntity
  8
CONTINUOUS1
100
AcDbLine
 10
150.316475
 20
265.3489009999999
 30
0.0
 11
150.351572
 21
265.3607759999999
 31
0.0
  0
LINE
  5
4F4
330
1E
100
AcDbEntity
  8
CONTINUOUS1
100
AcDbLine
 10
150.351572
 20
265.3607759999999
 30
0.0
 11
150.386469
 21
265.3773689999999
 31
0.0
  0
LINE
  5
4F5
330
1E
100
AcDbEntity
  8
CONTINUOUS1
100
AcDbLine
 10
150.386469
 20
265.3773689999999
 30
0.0
 11
150.421097
 21
265.3986479999999
 31
0.0
  0
LINE
  5
4F6
330
1E
100
AcDbEntity
  8
CONTINUOUS1
100
AcDbLine
 10
150.421097
 20
265.3986479999999
 30
0.0
 11
150.4553929999999
 21
265.4245739999999
 31
0.0
  0
LINE
  5
4F7
330
1E
100
AcDbEntity
  8
CONTINUOUS1
100
AcDbLine
 10
150.4553929999999
 20
265.4245739999999
 30
0.0
 11
150.4892889999999
 21
265.4550959999999
 31
0.0
  0
LINE
  5
4F8
330
1E
100
AcDbEntity
  8
CONTINUOUS1
100
AcDbLine
 10
150.4892889999999
 20
265.4550959999999
 30
0.0
 11
150.5227229999999
 21
265.490157
 31
0.0
  0
LINE
  5
4F9
330
1E
100
AcDbEntity
  8
CONTINUOUS1
100
AcDbLine
 10
150.5227229999999
 20
265.490157
 30
0.0
 11
150.555629
 21
265.529689
 31
0.0
  0
LINE
  5
4FA
330
1E
100
AcDbEntity
  8
CONTINUOUS1
100
AcDbLine
 10
150.555629
 20
265.529689
 30
0.0
 11
150.5879459999999
 21
265.573619
 31
0.0
  0
LINE
  5
4FB
330
1E
100
AcDbEntity
  8
CONTINUOUS1
100
AcDbLine
 10
150.5879459999999
 20
265.573619
 30
0.0
 11
150.619612
 21
265.6218609999999
 31
0.0
  0
LINE
  5
4FC
330
1E
100
AcDbEntity
  8
CONTINUOUS1
100
AcDbLine
 10
150.619612
 20
265.6218609999999
 30
0.0
 11
150.6505669999999
 21
265.674325
 31
0.0
  0
LINE
  5
4FD
330
1E
100
AcDbEntity
  8
CONTINUOUS1
100
AcDbLine
 10
150.6505669999999
 20
265.674325
 30
0.0
 11
150.680751
 21
265.7309099999999
 31
0.0
  0
LINE
  5
4FE
330
1E
100
AcDbEntity
  8
CONTINUOUS1
100
AcDbLine
 10
150.680751
 20
265.7309099999999
 30
0.0
 11
150.710108
 21
265.791508
 31
0.0
  0
LINE
  5
4FF
330
1E
100
AcDbEntity
  8
CONTINUOUS1
100
AcDbLine
 10
150.710108
 20
265.791508
 30
0.0
 11
150.738581
 21
265.8560049999999
 31
0.0
  0
LINE
  5
500
330
1E
100
AcDbEntity
  8
CONTINUOUS1
100
AcDbLine
 10
150.738581
 20
265.8560049999999
 30
0.0
 11
150.7661169999999
 21
265.924277
 31
0.0
  0
LINE
  5
501
330
1E
100
AcDbEntity
  8
CONTINUOUS1
100
AcDbLine
 10
150.7661169999999
 20
265.924277
 30
0.0
 11
150.792662
 21
265.996195
 31
0.0
  0
LINE
  5
502
330
1E
100
AcDbEntity
  8
CONTINUOUS1
100
AcDbLine
 10
150.792662
 20
265.996195
 30
0.0
 11
150.8181669999999
 21
266.0716209999999
 31
0.0
  0
LINE
  5
503
330
1E
100
AcDbEntity
  8
CONTINUOUS1
100
AcDbLine
 10
150.8181669999999
 20
266.0716209999999
 30
0.0
 11
150.842582
 21
266.150413
 31
0.0
  0
LINE
  5
504
330
1E
100
AcDbEntity
  8
CONTINUOUS1
100
AcDbLine
 10
150.842582
 20
266.150413
 30
0.0
 11
150.865862
 21
266.232419
 31
0.0
  0
LINE
  5
505
330
1E
100
AcDbEntity
  8
CONTINUOUS1
100
AcDbLine
 10
150.865862
 20
266.232419
 30
0.0
 11
150.887961
 21
266.317485
 31
0.0
  0
LINE
  5
506
330
1E
100
AcDbEntity
  8
CONTINUOUS1
100
AcDbLine
 10
150.887961
 20
266.317485
 30
0.0
 11
150.908839
 21
266.405447
 31
0.0
  0
LINE
  5
507
330
1E
100
AcDbEntity
  8
CONTINUOUS1
100
AcDbLine
 10
150.908839
 20
266.405447
 30
0.0
 11
150.928454
 21
266.496139
 31
0.0
  0
LINE
  5
508
330
1E
100
AcDbEntity
  8
CONTINUOUS1
100
AcDbLine
 10
150.928454
 20
266.496139
 30
0.0
 11
150.9467709999999
 21
266.589388
 31
0.0
  0
LINE
  5
509
330
1E
100
AcDbEntity
  8
CONTINUOUS1
100
AcDbLine
 10
150.9467709999999
 20
266.589388
 30
0.0
 11
150.963753
 21
266.685017
 31
0.0
  0
LINE
  5
50A
330
1E
100
AcDbEntity
  8
CONTINUOUS1
100
AcDbLine
 10
150.963753
 20
266.685017
 30
0.0
 11
150.9793689999999
 21
266.782842
 31
0.0
  0
LINE
  5
50B
330
1E
100
AcDbEntity
  8
CONTINUOUS1
100
AcDbLine
 10
150.9793689999999
 20
266.782842
 30
0.0
 11
150.9935889999999
 21
266.88268
 31
0.0
  0
LINE
  5
50C
330
1E
100
AcDbEntity
  8
CONTINUOUS1
100
AcDbLine
 10
150.9935889999999
 20
266.88268
 30
0.0
 11
151.006386
 21
266.9843379999999
 31
0.0
  0
LINE
  5
50D
330
1E
100
AcDbEntity
  8
CONTINUOUS1
100
AcDbLine
 10
151.006386
 20
266.9843379999999
 30
0.0
 11
151.017735
 21
267.087624
 31
0.0
  0
LINE
  5
50E
330
1E
100
AcDbEntity
  8
CONTINUOUS1
100
AcDbLine
 10
151.017735
 20
267.087624
 30
0.0
 11
151.0276149999999
 21
267.192341
 31
0.0
  0
LINE
  5
50F
330
1E
100
AcDbEntity
  8
CONTINUOUS1
100
AcDbLine
 10
151.0276149999999
 20
267.192341
 30
0.0
 11
151.036007
 21
267.298289
 31
0.0
  0
LINE
  5
510
330
1E
100
AcDbEntity
  8
CONTINUOUS1
100
AcDbLine
 10
151.036007
 20
267.298289
 30
0.0
 11
151.0428949999999
 21
267.405268
 31
0.0
  0
LINE
  5
511
330
1E
100
AcDbEntity
  8
CONTINUOUS1
100
AcDbLine
 10
151.0428949999999
 20
267.405268
 30
0.0
 11
151.0482659999999
 21
267.513073
 31
0.0
  0
LINE
  5
512
330
1E
100
AcDbEntity
  8
CONTINUOUS1
100
AcDbLine
 10
151.0482659999999
 20
267.513073
 30
0.0
 11
151.05211
 21
267.621499
 31
0.0
  0
LINE
  5
513
330
1E
100
AcDbEntity
  8
CONTINUOUS1
100
AcDbLine
 10
151.05211
 20
267.621499
 30
0.0
 11
151.054419
 21
267.7303399999999
 31
0.0
  0
LINE
  5
514
330
1E
100
AcDbEntity
  8
CONTINUOUS1
100
AcDbLine
 10
151.054419
 20
267.7303399999999
 30
0.0
 11
151.0551889999999
 21
267.8393879999999
 31
0.0
  0
LINE
  5
515
330
1E
100
AcDbEntity
  8
CONTINUOUS1
100
AcDbLine
 10
147.4463629999999
 20
267.8393879999999
 30
0.0
 11
147.446754
 21
267.7303399999999
 31
0.0
  0
LINE
  5
516
330
1E
100
AcDbEntity
  8
CONTINUOUS1
100
AcDbLine
 10
147.446754
 20
267.7303399999999
 30
0.0
 11
147.447926
 21
267.621499
 31
0.0
  0
LINE
  5
517
330
1E
100
AcDbEntity
  8
CONTINUOUS1
100
AcDbLine
 10
147.447926
 20
267.621499
 30
0.0
 11
147.449878
 21
267.513073
 31
0.0
  0
LINE
  5
518
330
1E
100
AcDbEntity
  8
CONTINUOUS1
100
AcDbLine
 10
147.449878
 20
267.513073
 30
0.0
 11
147.452605
 21
267.405268
 31
0.0
  0
LINE
  5
519
330
1E
100
AcDbEntity
  8
CONTINUOUS1
100
AcDbLine
 10
147.452605
 20
267.405268
 30
0.0
 11
147.456102
 21
267.298289
 31
0.0
  0
LINE
  5
51A
330
1E
100
AcDbEntity
  8
CONTINUOUS1
100
AcDbLine
 10
147.456102
 20
267.298289
 30
0.0
 11
147.460363
 21
267.192341
 31
0.0
  0
LINE
  5
51B
330
1E
100
AcDbEntity
  8
CONTINUOUS1
100
AcDbLine
 10
147.460363
 20
267.192341
 30
0.0
 11
147.465379
 21
267.087624
 31
0.0
  0
LINE
  5
51C
330
1E
100
AcDbEntity
  8
CONTINUOUS1
100
AcDbLine
 10
147.465379
 20
267.087624
 30
0.0
 11
147.4711409999999
 21
266.9843379999999
 31
0.0
  0
LINE
  5
51D
330
1E
100
AcDbEntity
  8
CONTINUOUS1
100
AcDbLine
 10
147.4711409999999
 20
266.9843379999999
 30
0.0
 11
147.4776379999999
 21
266.88268
 31
0.0
  0
LINE
  5
51E
330
1E
100
AcDbEntity
  8
CONTINUOUS1
100
AcDbLine
 10
147.4776379999999
 20
266.88268
 30
0.0
 11
147.4848579999999
 21
266.782842
 31
0.0
  0
LINE
  5
51F
330
1E
100
AcDbEntity
  8
CONTINUOUS1
100
AcDbLine
 10
147.4848579999999
 20
266.782842
 30
0.0
 11
147.492786
 21
266.685017
 31
0.0
  0
LINE
  5
520
330
1E
100
AcDbEntity
  8
CONTINUOUS1
100
AcDbLine
 10
147.492786
 20
266.685017
 30
0.0
 11
147.501408
 21
266.589388
 31
0.0
  0
LINE
  5
521
330
1E
100
AcDbEntity
  8
CONTINUOUS1
100
AcDbLine
 10
147.501408
 20
266.589388
 30
0.0
 11
147.5107079999999
 21
266.496139
 31
0.0
  0
LINE
  5
522
330
1E
100
AcDbEntity
  8
CONTINUOUS1
100
AcDbLine
 10
147.5107079999999
 20
266.496139
 30
0.0
 11
147.520667
 21
266.405447
 31
0.0
  0
LINE
  5
523
330
1E
100
AcDbEntity
  8
CONTINUOUS1
100
AcDbLine
 10
147.520667
 20
266.405447
 30
0.0
 11
147.5312659999999
 21
266.317485
 31
0.0
  0
LINE
  5
524
330
1E
100
AcDbEntity
  8
CONTINUOUS1
100
AcDbLine
 10
147.5312659999999
 20
266.317485
 30
0.0
 11
147.542487
 21
266.232419
 31
0.0
  0
LINE
  5
525
330
1E
100
AcDbEntity
  8
CONTINUOUS1
100
AcDbLine
 10
147.542487
 20
266.232419
 30
0.0
 11
147.5543059999999
 21
266.150413
 31
0.0
  0
LINE
  5
526
330
1E
100
AcDbEntity
  8
CONTINUOUS1
100
AcDbLine
 10
147.5543059999999
 20
266.150413
 30
0.0
 11
147.5667019999999
 21
266.0716209999999
 31
0.0
  0
LINE
  5
527
330
1E
100
AcDbEntity
  8
CONTINUOUS1
100
AcDbLine
 10
147.5667019999999
 20
266.0716209999999
 30
0.0
 11
147.579651
 21
265.996195
 31
0.0
  0
LINE
  5
528
330
1E
100
AcDbEntity
  8
CONTINUOUS1
100
AcDbLine
 10
147.579651
 20
265.996195
 30
0.0
 11
147.593128
 21
265.924277
 31
0.0
  0
LINE
  5
529
330
1E
100
AcDbEntity
  8
CONTINUOUS1
100
AcDbLine
 10
147.593128
 20
265.924277
 30
0.0
 11
147.607109
 21
265.8560049999999
 31
0.0
  0
LINE
  5
52A
330
1E
100
AcDbEntity
  8
CONTINUOUS1
100
AcDbLine
 10
147.607109
 20
265.8560049999999
 30
0.0
 11
147.621565
 21
265.791508
 31
0.0
  0
LINE
  5
52B
330
1E
100
AcDbEntity
  8
CONTINUOUS1
100
AcDbLine
 10
147.621565
 20
265.791508
 30
0.0
 11
147.6364699999999
 21
265.7309099999999
 31
0.0
  0
LINE
  5
52C
330
1E
100
AcDbEntity
  8
CONTINUOUS1
100
AcDbLine
 10
147.6364699999999
 20
265.7309099999999
 30
0.0
 11
147.6517949999999
 21
265.674325
 31
0.0
  0
LINE
  5
52D
330
1E
100
AcDbEntity
  8
CONTINUOUS1
100
AcDbLine
 10
147.6517949999999
 20
265.674325
 30
0.0
 11
147.667511
 21
265.6218609999999
 31
0.0
  0
LINE
  5
52E
330
1E
100
AcDbEntity
  8
CONTINUOUS1
100
AcDbLine
 10
147.667511
 20
265.6218609999999
 30
0.0
 11
147.6835879999999
 21
265.573619
 31
0.0
  0
LINE
  5
52F
330
1E
100
AcDbEntity
  8
CONTINUOUS1
100
AcDbLine
 10
147.6835879999999
 20
265.573619
 30
0.0
 11
147.699996
 21
265.529689
 31
0.0
  0
LINE
  5
530
330
1E
100
AcDbEntity
  8
CONTINUOUS1
100
AcDbLine
 10
147.699996
 20
265.529689
 30
0.0
 11
147.7167029999999
 21
265.490157
 31
0.0
  0
LINE
  5
531
330
1E
100
AcDbEntity
  8
CONTINUOUS1
100
AcDbLine
 10
147.7167029999999
 20
265.490157
 30
0.0
 11
147.7336779999999
 21
265.4550959999999
 31
0.0
  0
LINE
  5
532
330
1E
100
AcDbEntity
  8
CONTINUOUS1
100
AcDbLine
 10
147.7336779999999
 20
265.4550959999999
 30
0.0
 11
147.750887
 21
265.4245739999999
 31
0.0
  0
LINE
  5
533
330
1E
100
AcDbEntity
  8
CONTINUOUS1
100
AcDbLine
 10
147.750887
 20
265.4245739999999
 30
0.0
 11
147.7683
 21
265.3986479999999
 31
0.0
  0
LINE
  5
534
330
1E
100
AcDbEntity
  8
CONTINUOUS1
100
AcDbLine
 10
147.7683
 20
265.3986479999999
 30
0.0
 11
147.785881
 21
265.3773689999999
 31
0.0
  0
LINE
  5
535
330
1E
100
AcDbEntity
  8
CONTINUOUS1
100
AcDbLine
 10
147.785881
 20
265.3773689999999
 30
0.0
 11
147.803598
 21
265.3607759999999
 31
0.0
  0
LINE
  5
536
330
1E
100
AcDbEntity
  8
CONTINUOUS1
100
AcDbLine
 10
147.803598
 20
265.3607759999999
 30
0.0
 11
147.8214179999999
 21
265.3489009999999
 31
0.0
  0
LINE
  5
537
330
1E
100
AcDbEntity
  8
CONTINUOUS1
100
AcDbLine
 10
147.8214179999999
 20
265.3489009999999
 30
0.0
 11
147.839305
 21
265.341768
 31
0.0
  0
LINE
  5
538
330
1E
100
AcDbEntity
  8
CONTINUOUS1
100
AcDbLine
 10
147.839305
 20
265.341768
 30
0.0
 11
147.8572269999999
 21
265.3393879999999
 31
0.0
  0
LINE
  5
539
330
1E
100
AcDbEntity
  8
CONTINUOUS1
100
AcDbLine
 10
147.8572269999999
 20
265.3393879999999
 30
0.0
 11
147.8751479999999
 21
265.341768
 31
0.0
  0
LINE
  5
53A
330
1E
100
AcDbEntity
  8
CONTINUOUS1
100
AcDbLine
 10
147.8751479999999
 20
265.341768
 30
0.0
 11
147.893036
 21
265.3489009999999
 31
0.0
  0
LINE
  5
53B
330
1E
100
AcDbEntity
  8
CONTINUOUS1
100
AcDbLine
 10
147.893036
 20
265.3489009999999
 30
0.0
 11
147.910855
 21
265.3607759999999
 31
0.0
  0
LINE
  5
53C
330
1E
100
AcDbEntity
  8
CONTINUOUS1
100
AcDbLine
 10
147.910855
 20
265.3607759999999
 30
0.0
 11
147.9285729999999
 21
265.3773689999999
 31
0.0
  0
LINE
  5
53D
330
1E
100
AcDbEntity
  8
CONTINUOUS1
100
AcDbLine
 10
147.9285729999999
 20
265.3773689999999
 30
0.0
 11
147.946154
 21
265.3986479999999
 31
0.0
  0
LINE
  5
53E
330
1E
100
AcDbEntity
  8
CONTINUOUS1
100
AcDbLine
 10
147.946154
 20
265.3986479999999
 30
0.0
 11
147.9635659999999
 21
265.4245739999999
 31
0.0
  0
LINE
  5
53F
330
1E
100
AcDbEntity
  8
CONTINUOUS1
100
AcDbLine
 10
147.9635659999999
 20
265.4245739999999
 30
0.0
 11
147.9807759999999
 21
265.4550959999999
 31
0.0
  0
LINE
  5
540
330
1E
100
AcDbEntity
  8
CONTINUOUS1
100
AcDbLine
 10
147.9807759999999
 20
265.4550959999999
 30
0.0
 11
147.9977509999999
 21
265.490157
 31
0.0
  0
LINE
  5
541
330
1E
100
AcDbEntity
  8
CONTINUOUS1
100
AcDbLine
 10
147.9977509999999
 20
265.490157
 30
0.0
 11
148.014458
 21
265.529689
 31
0.0
  0
LINE
  5
542
330
1E
100
AcDbEntity
  8
CONTINUOUS1
100
AcDbLine
 10
148.014458
 20
265.529689
 30
0.0
 11
148.0308649999999
 21
265.573619
 31
0.0
  0
LINE
  5
543
330
1E
100
AcDbEntity
  8
CONTINUOUS1
100
AcDbLine
 10
148.0308649999999
 20
265.573619
 30
0.0
 11
148.046943
 21
265.6218609999999
 31
0.0
  0
LINE
  5
544
330
1E
100
AcDbEntity
  8
CONTINUOUS1
100
AcDbLine
 10
148.046943
 20
265.6218609999999
 30
0.0
 11
148.0626589999999
 21
265.674325
 31
0.0
  0
LINE
  5
545
330
1E
100
AcDbEntity
  8
CONTINUOUS1
100
AcDbLine
 10
148.0626589999999
 20
265.674325
 30
0.0
 11
148.077984
 21
265.7309099999999
 31
0.0
  0
LINE
  5
546
330
1E
100
AcDbEntity
  8
CONTINUOUS1
100
AcDbLine
 10
148.077984
 20
265.7309099999999
 30
0.0
 11
148.0928889999999
 21
265.791508
 31
0.0
  0
LINE
  5
547
330
1E
100
AcDbEntity
  8
CONTINUOUS1
100
AcDbLine
 10
148.0928889999999
 20
265.791508
 30
0.0
 11
148.107345
 21
265.8560049999999
 31
0.0
  0
LINE
  5
548
330
1E
100
AcDbEntity
  8
CONTINUOUS1
100
AcDbLine
 10
148.107345
 20
265.8560049999999
 30
0.0
 11
148.121325
 21
265.924277
 31
0.0
  0
LINE
  5
549
330
1E
100
AcDbEntity
  8
CONTINUOUS1
100
AcDbLine
 10
148.121325
 20
265.924277
 30
0.0
 11
148.134802
 21
265.996195
 31
0.0
  0
LINE
  5
54A
330
1E
100
AcDbEntity
  8
CONTINUOUS1
100
AcDbLine
 10
148.134802
 20
265.996195
 30
0.0
 11
148.1477509999999
 21
266.0716209999999
 31
0.0
  0
LINE
  5
54B
330
1E
100
AcDbEntity
  8
CONTINUOUS1
100
AcDbLine
 10
148.1477509999999
 20
266.0716209999999
 30
0.0
 11
148.160147
 21
266.150413
 31
0.0
  0
LINE
  5
54C
330
1E
100
AcDbEntity
  8
CONTINUOUS1
100
AcDbLine
 10
148.160147
 20
266.150413
 30
0.0
 11
148.1719669999999
 21
266.232419
 31
0.0
  0
LINE
  5
54D
330
1E
100
AcDbEntity
  8
CONTINUOUS1
100
AcDbLine
 10
148.1719669999999
 20
266.232419
 30
0.0
 11
148.183187
 21
266.317485
 31
0.0
  0
LINE
  5
54E
330
1E
100
AcDbEntity
  8
CONTINUOUS1
100
AcDbLine
 10
148.183187
 20
266.317485
 30
0.0
 11
148.193787
 21
266.405447
 31
0.0
  0
LINE
  5
54F
330
1E
100
AcDbEntity
  8
CONTINUOUS1
100
AcDbLine
 10
148.193787
 20
266.405447
 30
0.0
 11
148.2037459999999
 21
266.496139
 31
0.0
  0
LINE
  5
550
330
1E
100
AcDbEntity
  8
CONTINUOUS1
100
AcDbLine
 10
148.2037459999999
 20
266.496139
 30
0.0
 11
148.2130449999999
 21
266.589388
 31
0.0
  0
LINE
  5
551
330
1E
100
AcDbEntity
  8
CONTINUOUS1
100
AcDbLine
 10
148.2130449999999
 20
266.589388
 30
0.0
 11
148.221668
 21
266.685017
 31
0.0
  0
LINE
  5
552
330
1E
100
AcDbEntity
  8
CONTINUOUS1
100
AcDbLine
 10
148.221668
 20
266.685017
 30
0.0
 11
148.2295959999999
 21
266.782842
 31
0.0
  0
LINE
  5
553
330
1E
100
AcDbEntity
  8
CONTINUOUS1
100
AcDbLine
 10
148.2295959999999
 20
266.782842
 30
0.0
 11
148.236816
 21
266.88268
 31
0.0
  0
LINE
  5
554
330
1E
100
AcDbEntity
  8
CONTINUOUS1
100
AcDbLine
 10
148.236816
 20
266.88268
 30
0.0
 11
148.2433129999999
 21
266.9843379999999
 31
0.0
  0
LINE
  5
555
330
1E
100
AcDbEntity
  8
CONTINUOUS1
100
AcDbLine
 10
148.2433129999999
 20
266.9843379999999
 30
0.0
 11
148.249075
 21
267.087624
 31
0.0
  0
LINE
  5
556
330
1E
100
AcDbEntity
  8
CONTINUOUS1
100
AcDbLine
 10
148.249075
 20
267.087624
 30
0.0
 11
148.2540909999999
 21
267.192341
 31
0.0
  0
LINE
  5
557
330
1E
100
AcDbEntity
  8
CONTINUOUS1
100
AcDbLine
 10
148.2540909999999
 20
267.192341
 30
0.0
 11
148.258352
 21
267.298289
 31
0.0
  0
LINE
  5
558
330
1E
100
AcDbEntity
  8
CONTINUOUS1
100
AcDbLine
 10
148.258352
 20
267.298289
 30
0.0
 11
148.261849
 21
267.405268
 31
0.0
  0
LINE
  5
559
330
1E
100
AcDbEntity
  8
CONTINUOUS1
100
AcDbLine
 10
148.261849
 20
267.405268
 30
0.0
 11
148.264576
 21
267.513073
 31
0.0
  0
LINE
  5
55A
330
1E
100
AcDbEntity
  8
CONTINUOUS1
100
AcDbLine
 10
148.264576
 20
267.513073
 30
0.0
 11
148.266527
 21
267.621499
 31
0.0
  0
LINE
  5
55B
330
1E
100
AcDbEntity
  8
CONTINUOUS1
100
AcDbLine
 10
148.266527
 20
267.621499
 30
0.0
 11
148.2676999999999
 21
267.7303399999999
 31
0.0
  0
LINE
  5
55C
330
1E
100
AcDbEntity
  8
CONTINUOUS1
100
AcDbLine
 10
148.2676999999999
 20
267.7303399999999
 30
0.0
 11
148.268091
 21
267.8393879999999
 31
0.0
  0
CIRCLE
  5
55D
330
1E
100
AcDbEntity
  8
CONTINUOUS1
100
AcDbCircle
 10
200.0
 20
400.0
 30
0.0
 40
7.0
  0
CIRCLE
  5
55E
330
1E
100
AcDbEntity
  8
CONTINUOUS1
100
AcDbCircle
 10
200.0
 20
400.0
 30
0.0
 40
2.5
  0
LINE
  5
55F
330
1E
100
AcDbEntity
  8
CONTINUOUS1
100
AcDbLine
 10
200.0
 20
444.5
 30
0.0
 11
196.1028879999999
 21
442.250001
 31
0.0
  0
LINE
  5
560
330
1E
100
AcDbEntity
  8
CONTINUOUS1
100
AcDbLine
 10
196.1028879999999
 20
442.250001
 30
0.0
 11
196.1028869999999
 21
437.750001
 31
0.0
  0
LINE
  5
561
330
1E
100
AcDbEntity
  8
CONTINUOUS1
100
AcDbLine
 10
196.1028869999999
 20
437.750001
 30
0.0
 11
200.0
 21
435.5
 31
0.0
  0
LINE
  5
562
330
1E
100
AcDbEntity
  8
CONTINUOUS1
100
AcDbLine
 10
200.0
 20
435.5
 30
0.0
 11
203.897116
 21
437.750001
 31
0.0
  0
LINE
  5
563
330
1E
100
AcDbEntity
  8
CONTINUOUS1
100
AcDbLine
 10
203.897116
 20
437.750001
 30
0.0
 11
203.897116
 21
442.250001
 31
0.0
  0
LINE
  5
564
330
1E
100
AcDbEntity
  8
CONTINUOUS1
100
AcDbLine
 10
203.897116
 20
442.250001
 30
0.0
 11
200.0
 21
444.5
 31
0.0
  0
LINE
  5
565
330
1E
100
AcDbEntity
  8
CONTINUOUS1
100
AcDbLine
 10
199.5
 20
433.288675
 30
0.0
 11
199.5
 21
406.9821199999999
 31
0.0
  0
LINE
  5
566
330
1E
100
AcDbEntity
  8
CONTINUOUS1
100
AcDbLine
 10
200.4999999999999
 20
406.9821199999999
 30
0.0
 11
200.4999999999999
 21
433.288675
 31
0.0
  0
CIRCLE
  5
567
330
1E
100
AcDbEntity
  8
CONTINUOUS1
100
AcDbCircle
 10
234.6410169999999
 20
459.9999989999999
 30
0.0
 40
7.0
  0
CIRCLE
  5
568
330
1E
100
AcDbEntity
  8
CONTINUOUS1
100
AcDbCircle
 10
234.6410169999999
 20
459.9999989999999
 30
0.0
 40
2.5
  0
LINE
  5
569
330
1E
100
AcDbEntity
  8
CONTINUOUS1
100
AcDbLine
 10
206.0621779999999
 20
442.922648
 30
0.0
 11
228.844324
 21
456.075926
 31
0.0
  0
LINE
  5
56A
330
1E
100
AcDbEntity
  8
CONTINUOUS1
100
AcDbLine
 10
228.344324
 20
456.9419519999999
 30
0.0
 11
205.562179
 21
443.788674
 31
0.0
  0
CIRCLE
  5
56B
330
1E
100
AcDbEntity
  8
CONTINUOUS1
100
AcDbCircle
 10
165.358986
 20
460.0000019999999
 30
0.0
 40
7.0
  0
CIRCLE
  5
56C
330
1E
100
AcDbEntity
  8
CONTINUOUS1
100
AcDbCircle
 10
165.358986
 20
460.0000019999999
 30
0.0
 40
2.5
  0
LINE
  5
56D
330
1E
100
AcDbEntity
  8
CONTINUOUS1
100
AcDbLine
 10
194.4378249999999
 20
443.7886769999999
 30
0.0
 11
171.65568
 21
456.941955
 31
0.0
  0
LINE
  5
56E
330
1E
100
AcDbEntity
  8
CONTINUOUS1
100
AcDbLine
 10
171.15568
 20
456.075929
 30
0.0
 11
193.937824
 21
442.9226519999999
 31
0.0
  0
LINE
  5
56F
330
1E
100
AcDbEntity
  8
CONTINUOUS1
100
AcDbLine
 10
199.5
 20
433.288676
 30
0.0
 11
193.937822
 21
436.5
 31
0.0
  0
LINE
  5
570
330
1E
100
AcDbEntity
  8
CONTINUOUS1
100
AcDbLine
 10
193.937822
 20
436.5
 30
0.0
 11
193.937823
 21
442.922653
 31
0.0
  0
LINE
  5
571
330
1E
100
AcDbEntity
  8
CONTINUOUS1
100
AcDbLine
 10
194.4378249999999
 20
443.7886769999999
 30
0.0
 11
200.0000029999999
 21
447.0
 31
0.0
  0
LINE
  5
572
330
1E
100
AcDbEntity
  8
CONTINUOUS1
100
AcDbLine
 10
200.0000029999999
 20
447.0
 30
0.0
 11
205.562179
 21
443.788674
 31
0.0
  0
LINE
  5
573
330
1E
100
AcDbEntity
  8
CONTINUOUS1
100
AcDbLine
 10
206.0621779999999
 20
442.922648
 30
0.0
 11
206.062179
 21
436.5
 31
0.0
  0
LINE
  5
574
330
1E
100
AcDbEntity
  8
CONTINUOUS1
100
AcDbLine
 10
206.062179
 20
436.5
 30
0.0
 11
200.4999999999999
 21
433.288674
 31
0.0
  0
CIRCLE
  5
575
330
1E
100
AcDbEntity
  8
CONTINUOUS1
100
AcDbCircle
 10
179.999999
 20
405.3589839999999
 30
0.0
 40
4.5
  0
ARC
  5
576
330
1E
100
AcDbEntity
  8
CONTINUOUS1
100
AcDbCircle
 10
221.443374
 20
475.891017
 30
0.0
 40
1.249999
100
AcDbArc
 50
90.0
 51
270.0
  0
ARC
  5
577
330
1E
100
AcDbEntity
  8
CONTINUOUS1
100
AcDbCircle
 10
221.443374
 20
473.3910169999999
 30
0.0
 40
1.25
100
AcDbArc
 50
90.0
 51
270.0
  0
LINE
  5
578
330
1E
100
AcDbEntity
  8
CONTINUOUS1
100
AcDbLine
 10
221.443374
 20
477.141017
 30
0.0
 11
269.3786789999999
 21
477.141017
 31
0.0
  0
ARC
  5
579
330
1E
100
AcDbEntity
  8
CONTINUOUS1
100
AcDbCircle
 10
269.3786789999999
 20
478.6410169999999
 30
0.0
 40
1.5
100
AcDbArc
 50
270.0
 51
314.999996
  0
LINE
  5
57A
330
1E
100
AcDbEntity
  8
CONTINUOUS1
100
AcDbLine
 10
281.6568549999999
 20
484.6410169999999
 30
0.0
 11
300.0
 21
484.6410169999999
 31
0.0
  0
ARC
  5
57B
330
1E
100
AcDbEntity
  8
CONTINUOUS1
100
AcDbCircle
 10
281.6568549999999
 20
483.1410169999999
 30
0.0
 40
1.5
100
AcDbArc
 50
90.0
 51
135.0
  0
LINE
  5
57C
330
1E
100
AcDbEntity
  8
CONTINUOUS1
100
AcDbLine
 10
221.443374
 20
474.6410179999999
 30
0.0
 11
269.3786799999999
 21
474.6410169999999
 31
0.0
  0
LINE
  5
57D
330
1E
100
AcDbEntity
  8
CONTINUOUS1
100
AcDbLine
 10
272.207107
 20
475.81259
 30
0.0
 11
280.596195
 21
484.2016769999999
 31
0.0
  0
ARC
  5
57E
330
1E
100
AcDbEntity
  8
CONTINUOUS1
100
AcDbCircle
 10
269.3786799999999
 20
478.6410169999999
 30
0.0
 40
4.0
100
AcDbArc
 50
269.999999
 51
315.0
  0
LINE
  5
57F
330
1E
100
AcDbEntity
  8
CONTINUOUS1
100
AcDbLine
 10
270.439339
 20
477.5803559999999
 30
0.0
 11
278.8284269999999
 21
485.9694429999999
 31
0.0
  0
LINE
  5
580
330
1E
100
AcDbEntity
  8
CONTINUOUS1
100
AcDbLine
 10
281.656854
 20
487.141016
 30
0.0
 11
300.0
 21
487.1410169999999
 31
0.0
  0
ARC
  5
581
330
1E
100
AcDbEntity
  8
CONTINUOUS1
100
AcDbCircle
 10
281.656854
 20
483.141016
 30
0.0
 40
4.0
100
AcDbArc
 50
90.00000199999998
 51
134.999996
  0
ARC
  5
582
330
1E
100
AcDbEntity
  8
CONTINUOUS1
100
AcDbCircle
 10
269.3786789999999
 20
470.6410169999999
 30
0.0
 40
1.5
100
AcDbArc
 50
45.000004
 51
90.0
  0
LINE
  5
583
330
1E
100
AcDbEntity
  8
CONTINUOUS1
100
AcDbLine
 10
281.6568549999999
 20
464.641017
 30
0.0
 11
300.0
 21
464.641017
 31
0.0
  0
ARC
  5
584
330
1E
100
AcDbEntity
  8
CONTINUOUS1
100
AcDbCircle
 10
281.6568549999999
 20
466.1410169999999
 30
0.0
 40
1.5
100
AcDbArc
 50
225.0
 51
270.0
  0
LINE
  5
585
330
1E
100
AcDbEntity
  8
CONTINUOUS1
100
AcDbLine
 10
272.207107
 20
473.4694440000001
 30
0.0
 11
280.596195
 21
465.0803559999999
 31
0.0
  0
ARC
  5
586
330
1E
100
AcDbEntity
  8
CONTINUOUS1
100
AcDbCircle
 10
269.3786799999999
 20
470.6410169999999
 30
0.0
 40
4.0
100
AcDbArc
 50
45.0
 51
90.00000099999999
  0
LINE
  5
587
330
1E
100
AcDbEntity
  8
CONTINUOUS1
100
AcDbLine
 10
270.439339
 20
471.7016769999999
 30
0.0
 11
278.8284269999999
 21
463.31259
 31
0.0
  0
LINE
  5
588
330
1E
100
AcDbEntity
  8
CONTINUOUS1
100
AcDbLine
 10
281.656854
 20
462.1410169999999
 30
0.0
 11
300.0
 21
462.1410169999999
 31
0.0
  0
ARC
  5
589
330
1E
100
AcDbEntity
  8
CONTINUOUS1
100
AcDbCircle
 10
281.656854
 20
466.1410169999999
 30
0.0
 40
4.0
100
AcDbArc
 50
225.0000039999999
 51
269.999998
  0
LINE
  5
58A
330
1E
100
AcDbEntity
  8
CONTINUOUS1
100
AcDbLine
 10
269.3786789999999
 20
472.1410169999999
 30
0.0
 11
221.443374
 21
472.1410169999999
 31
0.0
  0
ARC
  5
58B
330
1E
100
AcDbEntity
  8
CONTINUOUS1
100
AcDbCircle
 10
199.999999
 20
440.0
 30
0.0
 40
56.00000099999999
100
AcDbArc
 50
41.546865
 51
35.02590399999999
  0
ARC
  5
58C
330
1E
100
AcDbEntity
  8
CONTINUOUS1
100
AcDbCircle
 10
199.999999
 20
440.0
 30
0.0
 40
54.00000099999999
100
AcDbArc
 50
43.455942
 51
36.527176
  0
ARC
  5
58D
330
1E
100
AcDbEntity
  8
CONTINUOUS1
100
AcDbCircle
 10
200.0
 20
440.0000019999999
 30
0.0
 40
47.999999
100
AcDbArc
 50
50.69375499999999
 51
42.036547
  0
ARC
  5
58E
330
1E
100
AcDbEntity
  8
CONTINUOUS1
100
AcDbCircle
 10
219.999999
 20
474.6410169999999
 30
0.0
 40
4.5
100
AcDbArc
 50
33.748989
 51
326.251011
  0
LINE
  5
58F
330
1E
100
AcDbEntity
  8
CONTINUOUS1
100
AcDbLine
 10
222.5538799999999
 20
489.0644729999999
 30
0.0
 11
223.0559979999999
 21
489.934166
 31
0.0
  0
LINE
  5
590
330
1E
100
AcDbEntity
  8
CONTINUOUS1
100
AcDbLine
 10
231.214137
 20
484.0644719999999
 30
0.0
 11
231.7162549999999
 21
484.934165
 31
0.0
  0
ARC
  5
591
330
1E
100
AcDbEntity
  8
CONTINUOUS1
100
AcDbCircle
 10
200.0
 20
440.0
 30
0.0
 40
55.0
100
AcDbArc
 50
54.784092
 51
65.215912
  0
LINE
  5
592
330
1E
100
AcDbEntity
  8
CONTINUOUS1
100
AcDbLine
 10
176.9439989999999
 20
390.065835
 30
0.0
 11
177.4461159999999
 21
390.9355279999999
 31
0.0
  0
LINE
  5
593
330
1E
100
AcDbEntity
  8
CONTINUOUS1
100
AcDbLine
 10
168.283742
 20
395.0658369999999
 30
0.0
 11
168.785859
 21
395.935529
 31
0.0
  0
ARC
  5
594
330
1E
100
AcDbEntity
  8
CONTINUOUS1
100
AcDbCircle
 10
200.0
 20
440.0
 30
0.0
 40
55.0
100
AcDbArc
 50
234.7840879999999
 51
245.215908
  0
LINE
  5
595
330
1E
100
AcDbEntity
  8
CONTINUOUS1
100
AcDbLine
 10
300.0
 20
487.1410169999999
 30
0.0
 11
300.0
 21
489.3910169999999
 31
0.0
  0
LINE
  5
596
330
1E
100
AcDbEntity
  8
CONTINUOUS1
100
AcDbLine
 10
300.0
 20
489.3910169999999
 30
0.0
 11
301.5
 21
489.4410169999999
 31
0.0
  0
LINE
  5
597
330
1E
100
AcDbEntity
  8
CONTINUOUS1
100
AcDbLine
 10
301.5
 20
489.4410169999999
 30
0.0
 11
301.5
 21
488.6410169999999
 31
0.0
  0
LINE
  5
598
330
1E
100
AcDbEntity
  8
CONTINUOUS1
100
AcDbLine
 10
301.5
 20
488.6410169999999
 30
0.0
 11
302.4999999999999
 21
488.6410169999999
 31
0.0
  0
LINE
  5
599
330
1E
100
AcDbEntity
  8
CONTINUOUS1
100
AcDbLine
 10
302.4999999999999
 20
488.6410169999999
 30
0.0
 11
302.4999999999999
 21
489.47435
 31
0.0
  0
LINE
  5
59A
330
1E
100
AcDbEntity
  8
CONTINUOUS1
100
AcDbLine
 10
302.4999999999999
 20
489.47435
 30
0.0
 11
304.0
 21
489.52435
 31
0.0
  0
LINE
  5
59B
330
1E
100
AcDbEntity
  8
CONTINUOUS1
100
AcDbLine
 10
304.0
 20
489.52435
 30
0.0
 11
304.0
 21
488.6410169999999
 31
0.0
  0
LINE
  5
59C
330
1E
100
AcDbEntity
  8
CONTINUOUS1
100
AcDbLine
 10
304.0
 20
488.6410169999999
 30
0.0
 11
305.0
 21
488.6410169999999
 31
0.0
  0
LINE
  5
59D
330
1E
100
AcDbEntity
  8
CONTINUOUS1
100
AcDbLine
 10
305.0
 20
488.6410169999999
 30
0.0
 11
305.0
 21
489.557683
 31
0.0
  0
LINE
  5
59E
330
1E
100
AcDbEntity
  8
CONTINUOUS1
100
AcDbLine
 10
305.0
 20
489.557683
 30
0.0
 11
306.4999999999999
 21
489.607683
 31
0.0
  0
LINE
  5
59F
330
1E
100
AcDbEntity
  8
CONTINUOUS1
100
AcDbLine
 10
306.4999999999999
 20
489.607683
 30
0.0
 11
306.4999999999999
 21
488.6410169999999
 31
0.0
  0
LINE
  5
5A0
330
1E
100
AcDbEntity
  8
CONTINUOUS1
100
AcDbLine
 10
306.4999999999999
 20
488.6410169999999
 30
0.0
 11
307.5
 21
488.6410169999999
 31
0.0
  0
LINE
  5
5A1
330
1E
100
AcDbEntity
  8
CONTINUOUS1
100
AcDbLine
 10
307.5
 20
488.6410169999999
 30
0.0
 11
307.5
 21
489.641017
 31
0.0
  0
LINE
  5
5A2
330
1E
100
AcDbEntity
  8
CONTINUOUS1
100
AcDbLine
 10
307.5
 20
489.641017
 30
0.0
 11
309.0
 21
489.6910169999999
 31
0.0
  0
LINE
  5
5A3
330
1E
100
AcDbEntity
  8
CONTINUOUS1
100
AcDbLine
 10
309.0
 20
489.6910169999999
 30
0.0
 11
309.0
 21
488.6410169999999
 31
0.0
  0
LINE
  5
5A4
330
1E
100
AcDbEntity
  8
CONTINUOUS1
100
AcDbLine
 10
309.0
 20
488.6410169999999
 30
0.0
 11
310.0
 21
488.6410169999999
 31
0.0
  0
LINE
  5
5A5
330
1E
100
AcDbEntity
  8
CONTINUOUS1
100
AcDbLine
 10
310.0
 20
488.6410169999999
 30
0.0
 11
310.0
 21
489.72435
 31
0.0
  0
LINE
  5
5A6
330
1E
100
AcDbEntity
  8
CONTINUOUS1
100
AcDbLine
 10
310.0
 20
489.72435
 30
0.0
 11
311.5
 21
489.77435
 31
0.0
  0
LINE
  5
5A7
330
1E
100
AcDbEntity
  8
CONTINUOUS1
100
AcDbLine
 10
311.5
 20
489.77435
 30
0.0
 11
311.5
 21
488.6410169999999
 31
0.0
  0
LINE
  5
5A8
330
1E
100
AcDbEntity
  8
CONTINUOUS1
100
AcDbLine
 10
311.5
 20
488.6410169999999
 30
0.0
 11
312.5
 21
488.6410169999999
 31
0.0
  0
LINE
  5
5A9
330
1E
100
AcDbEntity
  8
CONTINUOUS1
100
AcDbLine
 10
312.5
 20
488.6410169999999
 30
0.0
 11
312.5
 21
489.8076829999999
 31
0.0
  0
LINE
  5
5AA
330
1E
100
AcDbEntity
  8
CONTINUOUS1
100
AcDbLine
 10
312.5
 20
489.8076829999999
 30
0.0
 11
315.0
 21
489.8910169999999
 31
0.0
  0
LINE
  5
5AB
330
1E
100
AcDbEntity
  8
CONTINUOUS1
100
AcDbLine
 10
300.0
 20
484.6410169999999
 30
0.0
 11
300.0
 21
482.3910169999999
 31
0.0
  0
LINE
  5
5AC
330
1E
100
AcDbEntity
  8
CONTINUOUS1
100
AcDbLine
 10
300.0
 20
482.3910169999999
 30
0.0
 11
301.5
 21
482.3410169999999
 31
0.0
  0
LINE
  5
5AD
330
1E
100
AcDbEntity
  8
CONTINUOUS1
100
AcDbLine
 10
301.5
 20
482.3410169999999
 30
0.0
 11
301.5
 21
483.1410169999999
 31
0.0
  0
LINE
  5
5AE
330
1E
100
AcDbEntity
  8
CONTINUOUS1
100
AcDbLine
 10
301.5
 20
483.1410169999999
 30
0.0
 11
302.4999999999999
 21
483.1410169999999
 31
0.0
  0
LINE
  5
5AF
330
1E
100
AcDbEntity
  8
CONTINUOUS1
100
AcDbLine
 10
302.4999999999999
 20
483.1410169999999
 30
0.0
 11
302.4999999999999
 21
482.3076829999999
 31
0.0
  0
LINE
  5
5B0
330
1E
100
AcDbEntity
  8
CONTINUOUS1
100
AcDbLine
 10
302.4999999999999
 20
482.3076829999999
 30
0.0
 11
304.0
 21
482.257683
 31
0.0
  0
LINE
  5
5B1
330
1E
100
AcDbEntity
  8
CONTINUOUS1
100
AcDbLine
 10
304.0
 20
482.257683
 30
0.0
 11
304.0
 21
483.1410169999999
 31
0.0
  0
LINE
  5
5B2
330
1E
100
AcDbEntity
  8
CONTINUOUS1
100
AcDbLine
 10
304.0
 20
483.1410169999999
 30
0.0
 11
305.0
 21
483.1410169999999
 31
0.0
  0
LINE
  5
5B3
330
1E
100
AcDbEntity
  8
CONTINUOUS1
100
AcDbLine
 10
305.0
 20
483.1410169999999
 30
0.0
 11
305.0
 21
482.2243499999999
 31
0.0
  0
LINE
  5
5B4
330
1E
100
AcDbEntity
  8
CONTINUOUS1
100
AcDbLine
 10
305.0
 20
482.2243499999999
 30
0.0
 11
306.4999999999999
 21
482.17435
 31
0.0
  0
LINE
  5
5B5
330
1E
100
AcDbEntity
  8
CONTINUOUS1
100
AcDbLine
 10
306.4999999999999
 20
482.17435
 30
0.0
 11
306.4999999999999
 21
483.1410169999999
 31
0.0
  0
LINE
  5
5B6
330
1E
100
AcDbEntity
  8
CONTINUOUS1
100
AcDbLine
 10
306.4999999999999
 20
483.1410169999999
 30
0.0
 11
307.5
 21
483.1410169999999
 31
0.0
  0
LINE
  5
5B7
330
1E
100
AcDbEntity
  8
CONTINUOUS1
100
AcDbLine
 10
307.5
 20
483.1410169999999
 30
0.0
 11
307.5
 21
482.141017
 31
0.0
  0
LINE
  5
5B8
330
1E
100
AcDbEntity
  8
CONTINUOUS1
100
AcDbLine
 10
307.5
 20
482.141017
 30
0.0
 11
309.0
 21
482.0910169999999
 31
0.0
  0
LINE
  5
5B9
330
1E
100
AcDbEntity
  8
CONTINUOUS1
100
AcDbLine
 10
309.0
 20
482.0910169999999
 30
0.0
 11
309.0
 21
483.1410169999999
 31
0.0
  0
LINE
  5
5BA
330
1E
100
AcDbEntity
  8
CONTINUOUS1
100
AcDbLine
 10
309.0
 20
483.1410169999999
 30
0.0
 11
310.0
 21
483.1410169999999
 31
0.0
  0
LINE
  5
5BB
330
1E
100
AcDbEntity
  8
CONTINUOUS1
100
AcDbLine
 10
310.0
 20
483.1410169999999
 30
0.0
 11
310.0
 21
482.057683
 31
0.0
  0
LINE
  5
5BC
330
1E
100
AcDbEntity
  8
CONTINUOUS1
100
AcDbLine
 10
310.0
 20
482.057683
 30
0.0
 11
311.5
 21
482.0076829999999
 31
0.0
  0
LINE
  5
5BD
330
1E
100
AcDbEntity
  8
CONTINUOUS1
100
AcDbLine
 10
311.5
 20
482.0076829999999
 30
0.0
 11
311.5
 21
483.1410169999999
 31
0.0
  0
LINE
  5
5BE
330
1E
100
AcDbEntity
  8
CONTINUOUS1
100
AcDbLine
 10
311.5
 20
483.1410169999999
 30
0.0
 11
312.5
 21
483.1410169999999
 31
0.0
  0
LINE
  5
5BF
330
1E
100
AcDbEntity
  8
CONTINUOUS1
100
AcDbLine
 10
312.5
 20
483.1410169999999
 30
0.0
 11
312.5
 21
481.97435
 31
0.0
  0
LINE
  5
5C0
330
1E
100
AcDbEntity
  8
CONTINUOUS1
100
AcDbLine
 10
312.5
 20
481.97435
 30
0.0
 11
315.0
 21
481.8910169999999
 31
0.0
  0
LINE
  5
5C1
330
1E
100
AcDbEntity
  8
CONTINUOUS1
100
AcDbLine
 10
301.5
 20
487.6410169999999
 30
0.0
 11
301.5
 21
484.1410169999999
 31
0.0
  0
LINE
  5
5C2
330
1E
100
AcDbEntity
  8
CONTINUOUS1
100
AcDbLine
 10
301.5
 20
484.1410169999999
 30
0.0
 11
302.4999999999999
 21
484.1410169999999
 31
0.0
  0
LINE
  5
5C3
330
1E
100
AcDbEntity
  8
CONTINUOUS1
100
AcDbLine
 10
302.4999999999999
 20
484.1410169999999
 30
0.0
 11
302.4999999999999
 21
487.6410169999999
 31
0.0
  0
LINE
  5
5C4
330
1E
100
AcDbEntity
  8
CONTINUOUS1
100
AcDbLine
 10
302.4999999999999
 20
487.6410169999999
 30
0.0
 11
301.5
 21
487.6410169999999
 31
0.0
  0
LINE
  5
5C5
330
1E
100
AcDbEntity
  8
CONTINUOUS1
100
AcDbLine
 10
304.0
 20
487.6410169999999
 30
0.0
 11
304.0
 21
484.1410169999999
 31
0.0
  0
LINE
  5
5C6
330
1E
100
AcDbEntity
  8
CONTINUOUS1
100
AcDbLine
 10
304.0
 20
484.1410169999999
 30
0.0
 11
305.0
 21
484.1410169999999
 31
0.0
  0
LINE
  5
5C7
330
1E
100
AcDbEntity
  8
CONTINUOUS1
100
AcDbLine
 10
305.0
 20
484.1410169999999
 30
0.0
 11
305.0
 21
487.6410169999999
 31
0.0
  0
LINE
  5
5C8
330
1E
100
AcDbEntity
  8
CONTINUOUS1
100
AcDbLine
 10
305.0
 20
487.6410169999999
 30
0.0
 11
304.0
 21
487.6410169999999
 31
0.0
  0
LINE
  5
5C9
330
1E
100
AcDbEntity
  8
CONTINUOUS1
100
AcDbLine
 10
306.4999999999999
 20
487.6410169999999
 30
0.0
 11
306.4999999999999
 21
484.1410169999999
 31
0.0
  0
LINE
  5
5CA
330
1E
100
AcDbEntity
  8
CONTINUOUS1
100
AcDbLine
 10
306.4999999999999
 20
484.1410169999999
 30
0.0
 11
307.5
 21
484.1410169999999
 31
0.0
  0
LINE
  5
5CB
330
1E
100
AcDbEntity
  8
CONTINUOUS1
100
AcDbLine
 10
307.5
 20
484.1410169999999
 30
0.0
 11
307.5
 21
487.6410169999999
 31
0.0
  0
LINE
  5
5CC
330
1E
100
AcDbEntity
  8
CONTINUOUS1
100
AcDbLine
 10
307.5
 20
487.6410169999999
 30
0.0
 11
306.4999999999999
 21
487.6410169999999
 31
0.0
  0
LINE
  5
5CD
330
1E
100
AcDbEntity
  8
CONTINUOUS1
100
AcDbLine
 10
309.0
 20
487.6410169999999
 30
0.0
 11
309.0
 21
484.1410169999999
 31
0.0
  0
LINE
  5
5CE
330
1E
100
AcDbEntity
  8
CONTINUOUS1
100
AcDbLine
 10
309.0
 20
484.1410169999999
 30
0.0
 11
310.0
 21
484.1410169999999
 31
0.0
  0
LINE
  5
5CF
330
1E
100
AcDbEntity
  8
CONTINUOUS1
100
AcDbLine
 10
310.0
 20
484.1410169999999
 30
0.0
 11
310.0
 21
487.6410169999999
 31
0.0
  0
LINE
  5
5D0
330
1E
100
AcDbEntity
  8
CONTINUOUS1
100
AcDbLine
 10
310.0
 20
487.6410169999999
 30
0.0
 11
309.0
 21
487.6410169999999
 31
0.0
  0
LINE
  5
5D1
330
1E
100
AcDbEntity
  8
CONTINUOUS1
100
AcDbLine
 10
311.5
 20
487.6410169999999
 30
0.0
 11
311.5
 21
484.1410169999999
 31
0.0
  0
LINE
  5
5D2
330
1E
100
AcDbEntity
  8
CONTINUOUS1
100
AcDbLine
 10
311.5
 20
484.1410169999999
 30
0.0
 11
312.5
 21
484.1410169999999
 31
0.0
  0
LINE
  5
5D3
330
1E
100
AcDbEntity
  8
CONTINUOUS1
100
AcDbLine
 10
312.5
 20
484.1410169999999
 30
0.0
 11
312.5
 21
487.6410169999999
 31
0.0
  0
LINE
  5
5D4
330
1E
100
AcDbEntity
  8
CONTINUOUS1
100
AcDbLine
 10
312.5
 20
487.6410169999999
 30
0.0
 11
311.5
 21
487.6410169999999
 31
0.0
  0
LINE
  5
5D5
330
1E
100
AcDbEntity
  8
CONTINUOUS1
100
AcDbLine
 10
315.0
 20
489.8910169999999
 30
0.0
 11
316.0
 21
490.3910169999999
 31
0.0
  0
LINE
  5
5D6
330
1E
100
AcDbEntity
  8
CONTINUOUS1
100
AcDbLine
 10
316.0
 20
490.3910169999999
 30
0.0
 11
317.0
 21
490.3910169999999
 31
0.0
  0
LINE
  5
5D7
330
1E
100
AcDbEntity
  8
CONTINUOUS1
100
AcDbLine
 10
317.0
 20
490.3910169999999
 30
0.0
 11
317.0
 21
490.8910169999999
 31
0.0
  0
LINE
  5
5D8
330
1E
100
AcDbEntity
  8
CONTINUOUS1
100
AcDbLine
 10
315.0000009999999
 20
481.8910169999999
 30
0.0
 11
316.0
 21
481.3910169999999
 31
0.0
  0
LINE
  5
5D9
330
1E
100
AcDbEntity
  8
CONTINUOUS1
100
AcDbLine
 10
316.0
 20
481.3910169999999
 30
0.0
 11
317.0
 21
481.3910169999999
 31
0.0
  0
LINE
  5
5DA
330
1E
100
AcDbEntity
  8
CONTINUOUS1
100
AcDbLine
 10
317.0
 20
481.3910169999999
 30
0.0
 11
317.0
 21
480.8910169999999
 31
0.0
  0
LINE
  5
5DB
330
1E
100
AcDbEntity
  8
CONTINUOUS1
100
AcDbLine
 10
315.0
 20
481.8910169999999
 30
0.0
 11
315.0
 21
489.8910169999999
 31
0.0
  0
LINE
  5
5DC
330
1E
100
AcDbEntity
  8
CONTINUOUS1
100
AcDbLine
 10
316.0
 20
490.3910169999999
 30
0.0
 11
316.0
 21
481.3910169999999
 31
0.0
  0
LINE
  5
5DD
330
1E
100
AcDbEntity
  8
CONTINUOUS1
100
AcDbLine
 10
317.0
 20
490.8910169999999
 30
0.0
 11
336.0
 21
490.8910169999999
 31
0.0
  0
LINE
  5
5DE
330
1E
100
AcDbEntity
  8
CONTINUOUS1
100
AcDbLine
 10
336.0
 20
490.8910169999999
 30
0.0
 11
336.0
 21
480.8910169999999
 31
0.0
  0
LINE
  5
5DF
330
1E
100
AcDbEntity
  8
CONTINUOUS1
100
AcDbLine
 10
336.0
 20
480.8910169999999
 30
0.0
 11
317.0
 21
480.8910169999999
 31
0.0
  0
LINE
  5
5E0
330
1E
100
AcDbEntity
  8
CONTINUOUS1
100
AcDbLine
 10
317.0
 20
481.3910169999999
 30
0.0
 11
317.0
 21
490.3910169999999
 31
0.0
  0
LINE
  5
5E1
330
1E
100
AcDbEntity
  8
CONTINUOUS1
100
AcDbLine
 10
317.0
 20
488.391017
 30
0.0
 11
336.0
 21
488.391017
 31
0.0
  0
LINE
  5
5E2
330
1E
100
AcDbEntity
  8
CONTINUOUS1
100
AcDbLine
 10
317.0
 20
483.391017
 30
0.0
 11
336.0
 21
483.391017
 31
0.0
  0
LINE
  5
5E3
330
1E
100
AcDbEntity
  8
CONTINUOUS1
100
AcDbLine
 10
337.0
 20
489.8910169999999
 30
0.0
 11
339.0
 21
489.8910169999999
 31
0.0
  0
LINE
  5
5E4
330
1E
100
AcDbEntity
  8
CONTINUOUS1
100
AcDbLine
 10
339.0
 20
489.8910169999999
 30
0.0
 11
339.0
 21
481.8910169999999
 31
0.0
  0
LINE
  5
5E5
330
1E
100
AcDbEntity
  8
CONTINUOUS1
100
AcDbLine
 10
339.0
 20
481.8910169999999
 30
0.0
 11
337.0
 21
481.8910169999999
 31
0.0
  0
ARC
  5
5E6
330
1E
100
AcDbEntity
  8
CONTINUOUS1
100
AcDbCircle
 10
336.0
 20
489.8910169999999
 30
0.0
 40
1.0
100
AcDbArc
 50
0.0
 51
90.0
  0
LINE
  5
5E7
330
1E
100
AcDbEntity
  8
CONTINUOUS1
100
AcDbLine
 10
337.0
 20
489.8910169999999
 30
0.0
 11
337.0
 21
481.8910169999999
 31
0.0
  0
ARC
  5
5E8
330
1E
100
AcDbEntity
  8
CONTINUOUS1
100
AcDbCircle
 10
336.0
 20
481.8910169999999
 30
0.0
 40
1.0
100
AcDbArc
 50
270.0
 51
0.0
  0
LINE
  5
5E9
330
1E
100
AcDbEntity
  8
CONTINUOUS1
100
AcDbLine
 10
300.0
 20
484.6410169999999
 30
0.0
 11
300.0
 21
487.1410169999999
 31
0.0
  0
LINE
  5
5EA
330
1E
100
AcDbEntity
  8
CONTINUOUS1
100
AcDbLine
 10
300.0
 20
464.641017
 30
0.0
 11
300.0000009999999
 21
466.891017
 31
0.0
  0
LINE
  5
5EB
330
1E
100
AcDbEntity
  8
CONTINUOUS1
100
AcDbLine
 10
300.0000009999999
 20
466.891017
 30
0.0
 11
302.0
 21
467.186669
 31
0.0
  0
LINE
  5
5EC
330
1E
100
AcDbEntity
  8
CONTINUOUS1
100
AcDbLine
 10
302.0
 20
467.186669
 30
0.0
 11
302.0
 21
465.3910169999999
 31
0.0
  0
LINE
  5
5ED
330
1E
100
AcDbEntity
  8
CONTINUOUS1
100
AcDbLine
 10
302.0
 20
465.3910169999999
 30
0.0
 11
303.0
 21
465.3910169999999
 31
0.0
  0
LINE
  5
5EE
330
1E
100
AcDbEntity
  8
CONTINUOUS1
100
AcDbLine
 10
303.0
 20
465.3910169999999
 30
0.0
 11
303.0
 21
467.3344949999999
 31
0.0
  0
LINE
  5
5EF
330
1E
100
AcDbEntity
  8
CONTINUOUS1
100
AcDbLine
 10
303.0
 20
467.3344949999999
 30
0.0
 11
304.0
 21
467.482321
 31
0.0
  0
LINE
  5
5F0
330
1E
100
AcDbEntity
  8
CONTINUOUS1
100
AcDbLine
 10
304.0
 20
467.482321
 30
0.0
 11
304.0
 21
465.3910169999999
 31
0.0
  0
LINE
  5
5F1
330
1E
100
AcDbEntity
  8
CONTINUOUS1
100
AcDbLine
 10
304.0
 20
465.3910169999999
 30
0.0
 11
305.0
 21
465.3910169999999
 31
0.0
  0
LINE
  5
5F2
330
1E
100
AcDbEntity
  8
CONTINUOUS1
100
AcDbLine
 10
305.0
 20
465.3910169999999
 30
0.0
 11
305.0
 21
467.6301469999999
 31
0.0
  0
LINE
  5
5F3
330
1E
100
AcDbEntity
  8
CONTINUOUS1
100
AcDbLine
 10
305.0
 20
467.6301469999999
 30
0.0
 11
323.0000009999999
 21
470.291017
 31
0.0
  0
LINE
  5
5F4
330
1E
100
AcDbEntity
  8
CONTINUOUS1
100
AcDbLine
 10
300.0
 20
462.1410169999999
 30
0.0
 11
300.0
 21
459.8910169999999
 31
0.0
  0
LINE
  5
5F5
330
1E
100
AcDbEntity
  8
CONTINUOUS1
100
AcDbLine
 10
300.0
 20
459.8910169999999
 30
0.0
 11
302.0
 21
459.595365
 31
0.0
  0
LINE
  5
5F6
330
1E
100
AcDbEntity
  8
CONTINUOUS1
100
AcDbLine
 10
302.0
 20
459.595365
 30
0.0
 11
302.0
 21
461.3910169999999
 31
0.0
  0
LINE
  5
5F7
330
1E
100
AcDbEntity
  8
CONTINUOUS1
100
AcDbLine
 10
302.0
 20
461.3910169999999
 30
0.0
 11
303.0
 21
461.3910169999999
 31
0.0
  0
LINE
  5
5F8
330
1E
100
AcDbEntity
  8
CONTINUOUS1
100
AcDbLine
 10
303.0
 20
461.3910169999999
 30
0.0
 11
303.0
 21
459.4475389999999
 31
0.0
  0
LINE
  5
5F9
330
1E
100
AcDbEntity
  8
CONTINUOUS1
100
AcDbLine
 10
303.0
 20
459.4475389999999
 30
0.0
 11
304.0
 21
459.2997129999999
 31
0.0
  0
LINE
  5
5FA
330
1E
100
AcDbEntity
  8
CONTINUOUS1
100
AcDbLine
 10
304.0
 20
459.2997129999999
 30
0.0
 11
304.0
 21
461.3910169999999
 31
0.0
  0
LINE
  5
5FB
330
1E
100
AcDbEntity
  8
CONTINUOUS1
100
AcDbLine
 10
304.0
 20
461.3910169999999
 30
0.0
 11
305.0
 21
461.3910169999999
 31
0.0
  0
LINE
  5
5FC
330
1E
100
AcDbEntity
  8
CONTINUOUS1
100
AcDbLine
 10
305.0
 20
461.3910169999999
 30
0.0
 11
305.0
 21
459.151886
 31
0.0
  0
LINE
  5
5FD
330
1E
100
AcDbEntity
  8
CONTINUOUS1
100
AcDbLine
 10
305.0
 20
459.151886
 30
0.0
 11
323.0
 21
456.491017
 31
0.0
  0
LINE
  5
5FE
330
1E
100
AcDbEntity
  8
CONTINUOUS1
100
AcDbLine
 10
300.0
 20
462.1410169999999
 30
0.0
 11
300.0
 21
464.641017
 31
0.0
  0
LINE
  5
5FF
330
1E
100
AcDbEntity
  8
CONTINUOUS1
100
AcDbLine
 10
323.0
 20
470.291016
 30
0.0
 11
332.0
 21
470.291016
 31
0.0
  0
LINE
  5
600
330
1E
100
AcDbEntity
  8
CONTINUOUS1
100
AcDbLine
 10
332.0
 20
470.291016
 30
0.0
 11
332.0
 21
456.491017
 31
0.0
  0
LINE
  5
601
330
1E
100
AcDbEntity
  8
CONTINUOUS1
100
AcDbLine
 10
332.0
 20
456.491017
 30
0.0
 11
323.0
 21
456.491017
 31
0.0
  0
LINE
  5
602
330
1E
100
AcDbEntity
  8
CONTINUOUS1
100
AcDbLine
 10
326.5
 20
470.291016
 30
0.0
 11
326.5
 21
456.491017
 31
0.0
  0
LINE
  5
603
330
1E
100
AcDbEntity
  8
CONTINUOUS1
100
AcDbLine
 10
327.0
 20
470.291016
 30
0.0
 11
327.0
 21
456.491016
 31
0.0
  0
LINE
  5
604
330
1E
100
AcDbEntity
  8
CONTINUOUS1
100
AcDbLine
 10
327.4999999999999
 20
470.291016
 30
0.0
 11
327.4999999999999
 21
456.491016
 31
0.0
  0
LINE
  5
605
330
1E
100
AcDbEntity
  8
CONTINUOUS1
100
AcDbLine
 10
328.0
 20
470.291016
 30
0.0
 11
328.0
 21
456.491016
 31
0.0
  0
LINE
  5
606
330
1E
100
AcDbEntity
  8
CONTINUOUS1
100
AcDbLine
 10
328.5
 20
470.291016
 30
0.0
 11
328.5
 21
456.491017
 31
0.0
  0
LINE
  5
607
330
1E
100
AcDbEntity
  8
CONTINUOUS1
100
AcDbLine
 10
323.0
 20
456.491017
 30
0.0
 11
323.0
 21
470.291016
 31
0.0
  0
LINE
  5
608
330
1E
100
AcDbEntity
  8
CONTINUOUS1
100
AcDbLine
 10
302.0
 20
461.3910169999999
 30
0.0
 11
302.0
 21
465.3910169999999
 31
0.0
  0
LINE
  5
609
330
1E
100
AcDbEntity
  8
CONTINUOUS1
100
AcDbLine
 10
303.0
 20
461.3910169999999
 30
0.0
 11
303.0
 21
465.3910169999999
 31
0.0
  0
LINE
  5
60A
330
1E
100
AcDbEntity
  8
CONTINUOUS1
100
AcDbLine
 10
305.0
 20
461.3910169999999
 30
0.0
 11
305.0
 21
465.3910169999999
 31
0.0
  0
LINE
  5
60B
330
1E
100
AcDbEntity
  8
CONTINUOUS1
100
AcDbLine
 10
304.0
 20
461.3910169999999
 30
0.0
 11
304.0
 21
465.3910169999999
 31
0.0
  0
ARC
  5
60C
330
1E
100
AcDbEntity
  8
CONTINUOUS1
100
AcDbCircle
 10
321.461025
 20
459.2749129999999
 30
0.0
 40
1.0
100
AcDbArc
 50
266.0
 51
86.0
  0
LINE
  5
60D
330
1E
100
AcDbEntity
  8
CONTINUOUS1
100
AcDbLine
 10
321.391268
 20
458.277349
 30
0.0
 11
305.5
 21
460.3910169999999
 31
0.0
  0
LINE
  5
60E
330
1E
100
AcDbEntity
  8
CONTINUOUS1
100
AcDbLine
 10
305.5
 20
460.3910169999999
 30
0.0
 11
321.530781
 21
460.272477
 31
0.0
  0
ARC
  5
60F
330
1E
100
AcDbEntity
  8
CONTINUOUS1
100
AcDbCircle
 10
321.461025
 20
467.50712
 30
0.0
 40
1.0
100
AcDbArc
 50
274.0
 51
94.0
  0
LINE
  5
610
330
1E
100
AcDbEntity
  8
CONTINUOUS1
100
AcDbLine
 10
321.530781
 20
466.509556
 30
0.0
 11
305.5
 21
466.391017
 31
0.0
  0
LINE
  5
611
330
1E
100
AcDbEntity
  8
CONTINUOUS1
100
AcDbLine
 10
305.5
 20
466.391017
 30
0.0
 11
321.391268
 21
468.504684
 31
0.0
  0
LINE
  5
612
330
1E
100
AcDbEntity
  8
CONTINUOUS1
100
AcDbLine
 10
332.0
 20
468.191017
 30
0.0
 11
343.0
 21
468.191017
 31
0.0
  0
LINE
  5
613
330
1E
100
AcDbEntity
  8
CONTINUOUS1
100
AcDbLine
 10
343.0
 20
468.191017
 30
0.0
 11
343.0
 21
458.591017
 31
0.0
  0
LINE
  5
614
330
1E
100
AcDbEntity
  8
CONTINUOUS1
100
AcDbLine
 10
343.0
 20
458.591017
 30
0.0
 11
332.0
 21
458.591017
 31
0.0
  0
CIRCLE
  5
615
330
1E
100
AcDbEntity
  8
CONTINUOUS1
100
AcDbCircle
 10
339.8
 20
463.391017
 30
0.0
 40
1.0
  0
LINE
  5
616
330
1E
100
AcDbEntity
  8
HIDDEN1
100
AcDbLine
 10
182.5
 20
245.842989
 30
0.0
 11
182.5
 21
215.5679479999999
 31
0.0
  0
ARC
  5
617
330
1E
100
AcDbEntity
  8
HIDDEN1
100
AcDbCircle
 10
190.5
 20
245.842989
 30
0.0
 40
8.0
100
AcDbArc
 50
119.446504
 51
180.0
  0
ARC
  5
618
330
1E
100
AcDbEntity
  8
HIDDEN1
100
AcDbCircle
 10
200.0
 20
229.015155
 30
0.0
 40
27.324233
100
AcDbArc
 50
60.55349599999999
 51
119.446504
  0
LINE
  5
619
330
1E
100
AcDbEntity
  8
HIDDEN1
100
AcDbLine
 10
217.5
 20
245.842989
 30
0.0
 11
217.5
 21
215.5679479999999
 31
0.0
  0
ARC
  5
61A
330
1E
100
AcDbEntity
  8
HIDDEN1
100
AcDbCircle
 10
209.5
 20
245.842989
 30
0.0
 40
8.0
100
AcDbArc
 50
0.0
 51
60.55349599999999
  0
CIRCLE
  5
61B
330
1E
100
AcDbEntity
  8
HIDDEN1
100
AcDbCircle
 10
200.0
 20
240.3393879999999
 30
0.0
 40
14.5
  0
CIRCLE
  5
61C
330
1E
100
AcDbEntity
  8
HIDDEN1
100
AcDbCircle
 10
200.0
 20
240.3393879999999
 30
0.0
 40
13.5
  0
CIRCLE
  5
61D
330
1E
100
AcDbEntity
  8
HIDDEN1
100
AcDbCircle
 10
200.0
 20
240.3393879999999
 30
0.0
 40
10.5
  0
CIRCLE
  5
61E
330
1E
100
AcDbEntity
  8
HIDDEN1
100
AcDbCircle
 10
200.0000009999999
 20
440.0
 30
0.0
 40
40.0
  0
LINE
  5
61F
330
1E
100
AcDbEntity
  8
CONTINUOUS1
100
AcDbLine
 10
160.000001
 20
440.0
 30
0.0
 11
200.0000009999999
 21
440.0
 31
0.0
  0
LINE
  5
620
330
1E
100
AcDbEntity
  8
CONTINUOUS1
100
AcDbLine
 10
179.2153919999999
 20
452.000001
 30
0.0
 11
196.5359
 21
442.0
 31
0.0
  0
LINE
  5
621
330
1E
100
AcDbEntity
  8
CONTINUOUS1
100
AcDbLine
 10
200.0
 20
416.0
 30
0.0
 11
200.0000009999999
 21
436.0
 31
0.0
  0
LINE
  5
628
330
1E
100
AcDbEntity
  8
CONTINUOUS1
100
AcDbLine
 10
220.78461
 20
452.000001
 30
0.0
 11
203.464102
 21
442.0000009999999
 31
0.0
  0
LINE
  5
629
330
1E
100
AcDbEntity
  8
CONTINUOUS1
100
AcDbLine
 10
179.2153909999999
 20
452.000001
 30
0.0
 11
196.5358979999999
 21
442.0000009999999
 31
0.0
  0
LINE
  5
630
330
1E
100
AcDbEntity
  8
CONTINUOUS1
100
AcDbLine
 10
200.0000019999999
 20
416.000001
 30
0.0
 11
200.0
 21
436.000001
 31
0.0
  0
LINE
  5
631
330
1E
100
AcDbEntity
  8
CONTINUOUS1
100
AcDbLine
 10
220.78461
 20
452.000001
 30
0.0
 11
203.464102
 21
442.0000009999999
 31
0.0
  0
LINE
  5
638
330
1E
100
AcDbEntity
  8
CONTINUOUS1
100
AcDbLine
 10
160.000001
 20
440.0
 30
0.0
 11
163.8637049999999
 21
441.0352759999999
 31
0.0
  0
LINE
  5
639
330
1E
100
AcDbEntity
  8
CONTINUOUS1
100
AcDbLine
 10
160.000001
 20
440.0
 30
0.0
 11
163.8637049999999
 21
438.964724
 31
0.0
  0
TEXT
  5
63A
330
1E
100
AcDbEntity
  8
CONTINUOUS1
100
AcDbText
 10
168.1496979849849
 20
440.8160150856001
 30
0.0
 40
5.0
  1
R40
100
AcDbText
  0
LINE
  5
653
330
1E
100
AcDbEntity
  8
CONTINUOUS1
100
AcDbLine
 10
202.2912879999999
 20
399.0
 30
0.0
 11
225.0
 21
360.0
 31
0.0
  0
LINE
  5
654
330
1E
100
AcDbEntity
  8
CONTINUOUS1
100
AcDbLine
 10
225.0
 20
360.0
 30
0.0
 11
278.599596
 21
360.0
 31
0.0
  0
TEXT
  5
655
330
1E
100
AcDbEntity
  8
CONTINUOUS1
100
AcDbText
 10
226.599596
 20
362.0
 30
0.0
 40
5.0
  1
3-φ5.0
100
AcDbText
  0
LINE
  5
656
330
1E
100
AcDbEntity
  8
CONTINUOUS1
100
AcDbLine
 10
202.2912879999999
 20
399.0
 30
0.0
 11
205.13012
 21
396.182016
 31
0.0
  0
LINE
  5
657
330
1E
100
AcDbEntity
  8
CONTINUOUS1
100
AcDbLine
 10
202.2912879999999
 20
399.0
 30
0.0
 11
203.3407959999999
 21
395.140138
 31
0.0
  0
TEXT
  5
658
330
1E
100
AcDbEntity
  8
CONTINUOUS1
100
AcDbText
 10
345.0
 20
482.0
 30
0.0
 40
5.0
  1
DC12V
100
AcDbText
  0
TEXT
  5
659
330
1E
100
AcDbEntity
  8
CONTINUOUS1
100
AcDbText
 10
300.0
 20
443.808983
 30
0.0
 40
6.0
  1
映像：     メス
100
AcDbText
  0
LINE
  5
65D
330
1E
100
AcDbEntity
  8
CONTINUOUS1
100
AcDbLine
 10
172.240512
 20
479.15879
 30
0.0
 11
178.096922
 21
464.269115
 31
0.0
  0
LINE
  5
65E
330
1E
100
AcDbEntity
  8
CONTINUOUS1
100
AcDbLine
 10
178.096922
 20
464.269115
 30
0.0
 11
199.500834
 21
472.6876980000001
 31
0.0
  0
LINE
  5
65F
330
1E
100
AcDbEntity
  8
CONTINUOUS1
100
AcDbLine
 10
199.500834
 20
472.6876980000001
 30
0.0
 11
193.644428
 21
487.5773759999999
 31
0.0
  0
LINE
  5
660
330
1E
100
AcDbEntity
  8
CONTINUOUS1
100
AcDbLine
 10
193.644428
 20
487.5773759999999
 30
0.0
 11
172.240512
 21
479.15879
 31
0.0
  0
CIRCLE
  5
661
330
1E
100
AcDbEntity
  8
CONTINUOUS1
100
AcDbCircle
 10
191.8514139999999
 20
482.5738669999999
 30
0.0
 40
1.5
  0
CIRCLE
  5
662
330
1E
100
AcDbEntity
  8
CONTINUOUS1
100
AcDbCircle
 10
179.889939
 20
469.272623
 30
0.0
 40
1.5
  0
TEXT
  5
663
330
1E
100
AcDbEntity
  8
CONTINUOUS1
100
AcDbText
 10
300.0
 20
497.0
 30
0.0
 40
6.0
  1
電源：     ジャック
100
AcDbText
  0
MTEXT
  5
672
330
1E
100
AcDbEntity
  8
0
100
AcDbMText
 10
321.6122247496814
 20
502.0855623507218
 30
0.0
 40
5.0
 41
38.34
 71
     1
 72
     5
  1
φ2.1
 73
     1
 44
1.0
  0
MTEXT
  5
678
330
1E
100
AcDbEntity
  8
0
100
AcDbMText
 10
322.2790844424298
 20
449.0089721659789
 30
0.0
 40
5.0
 41
16.46
 71
     1
 72
     5
  1
BNC
 73
     1
 44
1.0
  0
LINE
  5
69B
330
1E
100
AcDbEntity
  8
0
100
AcDbLine
 10
144.0
 20
306.6411973106064
 30
0.0
 11
144.0
 21
329.1670045663757
 31
0.0
  0
LINE
  5
69C
330
1E
100
AcDbEntity
  8
0
100
AcDbLine
 10
256.0
 20
307.132571972411
 30
0.0
 11
256.0
 21
329.1670045663757
 31
0.0
  0
LINE
  5
69D
330
1E
100
AcDbEntity
  8
0
100
AcDbLine
 10
145.0
 20
329.1670045663757
 30
0.0
 11
199.7299999999999
 21
329.1670045663757
 31
0.0
  0
LINE
  5
69E
330
1E
100
AcDbEntity
  8
0
100
AcDbLine
 10
255.0
 20
329.1670045663757
 30
0.0
 11
200.2699999999999
 21
329.1670045663757
 31
0.0
  0
SOLID
  5
69F
330
1E
100
AcDbEntity
  8
0
100
AcDbTrace
 10
145.0
 20
329.3336712330423
 30
0.0
 11
145.0
 21
329.000337899709
 31
0.0
 12
144.0
 22
329.1670045663757
 32
0.0
 13
144.0
 23
329.1670045663757
 33
0.0
  0
SOLID
  5
6A0
330
1E
100
AcDbEntity
  8
0
100
AcDbTrace
 10
255.0
 20
329.3336712330423
 30
0.0
 11
255.0
 21
329.000337899709
 31
0.0
 12
256.0
 22
329.1670045663757
 32
0.0
 13
256.0
 23
329.1670045663757
 33
0.0
  0
MTEXT
  5
6A1
330
1E
100
AcDbEntity
  8
0
100
AcDbMText
 10
200.0
 20
336.1459791313586
 30
0.0
 40
5.0
 41
0.0
 71
     5
 72
     1
  1
φ112
 73
     1
 44
1.0
  0
LINE
  5
6A2
330
1E
100
AcDbEntity
  8
0
100
AcDbLine
 10
264.4258535245514
 20
212.339388
 30
0.0
 11
288.0208950493927
 21
212.339388
 31
0.0
  0
LINE
  5
6A3
330
1E
100
AcDbEntity
  8
0
100
AcDbLine
 10
264.4258535245514
 20
299.839388
 30
0.0
 11
288.0208950493927
 21
299.839388
 31
0.0
  0
LINE
  5
6A4
330
1E
100
AcDbEntity
  8
0
100
AcDbLine
 10
288.0208950493927
 20
213.339388
 30
0.0
 11
288.0208950493927
 21
255.909388
 31
0.0
  0
LINE
  5
6A5
330
1E
100
AcDbEntity
  8
0
100
AcDbLine
 10
288.0208950493927
 20
298.8393879999999
 30
0.0
 11
288.0208950493927
 21
256.269388
 31
0.0
  0
SOLID
  5
6A6
330
1E
100
AcDbEntity
  8
0
100
AcDbTrace
 10
287.854228382726
 20
213.339388
 30
0.0
 11
288.1875617160594
 21
213.339388
 31
0.0
 12
288.0208950493927
 22
212.339388
 32
0.0
 13
288.0208950493927
 23
212.339388
 33
0.0
  0
SOLID
  5
6A7
330
1E
100
AcDbEntity
  8
0
100
AcDbTrace
 10
287.854228382726
 20
298.8393879999999
 30
0.0
 11
288.1875617160594
 21
298.8393879999999
 31
0.0
 12
288.0208950493927
 22
299.839388
 32
0.0
 13
288.0208950493927
 23
299.839388
 33
0.0
  0
MTEXT
  5
6A8
330
1E
100
AcDbEntity
  8
0
100
AcDbMText
 10
282.8013810998356
 20
256.089388
 30
0.0
 40
5.0
 41
0.0
 71
     5
 72
     1
  1
87.5
 11
0.0000000000000001
 21
1.0
 31
0.0
 73
     1
 44
1.0
  0
TEXT
  5
6A9
330
1E
100
AcDbEntity
  8
CONTINUOUS1
100
AcDbText
 10
254.3136782957994
 20
362.0
 30
0.0
 40
6.0
  1
取付穴
100
AcDbText
  0
ENDSEC
  0
SECTION
  2
OBJECTS
  0
DICTIONARY
  5
C
330
0
100
AcDbDictionary
281
     1
  3
ACAD_GROUP
350
D
  3
ACAD_LAYOUT
350
19
  3
ACAD_MLINESTYLE
350
16
  3
ACAD_PLOTSETTINGS
350
18
  3
ACAD_PLOTSTYLENAME
350
E
  0
DICTIONARY
  5
D
102
{ACAD_REACTORS
330
C
102
}
330
C
100
AcDbDictionary
281
     1
  0
DICTIONARY
  5
19
102
{ACAD_REACTORS
330
C
102
}
330
C
100
AcDbDictionary
281
     1
  3
Model
350
21
  3
ﾚｲｱｳﾄ1
350
1D
  0
DICTIONARY
  5
16
102
{ACAD_REACTORS
330
C
102
}
330
C
100
AcDbDictionary
281
     1
  3
Standard
350
17
  0
DICTIONARY
  5
18
102
{ACAD_REACTORS
330
C
102
}
330
C
100
AcDbDictionary
281
     1
  0
ACDBDICTIONARYWDFLT
  5
E
102
{ACAD_REACTORS
330
C
102
}
330
C
100
AcDbDictionary
281
     1
  3
Normal
350
F
100
AcDbDictionaryWithDefault
340
F
  0
LAYOUT
  5
21
102
{ACAD_REACTORS
330
19
102
}
330
19
100
AcDbPlotSettings
  1

  2
自動 Canon LASER SHOT LBP-1820 (merit 上)
  4
A4
  6

 40
5.873749732971191
 41
5.873747825622558
 42
5.873748779296875
 43
5.873748779296875
 44
209.9733276367187
 45
296.9259948730469
 46
0.0
 47
0.0
 48
0.0
 49
0.0
140
0.0
141
0.0
142
1.0
143
109.5468884824409
 70
 11952
 72
     0
 73
     0
 74
     0
  7

 75
     0
147
0.0091285112142668
148
4050.402656734425
149
125.7704987023305
100
AcDbLayout
  1
Model
 70
     1
 71
     0
 10
0.0
 20
0.0
 11
12.0
 21
9.0
 12
0.0
 22
0.0
 32
0.0
 14
0.0
 24
0.0
 34
0.0
 15
0.0
 25
0.0
 35
0.0
146
0.0
 13
0.0
 23
0.0
 33
0.0
 16
1.0
 26
0.0
 36
0.0
 17
0.0
 27
1.0
 37
0.0
 76
     0
330
1E
  0
LAYOUT
  5
1D
102
{ACAD_REACTORS
330
19
102
}
330
19
100
AcDbPlotSettings
  1

  2
自動 Canon LASER SHOT LBP-1820 (merit 上)
  4

  6

 40
0.0
 41
0.0
 42
0.0
 43
0.0
 44
0.0
 45
0.0
 46
0.0
 47
0.0
 48
0.0
 49
0.0
140
0.0
141
0.0
142
1.0
143
1.0
 70
   688
 72
     0
 73
     0
 74
     5
  7

 75
    16
147
1.0
148
0.0
149
0.0
100
AcDbLayout
  1
ﾚｲｱｳﾄ1
 70
     1
 71
     1
 10
0.0
 20
0.0
 11
12.0
 21
9.0
 12
0.0
 22
0.0
 32
0.0
 14
0.0
 24
0.0
 34
0.0
 15
210.0
 25
297.0
 35
0.0
146
0.0
 13
0.0
 23
0.0
 33
0.0
 16
1.0
 26
0.0
 36
0.0
 17
0.0
 27
1.0
 37
0.0
 76
     0
330
1A
  0
MLINESTYLE
  5
17
102
{ACAD_REACTORS
330
16
102
}
330
16
100
AcDbMlineStyle
  2
STANDARD
 70
     0
  3

 62
   256
 51
90.0
 52
90.0
 71
     2
 49
0.5
 62
   256
  6
BYLAYER
 49
-0.5
 62
   256
  6
BYLAYER
  0
ACDBPLACEHOLDER
  5
F
102
{ACAD_REACTORS
330
E
102
}
330
E
  0
ENDSEC
  0
EOF
