  0
SECTION
  2
HEADER
  9
$ACADVER
  1
AC1015
  9
$ACADMAINTVER
 70
     6
  9
$DWGCODEPAGE
  3
ANSI_932
  9
$INSBASE
 10
0.0
 20
0.0
 30
0.0
  9
$EXTMIN
 10
171.6306182002072
 20
248.7684970337604
 30
-0.0015258207003583
  9
$EXTMAX
 10
1002.683169054197
 20
646.8676775121917
 30
0.0000000349246037
  9
$LIMMIN
 10
0.0
 20
0.0
  9
$LIMMAX
 10
1188.0
 20
840.0
  9
$ORTHOMODE
 70
     0
  9
$REGENMODE
 70
     1
  9
$FILLMODE
 70
     1
  9
$QTEXTMODE
 70
     0
  9
$MIRRTEXT
 70
     1
  9
$LTSCALE
 40
1.0
  9
$ATTMODE
 70
     1
  9
$TEXTSIZE
 40
0.2
  9
$TRACEWID
 40
0.05
  9
$TEXTSTYLE
  7
STANDARD
  9
$CLAYER
  8
0
  9
$CELTYPE
  6
ByLayer
  9
$CECOLOR
 62
   256
  9
$CELTSCALE
 40
1.0
  9
$DISPSILH
 70
     0
  9
$DIMSCALE
 40
1.0
  9
$DIMASZ
 40
1.0
  9
$DIMEXO
 40
0.0
  9
$DIMDLI
 40
0.5
  9
$DIMRND
 40
0.0
  9
$DIMDLE
 40
0.0
  9
$DIMEXE
 40
0.0
  9
$DIMTP
 40
0.0
  9
$DIMTM
 40
0.0
  9
$DIMTXT
 40
0.18
  9
$DIMCEN
 40
0.0
  9
$DIMTSZ
 40
0.0
  9
$DIMTOL
 70
     0
  9
$DIMLIM
 70
     0
  9
$DIMTIH
 70
     1
  9
$DIMTOH
 70
     1
  9
$DIMSE1
 70
     0
  9
$DIMSE2
 70
     0
  9
$DIMTAD
 70
     0
  9
$DIMZIN
 70
     0
  9
$DIMBLK
  1

  9
$DIMASO
 70
     0
  9
$DIMSHO
 70
     0
  9
$DIMPOST
  1

  9
$DIMAPOST
  1

  9
$DIMALT
 70
     0
  9
$DIMALTD
 70
     0
  9
$DIMALTF
 40
25.4
  9
$DIMLFAC
 40
1.0
  9
$DIMTOFL
 70
     0
  9
$DIMTVP
 40
0.0
  9
$DIMTIX
 70
     0
  9
$DIMSOXD
 70
     0
  9
$DIMSAH
 70
     0
  9
$DIMBLK1
  1

  9
$DIMBLK2
  1

  9
$DIMSTYLE
  2
Standard
  9
$DIMCLRD
 70
     0
  9
$DIMCLRE
 70
     0
  9
$DIMCLRT
 70
     0
  9
$DIMTFAC
 40
1.0
  9
$DIMGAP
 40
0.09
  9
$DIMJUST
 70
     0
  9
$DIMSD1
 70
     0
  9
$DIMSD2
 70
     0
  9
$DIMTOLJ
 70
     1
  9
$DIMTZIN
 70
     0
  9
$DIMALTZ
 70
     0
  9
$DIMALTTZ
 70
     0
  9
$DIMUPT
 70
     0
  9
$DIMDEC
 70
     4
  9
$DIMTDEC
 70
     4
  9
$DIMALTU
 70
     2
  9
$DIMALTTD
 70
     2
  9
$DIMTXSTY
  7
STANDARD
  9
$DIMAUNIT
 70
     0
  9
$DIMADEC
 70
     0
  9
$DIMALTRND
 40
0.0
  9
$DIMAZIN
 70
     0
  9
$DIMDSEP
 70
    46
  9
$DIMATFIT
 70
     3
  9
$DIMFRAC
 70
     0
  9
$DIMLDRBLK
  1

  9
$DIMLUNIT
 70
     2
  9
$DIMLWD
 70
    -2
  9
$DIMLWE
 70
    -2
  9
$DIMTMOVE
 70
     0
  9
$LUNITS
 70
     2
  9
$LUPREC
 70
     2
  9
$SKETCHINC
 40
0.0
  9
$FILLETRAD
 40
0.0
  9
$AUNITS
 70
     1
  9
$AUPREC
 70
     2
  9
$MENU
  1
ACAD
  9
$ELEVATION
 40
0.0
  9
$PELEVATION
 40
0.0
  9
$THICKNESS
 40
0.0
  9
$LIMCHECK
 70
     1
  9
$CHAMFERA
 40
0.0
  9
$CHAMFERB
 40
0.0
  9
$CHAMFERC
 40
0.0
  9
$CHAMFERD
 40
0.0
  9
$SKPOLY
 70
     0
  9
$TDCREATE
 40
2311945.483465903
  9
$TDUCREATE
 40
2311945.108465903
  9
$TDUPDATE
 40
2454799.558914201
  9
$TDUUPDATE
 40
2454799.183914201
  9
$TDINDWG
 40
0.0202045370
  9
$TDUSRTIMER
 40
0.0201992940
  9
$USRTIMER
 70
     1
  9
$ANGBASE
 50
0.0
  9
$ANGDIR
 70
     0
  9
$PDMODE
 70
     0
  9
$PDSIZE
 40
0.0
  9
$PLINEWID
 40
0.0
  9
$SPLFRAME
 70
     0
  9
$SPLINETYPE
 70
     6
  9
$SPLINESEGS
 70
     8
  9
$HANDSEED
  5
505
  9
$SURFTAB1
 70
     6
  9
$SURFTAB2
 70
     6
  9
$SURFTYPE
 70
     6
  9
$SURFU
 70
     6
  9
$SURFV
 70
     6
  9
$UCSBASE
  2

  9
$UCSNAME
  2

  9
$UCSORG
 10
0.0
 20
0.0
 30
0.0
  9
$UCSXDIR
 10
1.0
 20
0.0
 30
0.0
  9
$UCSYDIR
 10
0.0
 20
1.0
 30
0.0
  9
$UCSORTHOREF
  2

  9
$UCSORTHOVIEW
 70
     0
  9
$UCSORGTOP
 10
0.0
 20
0.0
 30
0.0
  9
$UCSORGBOTTOM
 10
0.0
 20
0.0
 30
0.0
  9
$UCSORGLEFT
 10
0.0
 20
0.0
 30
0.0
  9
$UCSORGRIGHT
 10
0.0
 20
0.0
 30
0.0
  9
$UCSORGFRONT
 10
0.0
 20
0.0
 30
0.0
  9
$UCSORGBACK
 10
0.0
 20
0.0
 30
0.0
  9
$PUCSBASE
  2

  9
$PUCSNAME
  2

  9
$PUCSORG
 10
0.0
 20
0.0
 30
0.0
  9
$PUCSXDIR
 10
1.0
 20
0.0
 30
0.0
  9
$PUCSYDIR
 10
0.0
 20
1.0
 30
0.0
  9
$PUCSORTHOREF
  2

  9
$PUCSORTHOVIEW
 70
     0
  9
$PUCSORGTOP
 10
0.0
 20
0.0
 30
0.0
  9
$PUCSORGBOTTOM
 10
0.0
 20
0.0
 30
0.0
  9
$PUCSORGLEFT
 10
0.0
 20
0.0
 30
0.0
  9
$PUCSORGRIGHT
 10
0.0
 20
0.0
 30
0.0
  9
$PUCSORGFRONT
 10
0.0
 20
0.0
 30
0.0
  9
$PUCSORGBACK
 10
0.0
 20
0.0
 30
0.0
  9
$USERI1
 70
     0
  9
$USERI2
 70
     0
  9
$USERI3
 70
     0
  9
$USERI4
 70
     0
  9
$USERI5
 70
     0
  9
$USERR1
 40
0.0
  9
$USERR2
 40
0.0
  9
$USERR3
 40
0.0
  9
$USERR4
 40
0.0
  9
$USERR5
 40
0.0
  9
$WORLDVIEW
 70
     1
  9
$SHADEDGE
 70
     3
  9
$SHADEDIF
 70
    70
  9
$TILEMODE
 70
     1
  9
$MAXACTVP
 70
    64
  9
$PINSBASE
 10
0.0
 20
0.0
 30
0.0
  9
$PLIMCHECK
 70
     0
  9
$PEXTMIN
 10
0.0
 20
0.0
 30
0.0
  9
$PEXTMAX
 10
297.0
 20
210.0
 30
0.0
  9
$PLIMMIN
 10
0.0
 20
0.0
  9
$PLIMMAX
 10
12.0
 20
9.0
  9
$UNITMODE
 70
     0
  9
$VISRETAIN
 70
     1
  9
$PLINEGEN
 70
     0
  9
$PSLTSCALE
 70
     1
  9
$TREEDEPTH
 70
  3020
  9
$CMLSTYLE
  2
Standard
  9
$CMLJUST
 70
     0
  9
$CMLSCALE
 40
1.0
  9
$PROXYGRAPHICS
 70
     1
  9
$MEASUREMENT
 70
     0
  9
$CELWEIGHT
370
    -1
  9
$ENDCAPS
280
     0
  9
$JOINSTYLE
280
     0
  9
$LWDISPLAY
290
     0
  9
$INSUNITS
 70
     0
  9
$HYPERLINKBASE
  1

  9
$STYLESHEET
  1

  9
$XEDIT
290
     1
  9
$CEPSNTYPE
380
     0
  9
$PSTYLEMODE
290
     1
  9
$FINGERPRINTGUID
  2
{C2C58232-2C15-49B7-8149-19A597B8FB88}
  9
$VERSIONGUID
  2
{DDC2BC99-E93D-4D93-95EA-D3D7F84E7F4A}
  9
$EXTNAMES
290
     1
  9
$PSVPSCALE
 40
0.0
  9
$OLESTARTUP
290
     0
  0
ENDSEC
  0
SECTION
  2
CLASSES
  0
CLASS
  1
ACDBDICTIONARYWDFLT
  2
AcDbDictionaryWithDefault
  3
AutoCAD 2000
 90
        0
280
     0
281
     0
  0
CLASS
  1
ACDBPLACEHOLDER
  2
AcDbPlaceHolder
  3
AutoCAD 2000
 90
        0
280
     0
281
     0
  0
CLASS
  1
LAYOUT
  2
AcDbLayout
  3
AutoCAD 2000
 90
        0
280
     0
281
     0
  0
ENDSEC
  0
SECTION
  2
TABLES
  0
TABLE
  2
VPORT
  5
8
330
0
100
AcDbSymbolTable
 70
     7
  0
VPORT
  5
504
330
8
100
AcDbSymbolTableRecord
100
AcDbViewportTableRecord
  2
*Active
 70
     0
 10
0.0
 20
0.0
 11
1.0
 21
1.0
 12
590.1947344382924
 22
447.0799071780218
 13
0.0
 23
0.0
 14
1.0
 24
1.0
 15
0.0
 25
0.0
 16
0.0
 26
0.0
 36
1.0
 17
0.0
 27
0.0
 37
0.0
 40
595.7977775445185
 41
1.461725394896719
 42
50.0
 43
0.0
 44
0.0
 50
0.0
 51
0.0
 71
     0
 72
   100
 73
     1
 74
     1
 75
     0
 76
     0
 77
     0
 78
     0
281
     0
 65
     1
110
0.0
120
0.0
130
0.0
111
1.0
121
0.0
131
0.0
112
0.0
122
1.0
132
0.0
 79
     0
146
0.0
  0
ENDTAB
  0
TABLE
  2
LTYPE
  5
5
330
0
100
AcDbSymbolTable
 70
     5
  0
LTYPE
  5
13
330
5
100
AcDbSymbolTableRecord
100
AcDbLinetypeTableRecord
  2
ByBlock
 70
     0
  3

 72
    65
 73
     0
 40
0.0
  0
LTYPE
  5
14
330
5
100
AcDbSymbolTableRecord
100
AcDbLinetypeTableRecord
  2
ByLayer
 70
     0
  3

 72
    65
 73
     0
 40
0.0
  0
LTYPE
  5
15
330
5
100
AcDbSymbolTableRecord
100
AcDbLinetypeTableRecord
  2
CONTINUOUS
 70
     0
  3
Solid line
 72
    65
 73
     0
 40
0.0
  0
LTYPE
  5
22
330
5
100
AcDbSymbolTableRecord
100
AcDbLinetypeTableRecord
  2
HIDDEN
 70
     0
  3
------------------------
 72
    65
 73
     2
 40
12.6
 49
8.4
 74
     0
 49
-4.2
 74
     0
  0
LTYPE
  5
23
330
5
100
AcDbSymbolTableRecord
100
AcDbLinetypeTableRecord
  2
DOT
 70
     0
  3
････････････････････････
 72
    65
 73
     2
 40
8.0
 49
6.0
 74
     0
 49
-2.0
 74
     0
  0
LTYPE
  5
24
330
5
100
AcDbSymbolTableRecord
100
AcDbLinetypeTableRecord
  2
DASHDOT
 70
     0
  3
--･--･--･--･--･--･--･--
 72
    65
 73
     4
 40
50.5
 49
30.0
 74
     0
 49
-9.0
 74
     0
 49
2.5
 74
     0
 49
-9.0
 74
     0
  0
LTYPE
  5
25
330
5
100
AcDbSymbolTableRecord
100
AcDbLinetypeTableRecord
  2
DIVIDE
 70
     0
  3
--･･--･･--･･--･･--･･--
 72
    65
 73
     6
 40
58.0
 49
30.0
 74
     0
 49
-9.0
 74
     0
 49
2.5
 74
     0
 49
-5.0
 74
     0
 49
2.5
 74
     0
 49
-9.0
 74
     0
  0
ENDTAB
  0
TABLE
  2
LAYER
  5
2
330
0
100
AcDbSymbolTable
 70
     3
  0
LAYER
  5
10
330
2
100
AcDbSymbolTableRecord
100
AcDbLayerTableRecord
  2
0
 70
     0
 62
     7
  6
CONTINUOUS
370
    -3
390
F
  0
LAYER
  5
26
330
2
100
AcDbSymbolTableRecord
100
AcDbLayerTableRecord
  2
1
 70
     0
 62
     7
  6
CONTINUOUS
370
    -3
390
F
  0
LAYER
  5
AF
330
2
100
AcDbSymbolTableRecord
100
AcDbLayerTableRecord
  2
Defpoints
 70
     0
 62
     7
  6
CONTINUOUS
290
     0
370
    -3
390
F
  0
ENDTAB
  0
TABLE
  2
STYLE
  5
3
330
0
100
AcDbSymbolTable
 70
     2
  0
STYLE
  5
11
330
3
100
AcDbSymbolTableRecord
100
AcDbTextStyleTableRecord
  2
STANDARD
 70
     0
 40
0.0
 41
1.0
 50
0.0
 71
     0
 42
0.2
  3
TXT
  4

  0
STYLE
  5
27
330
3
100
AcDbSymbolTableRecord
100
AcDbTextStyleTableRecord
  2
KANJI
 70
     0
 40
0.0
 41
1.0
 50
0.0
 71
     0
 42
0.2
  3
TXT
  4
BIGFONT
  0
ENDTAB
  0
TABLE
  2
VIEW
  5
6
330
0
100
AcDbSymbolTable
 70
     0
  0
ENDTAB
  0
TABLE
  2
UCS
  5
7
330
0
100
AcDbSymbolTable
 70
     0
  0
ENDTAB
  0
TABLE
  2
APPID
  5
9
330
0
100
AcDbSymbolTable
 70
     1
  0
APPID
  5
12
330
9
100
AcDbSymbolTableRecord
100
AcDbRegAppTableRecord
  2
ACAD
 70
     0
  0
ENDTAB
  0
TABLE
  2
DIMSTYLE
  5
A
330
0
100
AcDbSymbolTable
 70
     1
100
AcDbDimStyleTable
 71
     1
340
4B4
  0
DIMSTYLE
105
4B4
330
A
100
AcDbSymbolTableRecord
100
AcDbDimStyleTableRecord
  2
Standard
 70
     0
340
11
  0
ENDTAB
  0
TABLE
  2
BLOCK_RECORD
  5
1
330
0
100
AcDbSymbolTable
 70
    12
  0
BLOCK_RECORD
  5
1E
330
1
100
AcDbSymbolTableRecord
100
AcDbBlockTableRecord
  2
*Model_Space
340
21
  0
BLOCK_RECORD
  5
1A
330
1
100
AcDbSymbolTableRecord
100
AcDbBlockTableRecord
  2
*Paper_Space
340
1D
  0
BLOCK_RECORD
  5
2B
330
1
100
AcDbSymbolTableRecord
100
AcDbBlockTableRecord
  2
*D0
340
0
  0
BLOCK_RECORD
  5
36
330
1
100
AcDbSymbolTableRecord
100
AcDbBlockTableRecord
  2
*D1
340
0
  0
BLOCK_RECORD
  5
41
330
1
100
AcDbSymbolTableRecord
100
AcDbBlockTableRecord
  2
*D2
340
0
  0
BLOCK_RECORD
  5
4C
330
1
100
AcDbSymbolTableRecord
100
AcDbBlockTableRecord
  2
*D3
340
0
  0
BLOCK_RECORD
  5
57
330
1
100
AcDbSymbolTableRecord
100
AcDbBlockTableRecord
  2
*D4
340
0
  0
BLOCK_RECORD
  5
62
330
1
100
AcDbSymbolTableRecord
100
AcDbBlockTableRecord
  2
*D5
340
0
  0
BLOCK_RECORD
  5
B0
330
1
100
AcDbSymbolTableRecord
100
AcDbBlockTableRecord
  2
*D6
340
0
  0
BLOCK_RECORD
  5
BC
330
1
100
AcDbSymbolTableRecord
100
AcDbBlockTableRecord
  2
*D7
340
0
  0
BLOCK_RECORD
  5
475
330
1
100
AcDbSymbolTableRecord
100
AcDbBlockTableRecord
  2
*D8
340
0
  0
BLOCK_RECORD
  5
491
330
1
100
AcDbSymbolTableRecord
100
AcDbBlockTableRecord
  2
*D9
340
0
  0
BLOCK_RECORD
  5
49D
330
1
100
AcDbSymbolTableRecord
100
AcDbBlockTableRecord
  2
*D10
340
0
  0
BLOCK_RECORD
  5
4A9
330
1
100
AcDbSymbolTableRecord
100
AcDbBlockTableRecord
  2
*D11
340
0
  0
ENDTAB
  0
ENDSEC
  0
SECTION
  2
BLOCKS
  0
BLOCK
  5
1F
330
1E
100
AcDbEntity
  8
0
100
AcDbBlockBegin
  2
*Model_Space
 70
     0
 10
0.0
 20
0.0
 30
0.0
  3
*Model_Space
  1

  0
ENDBLK
  5
20
330
1E
100
AcDbEntity
  8
0
100
AcDbBlockEnd
  0
BLOCK
  5
1B
330
1A
100
AcDbEntity
 67
     1
  8
0
100
AcDbBlockBegin
  2
*Paper_Space
 70
     0
 10
0.0
 20
0.0
 30
0.0
  3
*Paper_Space
  1

  0
ENDBLK
  5
1C
330
1A
100
AcDbEntity
 67
     1
  8
0
100
AcDbBlockEnd
  0
BLOCK
  5
2C
330
2B
100
AcDbEntity
  8
1
  6
Continuous
 62
     7
100
AcDbBlockBegin
  2
*D0
 70
     1
 10
0.0
 20
0.0
 30
0.0
  3
*D0
  1

  0
LINE
  5
2D
330
2B
100
AcDbEntity
  8
1
  6
Continuous
 62
     7
100
AcDbLine
 10
460.0
 20
300.0
 30
0.0
 11
460.0
 21
505.0
 31
0.0
  0
LINE
  5
2E
330
2B
100
AcDbEntity
  8
1
  6
Continuous
 62
     7
100
AcDbLine
 10
468.0
 20
300.0
 30
0.0
 11
435.5
 21
300.0
 31
0.0
  0
LINE
  5
2F
330
2B
100
AcDbEntity
  8
1
  6
Continuous
 62
     7
100
AcDbLine
 10
468.0
 20
505.0
 30
0.0
 11
435.5
 21
505.0
 31
0.0
  0
LINE
  5
30
330
2B
100
AcDbEntity
  8
1
  6
Continuous
 62
     7
100
AcDbLine
 10
460.0
 20
300.0
 30
0.0
 11
455.8588949999999
 21
315.454813
 31
0.0
  0
LINE
  5
31
330
2B
100
AcDbEntity
  8
1
  6
Continuous
 62
     7
100
AcDbLine
 10
460.0
 20
300.0
 30
0.0
 11
464.141105
 21
315.454813
 31
0.0
  0
LINE
  5
32
330
2B
100
AcDbEntity
  8
1
  6
Continuous
 62
     7
100
AcDbLine
 10
460.0
 20
505.0
 30
0.0
 11
464.141105
 21
489.545187
 31
0.0
  0
LINE
  5
33
330
2B
100
AcDbEntity
  8
1
  6
Continuous
 62
     7
100
AcDbLine
 10
460.0
 20
505.0
 30
0.0
 11
455.8588949999999
 21
489.545187
 31
0.0
  0
TEXT
  5
34
330
2B
100
AcDbEntity
  8
1
  6
Continuous
 62
     7
100
AcDbText
 10
460.0
 20
390.5
 30
0.0
 40
16.0
  1
205
 50
90.0
 41
0.5
  7
KANJI
100
AcDbText
  0
ENDBLK
  5
35
330
2B
100
AcDbEntity
  8
0
100
AcDbBlockEnd
  0
BLOCK
  5
37
330
36
100
AcDbEntity
  8
1
  6
Continuous
 62
     7
100
AcDbBlockBegin
  2
*D1
 70
     1
 10
0.0
 20
0.0
 30
0.0
  3
*D1
  1

  0
LINE
  5
38
330
36
100
AcDbEntity
  8
1
  6
Continuous
 62
     7
100
AcDbLine
 10
172.5
 20
270.0
 30
0.0
 11
427.5
 21
270.0
 31
0.0
  0
LINE
  5
39
330
36
100
AcDbEntity
  8
1
  6
Continuous
 62
     7
100
AcDbLine
 10
172.5
 20
262.0
 30
0.0
 11
172.5
 21
292.0
 31
0.0
  0
LINE
  5
3A
330
36
100
AcDbEntity
  8
1
  6
Continuous
 62
     7
100
AcDbLine
 10
427.5
 20
262.0
 30
0.0
 11
427.5
 21
292.0
 31
0.0
  0
LINE
  5
3B
330
36
100
AcDbEntity
  8
1
  6
Continuous
 62
     7
100
AcDbLine
 10
172.5
 20
270.0
 30
0.0
 11
187.954813
 21
274.1411049999999
 31
0.0
  0
LINE
  5
3C
330
36
100
AcDbEntity
  8
1
  6
Continuous
 62
     7
100
AcDbLine
 10
172.5
 20
270.0
 30
0.0
 11
187.954813
 21
265.858895
 31
0.0
  0
LINE
  5
3D
330
36
100
AcDbEntity
  8
1
  6
Continuous
 62
     7
100
AcDbLine
 10
427.5
 20
270.0
 30
0.0
 11
412.045187
 21
265.858895
 31
0.0
  0
LINE
  5
3E
330
36
100
AcDbEntity
  8
1
  6
Continuous
 62
     7
100
AcDbLine
 10
427.5
 20
270.0
 30
0.0
 11
412.045187
 21
274.1411049999999
 31
0.0
  0
TEXT
  5
3F
330
36
100
AcDbEntity
  8
1
  6
Continuous
 62
     7
100
AcDbText
 10
288.0
 20
270.0
 30
0.0
 40
16.0
  1
255
 41
0.5
  7
KANJI
100
AcDbText
  0
ENDBLK
  5
40
330
36
100
AcDbEntity
  8
0
100
AcDbBlockEnd
  0
BLOCK
  5
42
330
41
100
AcDbEntity
  8
1
  6
Continuous
 62
     7
100
AcDbBlockBegin
  2
*D2
 70
     1
 10
0.0
 20
0.0
 30
0.0
  3
*D2
  1

  0
LINE
  5
43
330
41
100
AcDbEntity
  8
1
  6
Continuous
 62
     7
100
AcDbLine
 10
508.0
 20
270.0
 30
0.0
 11
614.0
 21
270.0
 31
0.0
  0
LINE
  5
44
330
41
100
AcDbEntity
  8
1
  6
Continuous
 62
     7
100
AcDbLine
 10
540.0
 20
262.0
 30
0.0
 11
540.0
 21
292.0
 31
0.0
  0
LINE
  5
45
330
41
100
AcDbEntity
  8
1
  6
Continuous
 62
     7
100
AcDbLine
 10
582.0
 20
262.0
 30
0.0
 11
582.0
 21
292.0
 31
0.0
  0
LINE
  5
46
330
41
100
AcDbEntity
  8
1
  6
Continuous
 62
     7
100
AcDbLine
 10
540.0
 20
270.0
 30
0.0
 11
524.5451870000001
 21
265.858895
 31
0.0
  0
LINE
  5
47
330
41
100
AcDbEntity
  8
1
  6
Continuous
 62
     7
100
AcDbLine
 10
540.0
 20
270.0
 30
0.0
 11
524.5451870000001
 21
274.1411049999999
 31
0.0
  0
LINE
  5
48
330
41
100
AcDbEntity
  8
1
  6
Continuous
 62
     7
100
AcDbLine
 10
582.0
 20
270.0
 30
0.0
 11
597.4548129999999
 21
274.1411049999999
 31
0.0
  0
LINE
  5
49
330
41
100
AcDbEntity
  8
1
  6
Continuous
 62
     7
100
AcDbLine
 10
582.0
 20
270.0
 30
0.0
 11
597.4548129999999
 21
265.858895
 31
0.0
  0
TEXT
  5
4A
330
41
100
AcDbEntity
  8
1
  6
Continuous
 62
     7
100
AcDbText
 10
553.0
 20
270.0
 30
0.0
 40
16.0
  1
42
 41
0.5
  7
KANJI
100
AcDbText
  0
ENDBLK
  5
4B
330
41
100
AcDbEntity
  8
0
100
AcDbBlockEnd
  0
BLOCK
  5
4D
330
4C
100
AcDbEntity
  8
1
  6
Continuous
 62
     7
100
AcDbBlockBegin
  2
*D3
 70
     1
 10
0.0
 20
0.0
 30
0.0
  3
*D3
  1

  0
LINE
  5
4E
330
4C
100
AcDbEntity
  8
1
  6
Continuous
 62
     7
100
AcDbLine
 10
1000.0
 20
365.0
 30
0.0
 11
1000.0
 21
440.0
 31
0.0
  0
LINE
  5
4F
330
4C
100
AcDbEntity
  8
1
  6
Continuous
 62
     7
100
AcDbLine
 10
1008.0
 20
365.0
 30
0.0
 11
938.0
 21
365.0
 31
0.0
  0
LINE
  5
50
330
4C
100
AcDbEntity
  8
1
  6
Continuous
 62
     7
100
AcDbLine
 10
1008.0
 20
440.0
 30
0.0
 11
938.0
 21
440.0
 31
0.0
  0
LINE
  5
51
330
4C
100
AcDbEntity
  8
1
  6
Continuous
 62
     7
100
AcDbLine
 10
1000.0
 20
365.0
 30
0.0
 11
995.8588949999999
 21
380.454813
 31
0.0
  0
LINE
  5
52
330
4C
100
AcDbEntity
  8
1
  6
Continuous
 62
     7
100
AcDbLine
 10
1000.0
 20
365.0
 30
0.0
 11
1004.141105
 21
380.454813
 31
0.0
  0
LINE
  5
53
330
4C
100
AcDbEntity
  8
1
  6
Continuous
 62
     7
100
AcDbLine
 10
1000.0
 20
440.0
 30
0.0
 11
1004.141105
 21
424.545187
 31
0.0
  0
LINE
  5
54
330
4C
100
AcDbEntity
  8
1
  6
Continuous
 62
     7
100
AcDbLine
 10
1000.0
 20
440.0
 30
0.0
 11
995.8588949999999
 21
424.545187
 31
0.0
  0
TEXT
  5
55
330
4C
100
AcDbEntity
  8
1
  6
Continuous
 62
     7
100
AcDbText
 10
1000.0
 20
394.5
 30
0.0
 40
16.0
  1
75
 50
90.0
 41
0.5
  7
KANJI
100
AcDbText
  0
ENDBLK
  5
56
330
4C
100
AcDbEntity
  8
0
100
AcDbBlockEnd
  0
BLOCK
  5
58
330
57
100
AcDbEntity
  8
1
  6
Continuous
 62
     7
100
AcDbBlockBegin
  2
*D4
 70
     1
 10
0.0
 20
0.0
 30
0.0
  3
*D4
  1

  0
LINE
  5
59
330
57
100
AcDbEntity
  8
1
  6
Continuous
 62
     7
100
AcDbLine
 10
1000.0
 20
440.0
 30
0.0
 11
1000.0
 21
505.0
 31
0.0
  0
LINE
  5
5A
330
57
100
AcDbEntity
  8
1
  6
Continuous
 62
     7
100
AcDbLine
 10
1008.0
 20
440.0
 30
0.0
 11
978.0
 21
440.0
 31
0.0
  0
LINE
  5
5B
330
57
100
AcDbEntity
  8
1
  6
Continuous
 62
     7
100
AcDbLine
 10
1008.0
 20
505.0
 30
0.0
 11
978.0
 21
505.0
 31
0.0
  0
LINE
  5
5C
330
57
100
AcDbEntity
  8
1
  6
Continuous
 62
     7
100
AcDbLine
 10
1000.0
 20
440.0
 30
0.0
 11
995.8588949999999
 21
455.4548129999999
 31
0.0
  0
LINE
  5
5D
330
57
100
AcDbEntity
  8
1
  6
Continuous
 62
     7
100
AcDbLine
 10
1000.0
 20
440.0
 30
0.0
 11
1004.141105
 21
455.4548129999999
 31
0.0
  0
LINE
  5
5E
330
57
100
AcDbEntity
  8
1
  6
Continuous
 62
     7
100
AcDbLine
 10
1000.0
 20
505.0
 30
0.0
 11
1004.141105
 21
489.545187
 31
0.0
  0
LINE
  5
5F
330
57
100
AcDbEntity
  8
1
  6
Continuous
 62
     7
100
AcDbLine
 10
1000.0
 20
505.0
 30
0.0
 11
995.8588949999999
 21
489.545187
 31
0.0
  0
TEXT
  5
60
330
57
100
AcDbEntity
  8
1
  6
Continuous
 62
     7
100
AcDbText
 10
1000.0
 20
464.5
 30
0.0
 40
16.0
  1
65
 50
90.0
 41
0.5
  7
KANJI
100
AcDbText
  0
ENDBLK
  5
61
330
57
100
AcDbEntity
  8
0
100
AcDbBlockEnd
  0
BLOCK
  5
63
330
62
100
AcDbEntity
  8
1
  6
Continuous
 62
     7
100
AcDbBlockBegin
  2
*D5
 70
     1
 10
0.0
 20
0.0
 30
0.0
  3
*D5
  1

  0
LINE
  5
64
330
62
100
AcDbEntity
  8
1
  6
Continuous
 62
     7
100
AcDbLine
 10
802.5
 20
530.0
 30
0.0
 11
877.5
 21
530.0
 31
0.0
  0
LINE
  5
65
330
62
100
AcDbEntity
  8
1
  6
Continuous
 62
     7
100
AcDbLine
 10
802.5
 20
538.0
 30
0.0
 11
802.5
 21
468.0
 31
0.0
  0
LINE
  5
66
330
62
100
AcDbEntity
  8
1
  6
Continuous
 62
     7
100
AcDbLine
 10
877.5
 20
538.0
 30
0.0
 11
877.5
 21
468.0
 31
0.0
  0
LINE
  5
67
330
62
100
AcDbEntity
  8
1
  6
Continuous
 62
     7
100
AcDbLine
 10
802.5
 20
530.0
 30
0.0
 11
817.9548129999998
 21
534.1411049999999
 31
0.0
  0
LINE
  5
68
330
62
100
AcDbEntity
  8
1
  6
Continuous
 62
     7
100
AcDbLine
 10
802.5
 20
530.0
 30
0.0
 11
817.9548129999998
 21
525.858895
 31
0.0
  0
LINE
  5
69
330
62
100
AcDbEntity
  8
1
  6
Continuous
 62
     7
100
AcDbLine
 10
877.5
 20
530.0
 30
0.0
 11
862.045187
 21
525.858895
 31
0.0
  0
LINE
  5
6A
330
62
100
AcDbEntity
  8
1
  6
Continuous
 62
     7
100
AcDbLine
 10
877.5
 20
530.0
 30
0.0
 11
862.045187
 21
534.1411049999999
 31
0.0
  0
TEXT
  5
6B
330
62
100
AcDbEntity
  8
1
  6
Continuous
 62
     7
100
AcDbText
 10
832.0
 20
530.0
 30
0.0
 40
16.0
  1
75
 41
0.5
  7
KANJI
100
AcDbText
  0
ENDBLK
  5
6C
330
62
100
AcDbEntity
  8
0
100
AcDbBlockEnd
  0
BLOCK
  5
B9
330
B0
100
AcDbEntity
  8
0
100
AcDbBlockBegin
  2
*D6
 70
     1
 10
0.0
 20
0.0
 30
0.0
  3
*D6
  1

  0
LINE
  5
B1
330
B0
100
AcDbEntity
  8
1
  6
Continuous
 62
     0
370
    -2
100
AcDbLine
 10
435.5
 20
300.0
 30
0.0
 11
460.0
 21
300.0
 31
0.0
  0
LINE
  5
B2
330
B0
100
AcDbEntity
  8
1
  6
Continuous
 62
     0
370
    -2
100
AcDbLine
 10
435.5
 20
505.0
 30
0.0
 11
460.0
 21
505.0
 31
0.0
  0
LINE
  5
B3
330
B0
100
AcDbEntity
  8
1
  6
Continuous
 62
     0
370
    -2
100
AcDbLine
 10
460.0
 20
301.0
 30
0.0
 11
460.0
 21
504.0
 31
0.0
  0
SOLID
  5
B4
330
B0
100
AcDbEntity
  8
1
  6
Continuous
 62
     0
100
AcDbTrace
 10
459.8333333333333
 20
301.0
 30
0.0
 11
460.1666666666666
 21
301.0
 31
0.0
 12
460.0
 22
300.0
 32
0.0
 13
460.0
 23
300.0
 33
0.0
  0
SOLID
  5
B5
330
B0
100
AcDbEntity
  8
1
  6
Continuous
 62
     0
100
AcDbTrace
 10
459.8333333333333
 20
504.0
 30
0.0
 11
460.1666666666667
 21
504.0
 31
0.0
 12
460.0
 22
505.0
 32
0.0
 13
460.0
 23
505.0
 33
0.0
  0
POINT
  5
B6
330
B0
100
AcDbEntity
  8
Defpoints
  6
Continuous
 62
     0
100
AcDbPoint
 10
435.5
 20
300.0
 30
0.0
  0
POINT
  5
B7
330
B0
100
AcDbEntity
  8
Defpoints
  6
Continuous
 62
     0
100
AcDbPoint
 10
435.5
 20
505.0
 30
0.0
  0
POINT
  5
B8
330
B0
100
AcDbEntity
  8
Defpoints
  6
Continuous
 62
     0
100
AcDbPoint
 10
460.0
 20
505.0
 30
0.0
  0
ENDBLK
  5
BA
330
B0
100
AcDbEntity
  8
0
100
AcDbBlockEnd
  0
BLOCK
  5
C5
330
BC
100
AcDbEntity
  8
0
100
AcDbBlockBegin
  2
*D7
 70
     1
 10
0.0
 20
0.0
 30
0.0
  3
*D7
  1

  0
LINE
  5
BD
330
BC
100
AcDbEntity
  8
1
  6
Continuous
 62
     0
370
    -2
100
AcDbLine
 10
172.5
 20
292.0
 30
0.0
 11
172.5
 21
270.0
 31
0.0
  0
LINE
  5
BE
330
BC
100
AcDbEntity
  8
1
  6
Continuous
 62
     0
370
    -2
100
AcDbLine
 10
427.5
 20
292.0
 30
0.0
 11
427.5
 21
270.0
 31
0.0
  0
LINE
  5
BF
330
BC
100
AcDbEntity
  8
1
  6
Continuous
 62
     0
370
    -2
100
AcDbLine
 10
173.5
 20
270.0
 30
0.0
 11
426.4999999999999
 21
270.0
 31
0.0
  0
SOLID
  5
C0
330
BC
100
AcDbEntity
  8
1
  6
Continuous
 62
     0
100
AcDbTrace
 10
173.5
 20
270.1666666666667
 30
0.0
 11
173.5
 21
269.8333333333333
 31
0.0
 12
172.5
 22
270.0
 32
0.0
 13
172.5
 23
270.0
 33
0.0
  0
SOLID
  5
C1
330
BC
100
AcDbEntity
  8
1
  6
Continuous
 62
     0
100
AcDbTrace
 10
426.4999999999999
 20
270.1666666666667
 30
0.0
 11
426.4999999999999
 21
269.8333333333333
 31
0.0
 12
427.5
 22
270.0
 32
0.0
 13
427.5
 23
270.0
 33
0.0
  0
POINT
  5
C2
330
BC
100
AcDbEntity
  8
Defpoints
  6
Continuous
 62
     0
100
AcDbPoint
 10
172.5
 20
292.0
 30
0.0
  0
POINT
  5
C3
330
BC
100
AcDbEntity
  8
Defpoints
  6
Continuous
 62
     0
100
AcDbPoint
 10
427.5
 20
292.0
 30
0.0
  0
POINT
  5
C4
330
BC
100
AcDbEntity
  8
Defpoints
  6
Continuous
 62
     0
100
AcDbPoint
 10
427.5
 20
270.0
 30
0.0
  0
ENDBLK
  5
C6
330
BC
100
AcDbEntity
  8
0
100
AcDbBlockEnd
  0
BLOCK
  5
47E
330
475
100
AcDbEntity
  8
0
100
AcDbBlockBegin
  2
*D8
 70
     1
 10
0.0
 20
0.0
 30
0.0
  3
*D8
  1

  0
LINE
  5
476
330
475
100
AcDbEntity
  8
1
  6
Continuous
 62
     0
370
    -2
100
AcDbLine
 10
540.0
 20
292.0
 30
0.0
 11
540.0
 21
270.0
 31
0.0
  0
LINE
  5
477
330
475
100
AcDbEntity
  8
1
  6
Continuous
 62
     0
370
    -2
100
AcDbLine
 10
582.0
 20
292.0
 30
0.0
 11
582.0
 21
270.0
 31
0.0
  0
LINE
  5
478
330
475
100
AcDbEntity
  8
1
  6
Continuous
 62
     0
370
    -2
100
AcDbLine
 10
541.0
 20
270.0
 30
0.0
 11
581.0
 21
270.0
 31
0.0
  0
SOLID
  5
479
330
475
100
AcDbEntity
  8
1
  6
Continuous
 62
     0
100
AcDbTrace
 10
541.0
 20
270.1666666666667
 30
0.0
 11
541.0
 21
269.8333333333333
 31
0.0
 12
540.0
 22
270.0
 32
0.0
 13
540.0
 23
270.0
 33
0.0
  0
SOLID
  5
47A
330
475
100
AcDbEntity
  8
1
  6
Continuous
 62
     0
100
AcDbTrace
 10
581.0
 20
270.1666666666667
 30
0.0
 11
581.0
 21
269.8333333333333
 31
0.0
 12
582.0
 22
270.0
 32
0.0
 13
582.0
 23
270.0
 33
0.0
  0
POINT
  5
47B
330
475
100
AcDbEntity
  8
Defpoints
  6
Continuous
 62
     0
100
AcDbPoint
 10
540.0
 20
292.0
 30
0.0
  0
POINT
  5
47C
330
475
100
AcDbEntity
  8
Defpoints
  6
Continuous
 62
     0
100
AcDbPoint
 10
582.0
 20
292.0
 30
0.0
  0
POINT
  5
47D
330
475
100
AcDbEntity
  8
Defpoints
  6
Continuous
 62
     0
100
AcDbPoint
 10
582.0
 20
270.0
 30
0.0
  0
ENDBLK
  5
47F
330
475
100
AcDbEntity
  8
0
100
AcDbBlockEnd
  0
BLOCK
  5
49A
330
491
100
AcDbEntity
  8
0
100
AcDbBlockBegin
  2
*D9
 70
     1
 10
0.0
 20
0.0
 30
0.0
  3
*D9
  1

  0
LINE
  5
492
330
491
100
AcDbEntity
  8
1
  6
Continuous
 62
     0
370
    -2
100
AcDbLine
 10
938.0
 20
365.0
 30
0.0
 11
1000.0
 21
365.0
 31
0.0
  0
LINE
  5
493
330
491
100
AcDbEntity
  8
1
  6
Continuous
 62
     0
370
    -2
100
AcDbLine
 10
938.0
 20
440.0
 30
0.0
 11
1000.0
 21
440.0
 31
0.0
  0
LINE
  5
494
330
491
100
AcDbEntity
  8
1
  6
Continuous
 62
     0
370
    -2
100
AcDbLine
 10
1000.0
 20
366.0
 30
0.0
 11
1000.0
 21
439.0
 31
0.0
  0
SOLID
  5
495
330
491
100
AcDbEntity
  8
1
  6
Continuous
 62
     0
100
AcDbTrace
 10
999.8333333333333
 20
366.0
 30
0.0
 11
1000.166666666666
 21
366.0
 31
0.0
 12
1000.0
 22
365.0
 32
0.0
 13
1000.0
 23
365.0
 33
0.0
  0
SOLID
  5
496
330
491
100
AcDbEntity
  8
1
  6
Continuous
 62
     0
100
AcDbTrace
 10
999.8333333333333
 20
439.0
 30
0.0
 11
1000.166666666666
 21
439.0
 31
0.0
 12
1000.0
 22
440.0
 32
0.0
 13
1000.0
 23
440.0
 33
0.0
  0
POINT
  5
497
330
491
100
AcDbEntity
  8
Defpoints
  6
Continuous
 62
     0
100
AcDbPoint
 10
938.0
 20
365.0
 30
0.0
  0
POINT
  5
498
330
491
100
AcDbEntity
  8
Defpoints
  6
Continuous
 62
     0
100
AcDbPoint
 10
938.0
 20
440.0
 30
0.0
  0
POINT
  5
499
330
491
100
AcDbEntity
  8
Defpoints
  6
Continuous
 62
     0
100
AcDbPoint
 10
1000.0
 20
440.0
 30
0.0
  0
ENDBLK
  5
49B
330
491
100
AcDbEntity
  8
0
100
AcDbBlockEnd
  0
BLOCK
  5
4A6
330
49D
100
AcDbEntity
  8
0
100
AcDbBlockBegin
  2
*D10
 70
     1
 10
0.0
 20
0.0
 30
0.0
  3
*D10
  1

  0
LINE
  5
49E
330
49D
100
AcDbEntity
  8
1
  6
Continuous
 62
     0
370
    -2
100
AcDbLine
 10
978.0
 20
440.0
 30
0.0
 11
1000.0
 21
440.0
 31
0.0
  0
LINE
  5
49F
330
49D
100
AcDbEntity
  8
1
  6
Continuous
 62
     0
370
    -2
100
AcDbLine
 10
978.0
 20
505.0
 30
0.0
 11
1000.0
 21
505.0
 31
0.0
  0
LINE
  5
4A0
330
49D
100
AcDbEntity
  8
1
  6
Continuous
 62
     0
370
    -2
100
AcDbLine
 10
1000.0
 20
441.0
 30
0.0
 11
1000.0
 21
504.0
 31
0.0
  0
SOLID
  5
4A1
330
49D
100
AcDbEntity
  8
1
  6
Continuous
 62
     0
100
AcDbTrace
 10
999.8333333333333
 20
441.0
 30
0.0
 11
1000.166666666666
 21
441.0
 31
0.0
 12
1000.0
 22
440.0
 32
0.0
 13
1000.0
 23
440.0
 33
0.0
  0
SOLID
  5
4A2
330
49D
100
AcDbEntity
  8
1
  6
Continuous
 62
     0
100
AcDbTrace
 10
999.8333333333333
 20
504.0
 30
0.0
 11
1000.166666666666
 21
504.0
 31
0.0
 12
1000.0
 22
505.0
 32
0.0
 13
1000.0
 23
505.0
 33
0.0
  0
POINT
  5
4A3
330
49D
100
AcDbEntity
  8
Defpoints
  6
Continuous
 62
     0
100
AcDbPoint
 10
978.0
 20
440.0
 30
0.0
  0
POINT
  5
4A4
330
49D
100
AcDbEntity
  8
Defpoints
  6
Continuous
 62
     0
100
AcDbPoint
 10
978.0
 20
505.0
 30
0.0
  0
POINT
  5
4A5
330
49D
100
AcDbEntity
  8
Defpoints
  6
Continuous
 62
     0
100
AcDbPoint
 10
1000.0
 20
505.0
 30
0.0
  0
ENDBLK
  5
4A7
330
49D
100
AcDbEntity
  8
0
100
AcDbBlockEnd
  0
BLOCK
  5
4B2
330
4A9
100
AcDbEntity
  8
0
100
AcDbBlockBegin
  2
*D11
 70
     1
 10
0.0
 20
0.0
 30
0.0
  3
*D11
  1

  0
LINE
  5
4AA
330
4A9
100
AcDbEntity
  8
1
  6
Continuous
 62
     0
370
    -2
100
AcDbLine
 10
802.5
 20
468.0
 30
0.0
 11
802.5
 21
530.0
 31
0.0
  0
LINE
  5
4AB
330
4A9
100
AcDbEntity
  8
1
  6
Continuous
 62
     0
370
    -2
100
AcDbLine
 10
877.5
 20
468.0
 30
0.0
 11
877.5
 21
530.0
 31
0.0
  0
LINE
  5
4AC
330
4A9
100
AcDbEntity
  8
1
  6
Continuous
 62
     0
370
    -2
100
AcDbLine
 10
803.5
 20
530.0
 30
0.0
 11
876.5
 21
530.0
 31
0.0
  0
SOLID
  5
4AD
330
4A9
100
AcDbEntity
  8
1
  6
Continuous
 62
     0
100
AcDbTrace
 10
803.5
 20
530.1666666666666
 30
0.0
 11
803.5
 21
529.8333333333333
 31
0.0
 12
802.5
 22
530.0
 32
0.0
 13
802.5
 23
530.0
 33
0.0
  0
SOLID
  5
4AE
330
4A9
100
AcDbEntity
  8
1
  6
Continuous
 62
     0
100
AcDbTrace
 10
876.5
 20
530.1666666666666
 30
0.0
 11
876.5
 21
529.8333333333333
 31
0.0
 12
877.5
 22
530.0
 32
0.0
 13
877.5
 23
530.0
 33
0.0
  0
POINT
  5
4AF
330
4A9
100
AcDbEntity
  8
Defpoints
  6
Continuous
 62
     0
100
AcDbPoint
 10
802.5
 20
468.0
 30
0.0
  0
POINT
  5
4B0
330
4A9
100
AcDbEntity
  8
Defpoints
  6
Continuous
 62
     0
100
AcDbPoint
 10
877.5
 20
468.0
 30
0.0
  0
POINT
  5
4B1
330
4A9
100
AcDbEntity
  8
Defpoints
  6
Continuous
 62
     0
100
AcDbPoint
 10
877.5
 20
530.0
 30
0.0
  0
ENDBLK
  5
4B3
330
4A9
100
AcDbEntity
  8
0
100
AcDbBlockEnd
  0
ENDSEC
  0
SECTION
  2
ENTITIES
  0
LINE
  5
C7
330
1E
100
AcDbEntity
  8
1
  6
Continuous
 62
     7
100
AcDbLine
 10
181.4999999999999
 20
487.5
 30
0.0
 11
181.4999999999999
 21
317.5
 31
0.0
  0
LINE
  5
C8
330
1E
100
AcDbEntity
  8
1
  6
Continuous
 62
     7
100
AcDbLine
 10
181.4999999999999
 20
317.5
 30
0.0
 11
418.5
 21
317.5
 31
0.0
  0
LINE
  5
C9
330
1E
100
AcDbEntity
  8
1
  6
Continuous
 62
     7
100
AcDbLine
 10
418.5
 20
317.5
 30
0.0
 11
418.5
 21
487.5
 31
0.0
  0
LINE
  5
CA
330
1E
100
AcDbEntity
  8
1
  6
Continuous
 62
     7
100
AcDbLine
 10
418.5
 20
487.5
 30
0.0
 11
181.4999999999999
 21
487.5
 31
0.0
  0
LINE
  5
CB
330
1E
100
AcDbEntity
  8
1
  6
Continuous
 62
     7
100
AcDbLine
 10
406.0
 20
323.4999999999999
 30
0.0
 11
418.5
 21
317.5
 31
0.0
  0
LINE
  5
CC
330
1E
100
AcDbEntity
  8
1
  6
Continuous
 62
     7
100
AcDbLine
 10
194.0
 20
323.4999999999999
 30
0.0
 11
181.4999999999999
 21
317.5
 31
0.0
  0
LINE
  5
CD
330
1E
100
AcDbEntity
  8
1
  6
Continuous
 62
     7
100
AcDbLine
 10
194.0
 20
481.5
 30
0.0
 11
194.0
 21
323.4999999999999
 31
0.0
  0
LINE
  5
CE
330
1E
100
AcDbEntity
  8
1
  6
Continuous
 62
     7
100
AcDbLine
 10
194.0
 20
323.4999999999999
 30
0.0
 11
406.0
 21
323.4999999999999
 31
0.0
  0
LINE
  5
CF
330
1E
100
AcDbEntity
  8
1
  6
Continuous
 62
     7
100
AcDbLine
 10
406.0
 20
323.4999999999999
 30
0.0
 11
406.0
 21
481.5
 31
0.0
  0
LINE
  5
D0
330
1E
100
AcDbEntity
  8
1
  6
Continuous
 62
     7
100
AcDbLine
 10
406.0
 20
481.5
 30
0.0
 11
194.0
 21
481.5
 31
0.0
  0
LINE
  5
D1
330
1E
100
AcDbEntity
  8
1
  6
Continuous
 62
     7
100
AcDbLine
 10
307.0
 20
496.0
 30
0.0
 11
306.9733629999999
 21
496.479357
 31
0.0
  0
LINE
  5
D2
330
1E
100
AcDbEntity
  8
1
  6
Continuous
 62
     7
100
AcDbLine
 10
306.9733629999999
 20
496.479357
 30
0.0
 11
306.893654
 21
496.955065
 31
0.0
  0
LINE
  5
D3
330
1E
100
AcDbEntity
  8
1
  6
Continuous
 62
     7
100
AcDbLine
 10
306.893654
 20
496.955065
 30
0.0
 11
306.761481
 21
497.4235049999999
 31
0.0
  0
LINE
  5
D4
330
1E
100
AcDbEntity
  8
1
  6
Continuous
 62
     7
100
AcDbLine
 10
306.761481
 20
497.4235049999999
 30
0.0
 11
306.577848
 21
497.881111
 31
0.0
  0
LINE
  5
D5
330
1E
100
AcDbEntity
  8
1
  6
Continuous
 62
     7
100
AcDbLine
 10
306.577848
 20
497.881111
 30
0.0
 11
306.344155
 21
498.3244
 31
0.0
  0
LINE
  5
D6
330
1E
100
AcDbEntity
  8
1
  6
Continuous
 62
     7
100
AcDbLine
 10
306.344155
 20
498.3244
 30
0.0
 11
306.0621779999999
 21
498.7499999999999
 31
0.0
  0
LINE
  5
D7
330
1E
100
AcDbEntity
  8
1
  6
Continuous
 62
     7
100
AcDbLine
 10
306.0621779999999
 20
498.7499999999999
 30
0.0
 11
305.734064
 21
499.1546699999999
 31
0.0
  0
LINE
  5
D8
330
1E
100
AcDbEntity
  8
1
  6
Continuous
 62
     7
100
AcDbLine
 10
305.734064
 20
499.1546699999999
 30
0.0
 11
305.3623109999999
 21
499.535332
 31
0.0
  0
LINE
  5
D9
330
1E
100
AcDbEntity
  8
1
  6
Continuous
 62
     7
100
AcDbLine
 10
305.3623109999999
 20
499.535332
 30
0.0
 11
304.9497469999999
 21
499.889087
 31
0.0
  0
LINE
  5
DA
330
1E
100
AcDbEntity
  8
1
  6
Continuous
 62
     7
100
AcDbLine
 10
304.9497469999999
 20
499.889087
 30
0.0
 11
304.4995129999999
 21
500.213244
 31
0.0
  0
LINE
  5
DB
330
1E
100
AcDbEntity
  8
1
  6
Continuous
 62
     7
100
AcDbLine
 10
304.4995129999999
 20
500.213244
 30
0.0
 11
304.015035
 21
500.505336
 31
0.0
  0
LINE
  5
DC
330
1E
100
AcDbEntity
  8
1
  6
Continuous
 62
     7
100
AcDbLine
 10
304.015035
 20
500.505336
 30
0.0
 11
303.5
 21
500.76314
 31
0.0
  0
LINE
  5
DD
330
1E
100
AcDbEntity
  8
1
  6
Continuous
 62
     7
100
AcDbLine
 10
303.5
 20
500.76314
 30
0.0
 11
302.958328
 21
500.984693
 31
0.0
  0
LINE
  5
DE
330
1E
100
AcDbEntity
  8
1
  6
Continuous
 62
     7
100
AcDbLine
 10
302.958328
 20
500.984693
 30
0.0
 11
302.3941409999999
 21
501.168309
 31
0.0
  0
LINE
  5
DF
330
1E
100
AcDbEntity
  8
1
  6
Continuous
 62
     7
100
AcDbLine
 10
302.3941409999999
 20
501.168309
 30
0.0
 11
301.8117329999999
 21
501.312592
 31
0.0
  0
LINE
  5
E0
330
1E
100
AcDbEntity
  8
1
  6
Continuous
 62
     7
100
AcDbLine
 10
301.8117329999999
 20
501.312592
 30
0.0
 11
301.2155369999999
 21
501.416443
 31
0.0
  0
LINE
  5
E1
330
1E
100
AcDbEntity
  8
1
  6
Continuous
 62
     7
100
AcDbLine
 10
301.2155369999999
 20
501.416443
 30
0.0
 11
300.61009
 21
501.4790709999999
 31
0.0
  0
LINE
  5
E2
330
1E
100
AcDbEntity
  8
1
  6
Continuous
 62
     7
100
AcDbLine
 10
300.61009
 20
501.4790709999999
 30
0.0
 11
300.0
 21
501.4999999999999
 31
0.0
  0
LINE
  5
E3
330
1E
100
AcDbEntity
  8
1
  6
Continuous
 62
     7
100
AcDbLine
 10
300.0
 20
501.4999999999999
 30
0.0
 11
299.38991
 21
501.4790709999999
 31
0.0
  0
LINE
  5
E4
330
1E
100
AcDbEntity
  8
1
  6
Continuous
 62
     7
100
AcDbLine
 10
299.38991
 20
501.4790709999999
 30
0.0
 11
298.784463
 21
501.416443
 31
0.0
  0
LINE
  5
E5
330
1E
100
AcDbEntity
  8
1
  6
Continuous
 62
     7
100
AcDbLine
 10
298.784463
 20
501.416443
 30
0.0
 11
298.188267
 21
501.312592
 31
0.0
  0
LINE
  5
E6
330
1E
100
AcDbEntity
  8
1
  6
Continuous
 62
     7
100
AcDbLine
 10
298.188267
 20
501.312592
 30
0.0
 11
297.605859
 21
501.168309
 31
0.0
  0
LINE
  5
E7
330
1E
100
AcDbEntity
  8
1
  6
Continuous
 62
     7
100
AcDbLine
 10
297.605859
 20
501.168309
 30
0.0
 11
297.041672
 21
500.984693
 31
0.0
  0
LINE
  5
E8
330
1E
100
AcDbEntity
  8
1
  6
Continuous
 62
     7
100
AcDbLine
 10
297.041672
 20
500.984693
 30
0.0
 11
296.4999999999999
 21
500.76314
 31
0.0
  0
LINE
  5
E9
330
1E
100
AcDbEntity
  8
1
  6
Continuous
 62
     7
100
AcDbLine
 10
296.4999999999999
 20
500.76314
 30
0.0
 11
295.9849649999999
 21
500.505336
 31
0.0
  0
LINE
  5
EA
330
1E
100
AcDbEntity
  8
1
  6
Continuous
 62
     7
100
AcDbLine
 10
295.9849649999999
 20
500.505336
 30
0.0
 11
295.500487
 21
500.213244
 31
0.0
  0
LINE
  5
EB
330
1E
100
AcDbEntity
  8
1
  6
Continuous
 62
     7
100
AcDbLine
 10
295.500487
 20
500.213244
 30
0.0
 11
295.0502529999999
 21
499.889087
 31
0.0
  0
LINE
  5
EC
330
1E
100
AcDbEntity
  8
1
  6
Continuous
 62
     7
100
AcDbLine
 10
295.0502529999999
 20
499.889087
 30
0.0
 11
294.637689
 21
499.535332
 31
0.0
  0
LINE
  5
ED
330
1E
100
AcDbEntity
  8
1
  6
Continuous
 62
     7
100
AcDbLine
 10
294.637689
 20
499.535332
 30
0.0
 11
294.265936
 21
499.1546699999999
 31
0.0
  0
LINE
  5
EE
330
1E
100
AcDbEntity
  8
1
  6
Continuous
 62
     7
100
AcDbLine
 10
294.265936
 20
499.1546699999999
 30
0.0
 11
293.937822
 21
498.7499999999999
 31
0.0
  0
LINE
  5
EF
330
1E
100
AcDbEntity
  8
1
  6
Continuous
 62
     7
100
AcDbLine
 10
293.937822
 20
498.7499999999999
 30
0.0
 11
293.655845
 21
498.3244
 31
0.0
  0
LINE
  5
F0
330
1E
100
AcDbEntity
  8
1
  6
Continuous
 62
     7
100
AcDbLine
 10
293.655845
 20
498.3244
 30
0.0
 11
293.4221519999999
 21
497.881111
 31
0.0
  0
LINE
  5
F1
330
1E
100
AcDbEntity
  8
1
  6
Continuous
 62
     7
100
AcDbLine
 10
293.4221519999999
 20
497.881111
 30
0.0
 11
293.238519
 21
497.4235049999999
 31
0.0
  0
LINE
  5
F2
330
1E
100
AcDbEntity
  8
1
  6
Continuous
 62
     7
100
AcDbLine
 10
293.238519
 20
497.4235049999999
 30
0.0
 11
293.1063459999999
 21
496.955065
 31
0.0
  0
LINE
  5
F3
330
1E
100
AcDbEntity
  8
1
  6
Continuous
 62
     7
100
AcDbLine
 10
293.1063459999999
 20
496.955065
 30
0.0
 11
293.026637
 21
496.479357
 31
0.0
  0
LINE
  5
F4
330
1E
100
AcDbEntity
  8
1
  6
Continuous
 62
     7
100
AcDbLine
 10
293.026637
 20
496.479357
 30
0.0
 11
293.0
 21
496.0
 31
0.0
  0
LINE
  5
F5
330
1E
100
AcDbEntity
  8
1
  6
Continuous
 62
     7
100
AcDbLine
 10
293.0
 20
496.0
 30
0.0
 11
293.026637
 21
495.5206429999999
 31
0.0
  0
LINE
  5
F6
330
1E
100
AcDbEntity
  8
1
  6
Continuous
 62
     7
100
AcDbLine
 10
293.026637
 20
495.5206429999999
 30
0.0
 11
293.1063459999999
 21
495.0449349999999
 31
0.0
  0
LINE
  5
F7
330
1E
100
AcDbEntity
  8
1
  6
Continuous
 62
     7
100
AcDbLine
 10
293.1063459999999
 20
495.0449349999999
 30
0.0
 11
293.238519
 21
494.576495
 31
0.0
  0
LINE
  5
F8
330
1E
100
AcDbEntity
  8
1
  6
Continuous
 62
     7
100
AcDbLine
 10
293.238519
 20
494.576495
 30
0.0
 11
293.4221519999999
 21
494.1188889999999
 31
0.0
  0
LINE
  5
F9
330
1E
100
AcDbEntity
  8
1
  6
Continuous
 62
     7
100
AcDbLine
 10
293.4221519999999
 20
494.1188889999999
 30
0.0
 11
293.655845
 21
493.6755999999999
 31
0.0
  0
LINE
  5
FA
330
1E
100
AcDbEntity
  8
1
  6
Continuous
 62
     7
100
AcDbLine
 10
293.655845
 20
493.6755999999999
 30
0.0
 11
293.937822
 21
493.25
 31
0.0
  0
LINE
  5
FB
330
1E
100
AcDbEntity
  8
1
  6
Continuous
 62
     7
100
AcDbLine
 10
293.937822
 20
493.25
 30
0.0
 11
294.265936
 21
492.84533
 31
0.0
  0
LINE
  5
FC
330
1E
100
AcDbEntity
  8
1
  6
Continuous
 62
     7
100
AcDbLine
 10
294.265936
 20
492.84533
 30
0.0
 11
294.637689
 21
492.4646679999999
 31
0.0
  0
LINE
  5
FD
330
1E
100
AcDbEntity
  8
1
  6
Continuous
 62
     7
100
AcDbLine
 10
294.637689
 20
492.4646679999999
 30
0.0
 11
295.0502529999999
 21
492.1109129999999
 31
0.0
  0
LINE
  5
FE
330
1E
100
AcDbEntity
  8
1
  6
Continuous
 62
     7
100
AcDbLine
 10
295.0502529999999
 20
492.1109129999999
 30
0.0
 11
295.500487
 21
491.7867559999999
 31
0.0
  0
LINE
  5
FF
330
1E
100
AcDbEntity
  8
1
  6
Continuous
 62
     7
100
AcDbLine
 10
295.500487
 20
491.7867559999999
 30
0.0
 11
295.9849649999999
 21
491.4946639999999
 31
0.0
  0
LINE
  5
100
330
1E
100
AcDbEntity
  8
1
  6
Continuous
 62
     7
100
AcDbLine
 10
295.9849649999999
 20
491.4946639999999
 30
0.0
 11
296.4999999999999
 21
491.2368599999999
 31
0.0
  0
LINE
  5
101
330
1E
100
AcDbEntity
  8
1
  6
Continuous
 62
     7
100
AcDbLine
 10
296.4999999999999
 20
491.2368599999999
 30
0.0
 11
297.041672
 21
491.0153069999999
 31
0.0
  0
LINE
  5
102
330
1E
100
AcDbEntity
  8
1
  6
Continuous
 62
     7
100
AcDbLine
 10
297.041672
 20
491.0153069999999
 30
0.0
 11
297.605859
 21
490.831691
 31
0.0
  0
LINE
  5
103
330
1E
100
AcDbEntity
  8
1
  6
Continuous
 62
     7
100
AcDbLine
 10
297.605859
 20
490.831691
 30
0.0
 11
298.188267
 21
490.687408
 31
0.0
  0
LINE
  5
104
330
1E
100
AcDbEntity
  8
1
  6
Continuous
 62
     7
100
AcDbLine
 10
298.188267
 20
490.687408
 30
0.0
 11
298.784463
 21
490.583557
 31
0.0
  0
LINE
  5
105
330
1E
100
AcDbEntity
  8
1
  6
Continuous
 62
     7
100
AcDbLine
 10
298.784463
 20
490.583557
 30
0.0
 11
299.38991
 21
490.520929
 31
0.0
  0
LINE
  5
106
330
1E
100
AcDbEntity
  8
1
  6
Continuous
 62
     7
100
AcDbLine
 10
299.38991
 20
490.520929
 30
0.0
 11
300.0
 21
490.5
 31
0.0
  0
LINE
  5
107
330
1E
100
AcDbEntity
  8
1
  6
Continuous
 62
     7
100
AcDbLine
 10
300.0
 20
490.5
 30
0.0
 11
300.61009
 21
490.520929
 31
0.0
  0
LINE
  5
108
330
1E
100
AcDbEntity
  8
1
  6
Continuous
 62
     7
100
AcDbLine
 10
300.61009
 20
490.520929
 30
0.0
 11
301.2155369999999
 21
490.583557
 31
0.0
  0
LINE
  5
109
330
1E
100
AcDbEntity
  8
1
  6
Continuous
 62
     7
100
AcDbLine
 10
301.2155369999999
 20
490.583557
 30
0.0
 11
301.8117329999999
 21
490.687408
 31
0.0
  0
LINE
  5
10A
330
1E
100
AcDbEntity
  8
1
  6
Continuous
 62
     7
100
AcDbLine
 10
301.8117329999999
 20
490.687408
 30
0.0
 11
302.3941409999999
 21
490.831691
 31
0.0
  0
LINE
  5
10B
330
1E
100
AcDbEntity
  8
1
  6
Continuous
 62
     7
100
AcDbLine
 10
302.3941409999999
 20
490.831691
 30
0.0
 11
302.958328
 21
491.0153069999999
 31
0.0
  0
LINE
  5
10C
330
1E
100
AcDbEntity
  8
1
  6
Continuous
 62
     7
100
AcDbLine
 10
302.958328
 20
491.0153069999999
 30
0.0
 11
303.5
 21
491.2368599999999
 31
0.0
  0
LINE
  5
10D
330
1E
100
AcDbEntity
  8
1
  6
Continuous
 62
     7
100
AcDbLine
 10
303.5
 20
491.2368599999999
 30
0.0
 11
304.015035
 21
491.4946639999999
 31
0.0
  0
LINE
  5
10E
330
1E
100
AcDbEntity
  8
1
  6
Continuous
 62
     7
100
AcDbLine
 10
304.015035
 20
491.4946639999999
 30
0.0
 11
304.4995129999999
 21
491.7867559999999
 31
0.0
  0
LINE
  5
10F
330
1E
100
AcDbEntity
  8
1
  6
Continuous
 62
     7
100
AcDbLine
 10
304.4995129999999
 20
491.7867559999999
 30
0.0
 11
304.9497469999999
 21
492.1109129999999
 31
0.0
  0
LINE
  5
110
330
1E
100
AcDbEntity
  8
1
  6
Continuous
 62
     7
100
AcDbLine
 10
304.9497469999999
 20
492.1109129999999
 30
0.0
 11
305.3623109999999
 21
492.4646679999999
 31
0.0
  0
LINE
  5
111
330
1E
100
AcDbEntity
  8
1
  6
Continuous
 62
     7
100
AcDbLine
 10
305.3623109999999
 20
492.4646679999999
 30
0.0
 11
305.734064
 21
492.84533
 31
0.0
  0
LINE
  5
112
330
1E
100
AcDbEntity
  8
1
  6
Continuous
 62
     7
100
AcDbLine
 10
305.734064
 20
492.84533
 30
0.0
 11
306.0621779999999
 21
493.25
 31
0.0
  0
LINE
  5
113
330
1E
100
AcDbEntity
  8
1
  6
Continuous
 62
     7
100
AcDbLine
 10
306.0621779999999
 20
493.25
 30
0.0
 11
306.344155
 21
493.6755999999999
 31
0.0
  0
LINE
  5
114
330
1E
100
AcDbEntity
  8
1
  6
Continuous
 62
     7
100
AcDbLine
 10
306.344155
 20
493.6755999999999
 30
0.0
 11
306.577848
 21
494.1188889999999
 31
0.0
  0
LINE
  5
115
330
1E
100
AcDbEntity
  8
1
  6
Continuous
 62
     7
100
AcDbLine
 10
306.577848
 20
494.1188889999999
 30
0.0
 11
306.761481
 21
494.576495
 31
0.0
  0
LINE
  5
116
330
1E
100
AcDbEntity
  8
1
  6
Continuous
 62
     7
100
AcDbLine
 10
306.761481
 20
494.576495
 30
0.0
 11
306.893654
 21
495.0449349999999
 31
0.0
  0
LINE
  5
117
330
1E
100
AcDbEntity
  8
1
  6
Continuous
 62
     7
100
AcDbLine
 10
306.893654
 20
495.0449349999999
 30
0.0
 11
306.9733629999999
 21
495.5206429999999
 31
0.0
  0
LINE
  5
118
330
1E
100
AcDbEntity
  8
1
  6
Continuous
 62
     7
100
AcDbLine
 10
306.9733629999999
 20
495.5206429999999
 30
0.0
 11
307.0
 21
496.0
 31
0.0
  0
CIRCLE
  5
119
330
1E
100
AcDbEntity
  8
1
  6
Continuous
 62
     7
100
AcDbCircle
 10
300.0
 20
496.0
 30
0.0
 40
2.299999999999999
  0
LINE
  5
11A
330
1E
100
AcDbEntity
  8
1
  6
Continuous
 62
     7
100
AcDbLine
 10
557.0
 20
505.0
 30
0.0
 11
557.0
 21
300.0
 31
0.0
  0
LINE
  5
11B
330
1E
100
AcDbEntity
  8
1
  6
Continuous
 62
     7
100
AcDbLine
 10
540.0
 20
497.5
 30
0.0
 11
540.0
 21
307.5
 31
0.0
  0
ARC
  5
11C
330
1E
100
AcDbEntity
  8
1
  6
Continuous
 62
     7
100
AcDbCircle
 10
580.0
 20
302.0
 30
0.0
 40
2.0
100
AcDbArc
 50
270.0
 51
0.0
  0
LINE
  5
11D
330
1E
100
AcDbEntity
  8
1
  6
Continuous
 62
     7
100
AcDbLine
 10
577.5
 20
504.5485789999999
 30
0.0
 11
577.5
 21
300.4514209999999
 31
0.0
  0
ARC
  5
11E
330
1E
100
AcDbEntity
  8
1
  6
Continuous
 62
     7
100
AcDbCircle
 10
550.874998
 20
497.5
 30
0.0
 40
10.874998
100
AcDbArc
 50
141.704422
 51
180.0
  0
ARC
  5
11F
330
1E
100
AcDbEntity
  8
1
  6
Continuous
 62
     7
100
AcDbCircle
 10
543.9096849999999
 20
503.0
 30
0.0
 40
2.0
100
AcDbArc
 50
90.0
 51
141.704422
  0
ARC
  5
120
330
1E
100
AcDbEntity
  8
1
  6
Continuous
 62
     7
100
AcDbCircle
 10
550.874998
 20
307.5
 30
0.0
 40
10.874998
100
AcDbArc
 50
180.0
 51
218.2955779999999
  0
ARC
  5
121
330
1E
100
AcDbEntity
  8
1
  6
Continuous
 62
     7
100
AcDbCircle
 10
543.9096849999999
 20
302.0
 30
0.0
 40
2.0
100
AcDbArc
 50
218.2955779999999
 51
270.0
  0
CIRCLE
  5
122
330
1E
100
AcDbEntity
  8
1
  6
Continuous
 62
     7
100
AcDbCircle
 10
568.0
 20
366.0
 30
0.0
 40
4.0
  0
ARC
  5
123
330
1E
100
AcDbEntity
  8
1
  6
Continuous
 62
     7
100
AcDbCircle
 10
425.1555559999999
 20
366.0
 30
0.0
 40
5.344444
100
AcDbArc
 50
311.544509
 51
48.455491
  0
LINE
  5
124
330
1E
100
AcDbEntity
  8
1
  6
Continuous
 62
     7
100
AcDbLine
 10
427.5
 20
370.0
 30
0.0
 11
428.6999999999999
 21
370.0
 31
0.0
  0
LINE
  5
125
330
1E
100
AcDbEntity
  8
1
  6
Continuous
 62
     7
100
AcDbLine
 10
428.6999999999999
 20
370.0
 30
0.0
 11
428.6999999999999
 21
362.0
 31
0.0
  0
LINE
  5
126
330
1E
100
AcDbEntity
  8
1
  6
Continuous
 62
     7
100
AcDbLine
 10
428.6999999999999
 20
362.0
 30
0.0
 11
427.5
 21
362.0
 31
0.0
  0
ARC
  5
128
330
1E
100
AcDbEntity
  8
1
  6
Continuous
 62
     7
100
AcDbCircle
 10
714.844444
 20
366.0
 30
0.0
 40
5.344444
100
AcDbArc
 50
131.544509
 51
228.455491
  0
LINE
  5
129
330
1E
100
AcDbEntity
  8
1
  6
Continuous
 62
     7
100
AcDbLine
 10
712.5
 20
370.0
 30
0.0
 11
711.2999999999999
 21
370.0
 31
0.0
  0
LINE
  5
12A
330
1E
100
AcDbEntity
  8
1
  6
Continuous
 62
     7
100
AcDbLine
 10
711.2999999999999
 20
370.0
 30
0.0
 11
711.2999999999999
 21
362.0
 31
0.0
  0
LINE
  5
12B
330
1E
100
AcDbEntity
  8
1
  6
Continuous
 62
     7
100
AcDbLine
 10
711.2999999999999
 20
362.0
 30
0.0
 11
712.5
 21
362.0
 31
0.0
  0
ARC
  5
12C
330
1E
100
AcDbEntity
  8
1
  6
Continuous
 62
     7
100
AcDbCircle
 10
174.5
 20
503.0
 30
0.0
 40
2.0
100
AcDbArc
 50
90.0
 51
180.0
  0
LINE
  5
12D
330
1E
100
AcDbEntity
  8
1
  6
Continuous
 62
     7
100
AcDbLine
 10
172.5
 20
503.0
 30
0.0
 11
172.5
 21
302.0
 31
0.0
  0
ARC
  5
12E
330
1E
100
AcDbEntity
  8
1
  6
Continuous
 62
     7
100
AcDbCircle
 10
174.5
 20
302.0
 30
0.0
 40
2.0
100
AcDbArc
 50
180.0
 51
270.0
  0
LINE
  5
12F
330
1E
100
AcDbEntity
  8
1
  6
Continuous
 62
     7
100
AcDbLine
 10
174.5
 20
300.0
 30
0.0
 11
425.4999999999999
 21
300.0
 31
0.0
  0
ARC
  5
130
330
1E
100
AcDbEntity
  8
1
  6
Continuous
 62
     7
100
AcDbCircle
 10
425.4999999999999
 20
302.0
 30
0.0
 40
2.0
100
AcDbArc
 50
270.0
 51
0.0
  0
LINE
  5
131
330
1E
100
AcDbEntity
  8
1
  6
Continuous
 62
     7
100
AcDbLine
 10
427.5
 20
302.0
 30
0.0
 11
427.5
 21
503.0
 31
0.0
  0
LINE
  5
132
330
1E
100
AcDbEntity
  8
1
  6
Continuous
 62
     7
100
AcDbLine
 10
425.4999999999999
 20
505.0
 30
0.0
 11
174.5
 21
505.0
 31
0.0
  0
ARC
  5
133
330
1E
100
AcDbEntity
  8
1
  6
Continuous
 62
     7
100
AcDbCircle
 10
425.4999999999999
 20
503.0
 30
0.0
 40
2.0
100
AcDbArc
 50
0.0
 51
90.0
  0
ARC
  5
134
330
1E
100
AcDbEntity
  8
1
  6
Continuous
 62
     7
100
AcDbCircle
 10
714.5
 20
302.0
 30
0.0
 40
2.0
100
AcDbArc
 50
180.0
 51
270.0
  0
LINE
  5
135
330
1E
100
AcDbEntity
  8
1
  6
Continuous
 62
     7
100
AcDbLine
 10
712.5
 20
302.0
 30
0.0
 11
712.5
 21
503.0
 31
0.0
  0
ARC
  5
136
330
1E
100
AcDbEntity
  8
1
  6
Continuous
 62
     7
100
AcDbCircle
 10
714.5
 20
503.0
 30
0.0
 40
2.0
100
AcDbArc
 50
90.0
 51
180.0
  0
LINE
  5
137
330
1E
100
AcDbEntity
  8
1
  6
Continuous
 62
     7
100
AcDbLine
 10
714.5
 20
505.0
 30
0.0
 11
965.4999999999999
 21
505.0
 31
0.0
  0
ARC
  5
138
330
1E
100
AcDbEntity
  8
1
  6
Continuous
 62
     7
100
AcDbCircle
 10
965.4999999999999
 20
503.0
 30
0.0
 40
2.0
100
AcDbArc
 50
0.0
 51
90.0
  0
LINE
  5
139
330
1E
100
AcDbEntity
  8
1
  6
Continuous
 62
     7
100
AcDbLine
 10
967.5
 20
503.0
 30
0.0
 11
967.5
 21
302.0
 31
0.0
  0
LINE
  5
13A
330
1E
100
AcDbEntity
  8
1
  6
Continuous
 62
     7
100
AcDbLine
 10
965.4999999999999
 20
300.0
 30
0.0
 11
714.5
 21
300.0
 31
0.0
  0
ARC
  5
13B
330
1E
100
AcDbEntity
  8
1
  6
Continuous
 62
     7
100
AcDbCircle
 10
965.4999999999999
 20
302.0
 30
0.0
 40
2.0
100
AcDbArc
 50
270.0
 51
0.0
  0
LINE
  5
13C
330
1E
100
AcDbEntity
  8
1
  6
Continuous
 62
     7
100
AcDbLine
 10
576.279581
 20
300.0
 30
0.0
 11
543.9096849999999
 21
300.0
 31
0.0
  0
LINE
  5
13D
330
1E
100
AcDbEntity
  8
1
  6
Continuous
 62
     7
100
AcDbLine
 10
582.0
 20
308.7499999999999
 30
0.0
 11
578.0581559999999
 21
301.085304
 31
0.0
  0
ARC
  5
13E
330
1E
100
AcDbEntity
  8
1
  6
Continuous
 62
     7
100
AcDbCircle
 10
576.279581
 20
302.0
 30
0.0
 40
2.0
100
AcDbArc
 50
270.0
 51
332.7838879999999
  0
LINE
  5
13F
330
1E
100
AcDbEntity
  8
1
  6
Continuous
 62
     7
100
AcDbLine
 10
582.0
 20
496.25
 30
0.0
 11
578.0581559999999
 21
503.914696
 31
0.0
  0
LINE
  5
140
330
1E
100
AcDbEntity
  8
1
  6
Continuous
 62
     7
100
AcDbLine
 10
543.9096849999999
 20
505.0
 30
0.0
 11
576.279581
 21
505.0
 31
0.0
  0
ARC
  5
141
330
1E
100
AcDbEntity
  8
1
  6
Continuous
 62
     7
100
AcDbCircle
 10
576.279581
 20
503.0
 30
0.0
 40
2.0
100
AcDbArc
 50
27.21611199999999
 51
90.0
  0
LINE
  5
142
330
1E
100
AcDbEntity
  8
1
  6
Continuous
 62
     7
100
AcDbLine
 10
582.0
 20
302.0
 30
0.0
 11
582.0
 21
496.25
 31
0.0
  0
LINE
  5
143
330
1E
100
AcDbEntity
  8
1
  6
Continuous
 62
     7
100
AcDbLine
 10
576.279581
 20
300.0
 30
0.0
 11
580.0
 21
300.0
 31
0.0
  0
LINE
  5
144
330
1E
100
AcDbEntity
  8
1
  6
Continuous
 62
     7
100
AcDbLine
 10
728.5
 20
300.0
 30
0.0
 11
728.5
 21
310.0
 31
0.0
  0
LINE
  5
145
330
1E
100
AcDbEntity
  8
1
  6
Continuous
 62
     7
100
AcDbLine
 10
728.5
 20
310.0
 30
0.0
 11
808.5
 21
310.0
 31
0.0
  0
LINE
  5
146
330
1E
100
AcDbEntity
  8
1
  6
Continuous
 62
     7
100
AcDbLine
 10
808.5
 20
310.0
 30
0.0
 11
808.5
 21
300.0
 31
0.0
  0
CIRCLE
  5
147
330
1E
100
AcDbEntity
  8
1
  6
Continuous
 62
     7
100
AcDbCircle
 10
719.128679
 20
306.628681
 30
0.0
 40
3.0
  0
LINE
  5
148
330
1E
100
AcDbEntity
  8
1
  6
Continuous
 62
     7
100
AcDbLine
 10
721.25
 20
308.7499999999999
 30
0.0
 11
728.5
 21
308.7499999999999
 31
0.0
  0
CIRCLE
  5
149
330
1E
100
AcDbEntity
  8
1
  6
Continuous
 62
     7
100
AcDbCircle
 10
719.128679
 20
498.371319
 30
0.0
 40
3.0
  0
LINE
  5
14A
330
1E
100
AcDbEntity
  8
1
  6
Continuous
 62
     7
100
AcDbLine
 10
721.25
 20
496.25
 30
0.0
 11
721.25
 21
308.7499999999999
 31
0.0
  0
CIRCLE
  5
14B
330
1E
100
AcDbEntity
  8
1
  6
Continuous
 62
     7
100
AcDbCircle
 10
960.8713210000001
 20
306.628681
 30
0.0
 40
3.0
  0
CIRCLE
  5
14C
330
1E
100
AcDbEntity
  8
1
  6
Continuous
 62
     7
100
AcDbCircle
 10
960.8713210000001
 20
498.371319
 30
0.0
 40
3.0
  0
LINE
  5
14D
330
1E
100
AcDbEntity
  8
1
  6
Continuous
 62
     7
100
AcDbLine
 10
962.9926410000001
 20
500.492641
 30
0.0
 11
966.9142139999999
 21
504.4142139999999
 31
0.0
  0
LINE
  5
14E
330
1E
100
AcDbEntity
  8
1
  6
Continuous
 62
     7
100
AcDbLine
 10
717.0073589999999
 20
500.492641
 30
0.0
 11
713.0857859999999
 21
504.4142139999999
 31
0.0
  0
LINE
  5
14F
330
1E
100
AcDbEntity
  8
1
  6
Continuous
 62
     7
100
AcDbLine
 10
958.75
 20
496.25
 30
0.0
 11
958.75
 21
308.7499999999999
 31
0.0
  0
LINE
  5
150
330
1E
100
AcDbEntity
  8
1
  6
Continuous
 62
     7
100
AcDbLine
 10
962.9926410000001
 20
304.507359
 30
0.0
 11
966.9142139999999
 21
300.5857859999999
 31
0.0
  0
LINE
  5
151
330
1E
100
AcDbEntity
  8
1
  6
Continuous
 62
     7
100
AcDbLine
 10
713.0857849999999
 20
300.585787
 30
0.0
 11
717.0073579999999
 21
304.50736
 31
0.0
  0
LINE
  5
152
330
1E
100
AcDbEntity
  8
1
  6
Continuous
 62
     7
100
AcDbLine
 10
871.4999999999999
 20
308.7499999999999
 30
0.0
 11
871.4999999999999
 21
300.0
 31
0.0
  0
CIRCLE
  5
153
330
1E
100
AcDbEntity
  8
1
  6
Continuous
 62
     7
100
AcDbCircle
 10
890.871321
 20
306.628681
 30
0.0
 40
3.0
  0
LINE
  5
154
330
1E
100
AcDbEntity
  8
1
  6
Continuous
 62
     7
100
AcDbLine
 10
871.4999999999999
 20
308.7499999999999
 30
0.0
 11
888.7500000000001
 21
308.7499999999999
 31
0.0
  0
LINE
  5
155
330
1E
100
AcDbEntity
  8
1
  6
Continuous
 62
     7
100
AcDbLine
 10
892.992643
 20
308.7499999999999
 30
0.0
 11
958.75
 21
308.7499999999999
 31
0.0
  0
LINE
  5
156
330
1E
100
AcDbEntity
  8
1
  6
Continuous
 62
     7
100
AcDbLine
 10
814.4999999999999
 20
300.0
 30
0.0
 11
814.4999999999999
 21
422.0
 31
0.0
  0
ARC
  5
157
330
1E
100
AcDbEntity
  8
1
  6
Continuous
 62
     7
100
AcDbCircle
 10
816.5
 20
422.0
 30
0.0
 40
2.0
100
AcDbArc
 50
90.0
 51
180.0
  0
LINE
  5
158
330
1E
100
AcDbEntity
  8
1
  6
Continuous
 62
     7
100
AcDbLine
 10
816.5
 20
424.0
 30
0.0
 11
863.4999999999999
 21
424.0
 31
0.0
  0
LINE
  5
159
330
1E
100
AcDbEntity
  8
1
  6
Continuous
 62
     7
100
AcDbLine
 10
865.4999999999999
 20
422.0
 30
0.0
 11
865.4999999999999
 21
300.0
 31
0.0
  0
ARC
  5
15A
330
1E
100
AcDbEntity
  8
1
  6
Continuous
 62
     7
100
AcDbCircle
 10
863.4999999999999
 20
422.0
 30
0.0
 40
2.0
100
AcDbArc
 50
0.0
 51
90.0
  0
CIRCLE
  5
15B
330
1E
100
AcDbEntity
  8
1
  6
Continuous
 62
     7
100
AcDbCircle
 10
877.5
 20
365.0
 30
0.0
 40
4.25
  0
CIRCLE
  5
15C
330
1E
100
AcDbEntity
  8
1
  6
Continuous
 62
     7
100
AcDbCircle
 10
877.5
 20
365.0
 30
0.0
 40
1.199999999999999
  0
CIRCLE
  5
15D
330
1E
100
AcDbEntity
  8
1
  6
Continuous
 62
     7
100
AcDbCircle
 10
877.5
 20
365.0
 30
0.0
 40
2.2
  0
CIRCLE
  5
15E
330
1E
100
AcDbEntity
  8
1
  6
Continuous
 62
     7
100
AcDbCircle
 10
877.5
 20
440.0
 30
0.0
 40
4.25
  0
CIRCLE
  5
15F
330
1E
100
AcDbEntity
  8
1
  6
Continuous
 62
     7
100
AcDbCircle
 10
877.5
 20
440.0
 30
0.0
 40
1.199999999999999
  0
CIRCLE
  5
160
330
1E
100
AcDbEntity
  8
1
  6
Continuous
 62
     7
100
AcDbCircle
 10
877.5
 20
440.0
 30
0.0
 40
2.2
  0
CIRCLE
  5
161
330
1E
100
AcDbEntity
  8
1
  6
Continuous
 62
     7
100
AcDbCircle
 10
802.5
 20
440.0
 30
0.0
 40
4.25
  0
CIRCLE
  5
162
330
1E
100
AcDbEntity
  8
1
  6
Continuous
 62
     7
100
AcDbCircle
 10
802.5
 20
440.0
 30
0.0
 40
1.199999999999999
  0
CIRCLE
  5
163
330
1E
100
AcDbEntity
  8
1
  6
Continuous
 62
     7
100
AcDbCircle
 10
802.5
 20
440.0
 30
0.0
 40
2.2
  0
CIRCLE
  5
164
330
1E
100
AcDbEntity
  8
1
  6
Continuous
 62
     7
100
AcDbCircle
 10
802.5
 20
365.0
 30
0.0
 40
4.25
  0
CIRCLE
  5
165
330
1E
100
AcDbEntity
  8
1
  6
Continuous
 62
     7
100
AcDbCircle
 10
802.5
 20
365.0
 30
0.0
 40
1.199999999999999
  0
CIRCLE
  5
166
330
1E
100
AcDbEntity
  8
1
  6
Continuous
 62
     7
100
AcDbCircle
 10
802.5
 20
365.0
 30
0.0
 40
2.2
  0
CIRCLE
  5
168
330
1E
100
AcDbEntity
  8
1
  6
Continuous
 62
     7
100
AcDbCircle
 10
840.0
 20
476.0
 30
0.0
 40
10.8
  0
ARC
  5
169
330
1E
100
AcDbEntity
  8
1
  6
Continuous
 62
     7
100
AcDbCircle
 10
840.0
 20
476.0
 30
0.0
 40
8.0
100
AcDbArc
 50
180.0
 51
0.0
  0
ARC
  5
16A
330
1E
100
AcDbEntity
  8
1
  6
Continuous
 62
     7
100
AcDbCircle
 10
840.0
 20
482.6
 30
0.0
 40
1.8
100
AcDbArc
 50
0.0
 51
180.0
  0
LINE
  5
16B
330
1E
100
AcDbEntity
  8
1
  6
Continuous
 62
     7
100
AcDbLine
 10
832.0
 20
476.0000019999999
 30
0.0
 11
832.0
 21
477.8
 31
0.0
  0
LINE
  5
16C
330
1E
100
AcDbEntity
  8
1
  6
Continuous
 62
     7
100
AcDbLine
 10
832.0
 20
477.8
 30
0.0
 11
838.2000000000001
 21
477.8
 31
0.0
  0
LINE
  5
16D
330
1E
100
AcDbEntity
  8
1
  6
Continuous
 62
     7
100
AcDbLine
 10
838.2000000000001
 20
477.8
 30
0.0
 11
838.2000000000001
 21
482.6
 31
0.0
  0
LINE
  5
16E
330
1E
100
AcDbEntity
  8
1
  6
Continuous
 62
     7
100
AcDbLine
 10
848.0
 20
476.0
 30
0.0
 11
848.0
 21
477.8
 31
0.0
  0
LINE
  5
16F
330
1E
100
AcDbEntity
  8
1
  6
Continuous
 62
     7
100
AcDbLine
 10
848.0
 20
477.8
 30
0.0
 11
841.7999999999999
 21
477.8
 31
0.0
  0
LINE
  5
170
330
1E
100
AcDbEntity
  8
1
  6
Continuous
 62
     7
100
AcDbLine
 10
841.7999999999999
 20
477.8
 30
0.0
 11
841.7999999999999
 21
482.6
 31
0.0
  0
LINE
  5
171
330
1E
100
AcDbEntity
  8
1
  6
Continuous
 62
     7
100
AcDbLine
 10
765.0
 20
439.0
 30
0.0
 11
765.0
 21
437.25
 31
0.0
  0
LINE
  5
172
330
1E
100
AcDbEntity
  8
1
  6
Continuous
 62
     7
100
AcDbLine
 10
765.0
 20
437.25
 30
0.0
 11
795.0
 21
437.25
 31
0.0
  0
LINE
  5
173
330
1E
100
AcDbEntity
  8
1
  6
Continuous
 62
     7
100
AcDbLine
 10
795.0
 20
437.25
 30
0.0
 11
795.0
 21
439.0
 31
0.0
  0
LINE
  5
174
330
1E
100
AcDbEntity
  8
1
  6
Continuous
 62
     7
100
AcDbLine
 10
795.0
 20
439.0
 30
0.0
 11
765.0
 21
439.0
 31
0.0
  0
LINE
  5
175
330
1E
100
AcDbEntity
  8
1
  6
Continuous
 62
     7
100
AcDbLine
 10
765.0
 20
442.4999999999999
 30
0.0
 11
765.0
 21
440.7499999999999
 31
0.0
  0
LINE
  5
176
330
1E
100
AcDbEntity
  8
1
  6
Continuous
 62
     7
100
AcDbLine
 10
765.0
 20
440.7499999999999
 30
0.0
 11
795.0
 21
440.7499999999999
 31
0.0
  0
LINE
  5
177
330
1E
100
AcDbEntity
  8
1
  6
Continuous
 62
     7
100
AcDbLine
 10
795.0
 20
440.7499999999999
 30
0.0
 11
795.0
 21
442.4999999999999
 31
0.0
  0
LINE
  5
178
330
1E
100
AcDbEntity
  8
1
  6
Continuous
 62
     7
100
AcDbLine
 10
795.0
 20
442.4999999999999
 30
0.0
 11
765.0
 21
442.4999999999999
 31
0.0
  0
LINE
  5
179
330
1E
100
AcDbEntity
  8
1
  6
Continuous
 62
     7
100
AcDbLine
 10
765.0
 20
446.0
 30
0.0
 11
765.0
 21
444.2499999999999
 31
0.0
  0
LINE
  5
17A
330
1E
100
AcDbEntity
  8
1
  6
Continuous
 62
     7
100
AcDbLine
 10
765.0
 20
444.2499999999999
 30
0.0
 11
795.0
 21
444.2499999999999
 31
0.0
  0
LINE
  5
17B
330
1E
100
AcDbEntity
  8
1
  6
Continuous
 62
     7
100
AcDbLine
 10
795.0
 20
444.2499999999999
 30
0.0
 11
795.0
 21
446.0
 31
0.0
  0
LINE
  5
17C
330
1E
100
AcDbEntity
  8
1
  6
Continuous
 62
     7
100
AcDbLine
 10
795.0
 20
446.0
 30
0.0
 11
765.0
 21
446.0
 31
0.0
  0
LINE
  5
17D
330
1E
100
AcDbEntity
  8
1
  6
Continuous
 62
     7
100
AcDbLine
 10
765.0
 20
449.5
 30
0.0
 11
765.0
 21
447.75
 31
0.0
  0
LINE
  5
17E
330
1E
100
AcDbEntity
  8
1
  6
Continuous
 62
     7
100
AcDbLine
 10
765.0
 20
447.75
 30
0.0
 11
795.0
 21
447.75
 31
0.0
  0
LINE
  5
17F
330
1E
100
AcDbEntity
  8
1
  6
Continuous
 62
     7
100
AcDbLine
 10
795.0
 20
447.75
 30
0.0
 11
795.0
 21
449.5
 31
0.0
  0
LINE
  5
180
330
1E
100
AcDbEntity
  8
1
  6
Continuous
 62
     7
100
AcDbLine
 10
795.0
 20
449.5
 30
0.0
 11
765.0
 21
449.5
 31
0.0
  0
LINE
  5
181
330
1E
100
AcDbEntity
  8
1
  6
Continuous
 62
     7
100
AcDbLine
 10
765.0
 20
453.0
 30
0.0
 11
765.0
 21
451.25
 31
0.0
  0
LINE
  5
182
330
1E
100
AcDbEntity
  8
1
  6
Continuous
 62
     7
100
AcDbLine
 10
765.0
 20
451.25
 30
0.0
 11
795.0
 21
451.25
 31
0.0
  0
LINE
  5
183
330
1E
100
AcDbEntity
  8
1
  6
Continuous
 62
     7
100
AcDbLine
 10
795.0
 20
451.25
 30
0.0
 11
795.0
 21
453.0
 31
0.0
  0
LINE
  5
184
330
1E
100
AcDbEntity
  8
1
  6
Continuous
 62
     7
100
AcDbLine
 10
795.0
 20
453.0
 30
0.0
 11
765.0
 21
453.0
 31
0.0
  0
LINE
  5
185
330
1E
100
AcDbEntity
  8
1
  6
Continuous
 62
     7
100
AcDbLine
 10
765.0
 20
456.5
 30
0.0
 11
765.0
 21
454.75
 31
0.0
  0
LINE
  5
186
330
1E
100
AcDbEntity
  8
1
  6
Continuous
 62
     7
100
AcDbLine
 10
765.0
 20
454.75
 30
0.0
 11
795.0
 21
454.75
 31
0.0
  0
LINE
  5
187
330
1E
100
AcDbEntity
  8
1
  6
Continuous
 62
     7
100
AcDbLine
 10
795.0
 20
454.75
 30
0.0
 11
795.0
 21
456.5
 31
0.0
  0
LINE
  5
188
330
1E
100
AcDbEntity
  8
1
  6
Continuous
 62
     7
100
AcDbLine
 10
795.0
 20
456.5
 30
0.0
 11
765.0
 21
456.5
 31
0.0
  0
LINE
  5
189
330
1E
100
AcDbEntity
  8
1
  6
Continuous
 62
     7
100
AcDbLine
 10
765.0
 20
460.0
 30
0.0
 11
765.0
 21
458.25
 31
0.0
  0
LINE
  5
18A
330
1E
100
AcDbEntity
  8
1
  6
Continuous
 62
     7
100
AcDbLine
 10
765.0
 20
458.25
 30
0.0
 11
795.0
 21
458.25
 31
0.0
  0
LINE
  5
18B
330
1E
100
AcDbEntity
  8
1
  6
Continuous
 62
     7
100
AcDbLine
 10
795.0
 20
458.25
 30
0.0
 11
795.0
 21
460.0
 31
0.0
  0
LINE
  5
18C
330
1E
100
AcDbEntity
  8
1
  6
Continuous
 62
     7
100
AcDbLine
 10
795.0
 20
460.0
 30
0.0
 11
765.0
 21
460.0
 31
0.0
  0
LINE
  5
18D
330
1E
100
AcDbEntity
  8
1
  6
Continuous
 62
     7
100
AcDbLine
 10
765.0
 20
463.4999999999999
 30
0.0
 11
765.0
 21
461.7499999999999
 31
0.0
  0
LINE
  5
18E
330
1E
100
AcDbEntity
  8
1
  6
Continuous
 62
     7
100
AcDbLine
 10
765.0
 20
461.7499999999999
 30
0.0
 11
795.0
 21
461.7499999999999
 31
0.0
  0
LINE
  5
18F
330
1E
100
AcDbEntity
  8
1
  6
Continuous
 62
     7
100
AcDbLine
 10
795.0
 20
461.7499999999999
 30
0.0
 11
795.0
 21
463.4999999999999
 31
0.0
  0
LINE
  5
190
330
1E
100
AcDbEntity
  8
1
  6
Continuous
 62
     7
100
AcDbLine
 10
795.0
 20
463.4999999999999
 30
0.0
 11
765.0
 21
463.4999999999999
 31
0.0
  0
LINE
  5
191
330
1E
100
AcDbEntity
  8
1
  6
Continuous
 62
     7
100
AcDbLine
 10
765.0
 20
467.0
 30
0.0
 11
765.0
 21
465.2499999999999
 31
0.0
  0
LINE
  5
192
330
1E
100
AcDbEntity
  8
1
  6
Continuous
 62
     7
100
AcDbLine
 10
765.0
 20
465.2499999999999
 30
0.0
 11
795.0
 21
465.2499999999999
 31
0.0
  0
LINE
  5
193
330
1E
100
AcDbEntity
  8
1
  6
Continuous
 62
     7
100
AcDbLine
 10
795.0
 20
465.2499999999999
 30
0.0
 11
795.0
 21
467.0
 31
0.0
  0
LINE
  5
194
330
1E
100
AcDbEntity
  8
1
  6
Continuous
 62
     7
100
AcDbLine
 10
795.0
 20
467.0
 30
0.0
 11
765.0
 21
467.0
 31
0.0
  0
LINE
  5
195
330
1E
100
AcDbEntity
  8
1
  6
Continuous
 62
     7
100
AcDbLine
 10
765.0
 20
470.5
 30
0.0
 11
765.0
 21
468.75
 31
0.0
  0
LINE
  5
196
330
1E
100
AcDbEntity
  8
1
  6
Continuous
 62
     7
100
AcDbLine
 10
765.0
 20
468.75
 30
0.0
 11
795.0
 21
468.75
 31
0.0
  0
LINE
  5
197
330
1E
100
AcDbEntity
  8
1
  6
Continuous
 62
     7
100
AcDbLine
 10
795.0
 20
468.75
 30
0.0
 11
795.0
 21
470.5
 31
0.0
  0
LINE
  5
198
330
1E
100
AcDbEntity
  8
1
  6
Continuous
 62
     7
100
AcDbLine
 10
795.0
 20
470.5
 30
0.0
 11
765.0
 21
470.5
 31
0.0
  0
LINE
  5
199
330
1E
100
AcDbEntity
  8
1
  6
Continuous
 62
     7
100
AcDbLine
 10
765.0
 20
474.0
 30
0.0
 11
765.0
 21
472.25
 31
0.0
  0
LINE
  5
19A
330
1E
100
AcDbEntity
  8
1
  6
Continuous
 62
     7
100
AcDbLine
 10
765.0
 20
472.25
 30
0.0
 11
795.0
 21
472.25
 31
0.0
  0
LINE
  5
19B
330
1E
100
AcDbEntity
  8
1
  6
Continuous
 62
     7
100
AcDbLine
 10
795.0
 20
472.25
 30
0.0
 11
795.0
 21
474.0
 31
0.0
  0
LINE
  5
19C
330
1E
100
AcDbEntity
  8
1
  6
Continuous
 62
     7
100
AcDbLine
 10
795.0
 20
474.0
 30
0.0
 11
765.0
 21
474.0
 31
0.0
  0
LINE
  5
19D
330
1E
100
AcDbEntity
  8
1
  6
Continuous
 62
     7
100
AcDbLine
 10
765.0
 20
477.5
 30
0.0
 11
765.0
 21
475.75
 31
0.0
  0
LINE
  5
19E
330
1E
100
AcDbEntity
  8
1
  6
Continuous
 62
     7
100
AcDbLine
 10
765.0
 20
475.75
 30
0.0
 11
795.0
 21
475.75
 31
0.0
  0
LINE
  5
19F
330
1E
100
AcDbEntity
  8
1
  6
Continuous
 62
     7
100
AcDbLine
 10
795.0
 20
475.75
 30
0.0
 11
795.0
 21
477.5
 31
0.0
  0
LINE
  5
1A0
330
1E
100
AcDbEntity
  8
1
  6
Continuous
 62
     7
100
AcDbLine
 10
795.0
 20
477.5
 30
0.0
 11
765.0
 21
477.5
 31
0.0
  0
LINE
  5
1A1
330
1E
100
AcDbEntity
  8
1
  6
Continuous
 62
     7
100
AcDbLine
 10
765.0
 20
481.0
 30
0.0
 11
765.0
 21
479.25
 31
0.0
  0
LINE
  5
1A2
330
1E
100
AcDbEntity
  8
1
  6
Continuous
 62
     7
100
AcDbLine
 10
765.0
 20
479.25
 30
0.0
 11
795.0
 21
479.25
 31
0.0
  0
LINE
  5
1A3
330
1E
100
AcDbEntity
  8
1
  6
Continuous
 62
     7
100
AcDbLine
 10
795.0
 20
479.25
 30
0.0
 11
795.0
 21
481.0
 31
0.0
  0
LINE
  5
1A4
330
1E
100
AcDbEntity
  8
1
  6
Continuous
 62
     7
100
AcDbLine
 10
795.0
 20
481.0
 30
0.0
 11
765.0
 21
481.0
 31
0.0
  0
LINE
  5
1A5
330
1E
100
AcDbEntity
  8
1
  6
Continuous
 62
     7
100
AcDbLine
 10
765.0
 20
484.4999999999999
 30
0.0
 11
765.0
 21
482.7499999999999
 31
0.0
  0
LINE
  5
1A6
330
1E
100
AcDbEntity
  8
1
  6
Continuous
 62
     7
100
AcDbLine
 10
765.0
 20
482.7499999999999
 30
0.0
 11
795.0
 21
482.7499999999999
 31
0.0
  0
LINE
  5
1A7
330
1E
100
AcDbEntity
  8
1
  6
Continuous
 62
     7
100
AcDbLine
 10
795.0
 20
482.7499999999999
 30
0.0
 11
795.0
 21
484.4999999999999
 31
0.0
  0
LINE
  5
1A8
330
1E
100
AcDbEntity
  8
1
  6
Continuous
 62
     7
100
AcDbLine
 10
795.0
 20
484.4999999999999
 30
0.0
 11
765.0
 21
484.4999999999999
 31
0.0
  0
LINE
  5
1A9
330
1E
100
AcDbEntity
  8
1
  6
Continuous
 62
     7
100
AcDbLine
 10
885.0
 20
439.0
 30
0.0
 11
885.0
 21
437.25
 31
0.0
  0
LINE
  5
1AA
330
1E
100
AcDbEntity
  8
1
  6
Continuous
 62
     7
100
AcDbLine
 10
885.0
 20
437.25
 30
0.0
 11
905.0
 21
437.25
 31
0.0
  0
LINE
  5
1AB
330
1E
100
AcDbEntity
  8
1
  6
Continuous
 62
     7
100
AcDbLine
 10
905.0
 20
437.25
 30
0.0
 11
905.0
 21
439.0
 31
0.0
  0
LINE
  5
1AC
330
1E
100
AcDbEntity
  8
1
  6
Continuous
 62
     7
100
AcDbLine
 10
905.0
 20
439.0
 30
0.0
 11
885.0
 21
439.0
 31
0.0
  0
LINE
  5
1AD
330
1E
100
AcDbEntity
  8
1
  6
Continuous
 62
     7
100
AcDbLine
 10
885.0
 20
442.4999999999999
 30
0.0
 11
885.0
 21
440.7499999999999
 31
0.0
  0
LINE
  5
1AE
330
1E
100
AcDbEntity
  8
1
  6
Continuous
 62
     7
100
AcDbLine
 10
885.0
 20
440.7499999999999
 30
0.0
 11
905.0
 21
440.7499999999999
 31
0.0
  0
LINE
  5
1AF
330
1E
100
AcDbEntity
  8
1
  6
Continuous
 62
     7
100
AcDbLine
 10
905.0
 20
440.7499999999999
 30
0.0
 11
905.0
 21
442.4999999999999
 31
0.0
  0
LINE
  5
1B0
330
1E
100
AcDbEntity
  8
1
  6
Continuous
 62
     7
100
AcDbLine
 10
905.0
 20
442.4999999999999
 30
0.0
 11
885.0
 21
442.4999999999999
 31
0.0
  0
LINE
  5
1B1
330
1E
100
AcDbEntity
  8
1
  6
Continuous
 62
     7
100
AcDbLine
 10
885.0
 20
446.0
 30
0.0
 11
885.0
 21
444.2499999999999
 31
0.0
  0
LINE
  5
1B2
330
1E
100
AcDbEntity
  8
1
  6
Continuous
 62
     7
100
AcDbLine
 10
885.0
 20
444.2499999999999
 30
0.0
 11
905.0
 21
444.2499999999999
 31
0.0
  0
LINE
  5
1B3
330
1E
100
AcDbEntity
  8
1
  6
Continuous
 62
     7
100
AcDbLine
 10
905.0
 20
444.2499999999999
 30
0.0
 11
905.0
 21
446.0
 31
0.0
  0
LINE
  5
1B4
330
1E
100
AcDbEntity
  8
1
  6
Continuous
 62
     7
100
AcDbLine
 10
905.0
 20
446.0
 30
0.0
 11
885.0
 21
446.0
 31
0.0
  0
LINE
  5
1B5
330
1E
100
AcDbEntity
  8
1
  6
Continuous
 62
     7
100
AcDbLine
 10
885.0
 20
449.5
 30
0.0
 11
885.0
 21
447.75
 31
0.0
  0
LINE
  5
1B6
330
1E
100
AcDbEntity
  8
1
  6
Continuous
 62
     7
100
AcDbLine
 10
885.0
 20
447.75
 30
0.0
 11
905.0
 21
447.75
 31
0.0
  0
LINE
  5
1B7
330
1E
100
AcDbEntity
  8
1
  6
Continuous
 62
     7
100
AcDbLine
 10
905.0
 20
447.75
 30
0.0
 11
905.0
 21
449.5
 31
0.0
  0
LINE
  5
1B8
330
1E
100
AcDbEntity
  8
1
  6
Continuous
 62
     7
100
AcDbLine
 10
905.0
 20
449.5
 30
0.0
 11
885.0
 21
449.5
 31
0.0
  0
LINE
  5
1B9
330
1E
100
AcDbEntity
  8
1
  6
Continuous
 62
     7
100
AcDbLine
 10
885.0
 20
453.0
 30
0.0
 11
885.0
 21
451.25
 31
0.0
  0
LINE
  5
1BA
330
1E
100
AcDbEntity
  8
1
  6
Continuous
 62
     7
100
AcDbLine
 10
885.0
 20
451.25
 30
0.0
 11
905.0
 21
451.25
 31
0.0
  0
LINE
  5
1BB
330
1E
100
AcDbEntity
  8
1
  6
Continuous
 62
     7
100
AcDbLine
 10
905.0
 20
451.25
 30
0.0
 11
905.0
 21
453.0
 31
0.0
  0
LINE
  5
1BC
330
1E
100
AcDbEntity
  8
1
  6
Continuous
 62
     7
100
AcDbLine
 10
905.0
 20
453.0
 30
0.0
 11
885.0
 21
453.0
 31
0.0
  0
LINE
  5
1BD
330
1E
100
AcDbEntity
  8
1
  6
Continuous
 62
     7
100
AcDbLine
 10
885.0
 20
456.5
 30
0.0
 11
885.0
 21
454.75
 31
0.0
  0
LINE
  5
1BE
330
1E
100
AcDbEntity
  8
1
  6
Continuous
 62
     7
100
AcDbLine
 10
885.0
 20
454.75
 30
0.0
 11
905.0
 21
454.75
 31
0.0
  0
LINE
  5
1BF
330
1E
100
AcDbEntity
  8
1
  6
Continuous
 62
     7
100
AcDbLine
 10
905.0
 20
454.75
 30
0.0
 11
905.0
 21
456.5
 31
0.0
  0
LINE
  5
1C0
330
1E
100
AcDbEntity
  8
1
  6
Continuous
 62
     7
100
AcDbLine
 10
905.0
 20
456.5
 30
0.0
 11
885.0
 21
456.5
 31
0.0
  0
LINE
  5
1C1
330
1E
100
AcDbEntity
  8
1
  6
Continuous
 62
     7
100
AcDbLine
 10
885.0
 20
460.0
 30
0.0
 11
885.0
 21
458.25
 31
0.0
  0
LINE
  5
1C2
330
1E
100
AcDbEntity
  8
1
  6
Continuous
 62
     7
100
AcDbLine
 10
885.0
 20
458.25
 30
0.0
 11
905.0
 21
458.25
 31
0.0
  0
LINE
  5
1C3
330
1E
100
AcDbEntity
  8
1
  6
Continuous
 62
     7
100
AcDbLine
 10
905.0
 20
458.25
 30
0.0
 11
905.0
 21
460.0
 31
0.0
  0
LINE
  5
1C4
330
1E
100
AcDbEntity
  8
1
  6
Continuous
 62
     7
100
AcDbLine
 10
905.0
 20
460.0
 30
0.0
 11
885.0
 21
460.0
 31
0.0
  0
LINE
  5
1C5
330
1E
100
AcDbEntity
  8
1
  6
Continuous
 62
     7
100
AcDbLine
 10
885.0
 20
463.4999999999999
 30
0.0
 11
885.0
 21
461.7499999999999
 31
0.0
  0
LINE
  5
1C6
330
1E
100
AcDbEntity
  8
1
  6
Continuous
 62
     7
100
AcDbLine
 10
885.0
 20
461.7499999999999
 30
0.0
 11
905.0
 21
461.7499999999999
 31
0.0
  0
LINE
  5
1C7
330
1E
100
AcDbEntity
  8
1
  6
Continuous
 62
     7
100
AcDbLine
 10
905.0
 20
461.7499999999999
 30
0.0
 11
905.0
 21
463.4999999999999
 31
0.0
  0
LINE
  5
1C8
330
1E
100
AcDbEntity
  8
1
  6
Continuous
 62
     7
100
AcDbLine
 10
905.0
 20
463.4999999999999
 30
0.0
 11
885.0
 21
463.4999999999999
 31
0.0
  0
LINE
  5
1C9
330
1E
100
AcDbEntity
  8
1
  6
Continuous
 62
     7
100
AcDbLine
 10
885.0
 20
467.0
 30
0.0
 11
885.0
 21
465.2499999999999
 31
0.0
  0
LINE
  5
1CA
330
1E
100
AcDbEntity
  8
1
  6
Continuous
 62
     7
100
AcDbLine
 10
885.0
 20
465.2499999999999
 30
0.0
 11
905.0
 21
465.2499999999999
 31
0.0
  0
LINE
  5
1CB
330
1E
100
AcDbEntity
  8
1
  6
Continuous
 62
     7
100
AcDbLine
 10
905.0
 20
465.2499999999999
 30
0.0
 11
905.0
 21
467.0
 31
0.0
  0
LINE
  5
1CC
330
1E
100
AcDbEntity
  8
1
  6
Continuous
 62
     7
100
AcDbLine
 10
905.0
 20
467.0
 30
0.0
 11
885.0
 21
467.0
 31
0.0
  0
LINE
  5
1CD
330
1E
100
AcDbEntity
  8
1
  6
Continuous
 62
     7
100
AcDbLine
 10
885.0
 20
470.5
 30
0.0
 11
885.0
 21
468.75
 31
0.0
  0
LINE
  5
1CE
330
1E
100
AcDbEntity
  8
1
  6
Continuous
 62
     7
100
AcDbLine
 10
885.0
 20
468.75
 30
0.0
 11
905.0
 21
468.75
 31
0.0
  0
LINE
  5
1CF
330
1E
100
AcDbEntity
  8
1
  6
Continuous
 62
     7
100
AcDbLine
 10
905.0
 20
468.75
 30
0.0
 11
905.0
 21
470.5
 31
0.0
  0
LINE
  5
1D0
330
1E
100
AcDbEntity
  8
1
  6
Continuous
 62
     7
100
AcDbLine
 10
905.0
 20
470.5
 30
0.0
 11
885.0
 21
470.5
 31
0.0
  0
LINE
  5
1D1
330
1E
100
AcDbEntity
  8
1
  6
Continuous
 62
     7
100
AcDbLine
 10
885.0
 20
474.0
 30
0.0
 11
885.0
 21
472.25
 31
0.0
  0
LINE
  5
1D2
330
1E
100
AcDbEntity
  8
1
  6
Continuous
 62
     7
100
AcDbLine
 10
885.0
 20
472.25
 30
0.0
 11
905.0
 21
472.25
 31
0.0
  0
LINE
  5
1D3
330
1E
100
AcDbEntity
  8
1
  6
Continuous
 62
     7
100
AcDbLine
 10
905.0
 20
472.25
 30
0.0
 11
905.0
 21
474.0
 31
0.0
  0
LINE
  5
1D4
330
1E
100
AcDbEntity
  8
1
  6
Continuous
 62
     7
100
AcDbLine
 10
905.0
 20
474.0
 30
0.0
 11
885.0
 21
474.0
 31
0.0
  0
LINE
  5
1D5
330
1E
100
AcDbEntity
  8
1
  6
Continuous
 62
     7
100
AcDbLine
 10
885.0
 20
477.5
 30
0.0
 11
885.0
 21
475.75
 31
0.0
  0
LINE
  5
1D6
330
1E
100
AcDbEntity
  8
1
  6
Continuous
 62
     7
100
AcDbLine
 10
885.0
 20
475.75
 30
0.0
 11
905.0
 21
475.75
 31
0.0
  0
LINE
  5
1D7
330
1E
100
AcDbEntity
  8
1
  6
Continuous
 62
     7
100
AcDbLine
 10
905.0
 20
475.75
 30
0.0
 11
905.0
 21
477.5
 31
0.0
  0
LINE
  5
1D8
330
1E
100
AcDbEntity
  8
1
  6
Continuous
 62
     7
100
AcDbLine
 10
905.0
 20
477.5
 30
0.0
 11
885.0
 21
477.5
 31
0.0
  0
LINE
  5
1D9
330
1E
100
AcDbEntity
  8
1
  6
Continuous
 62
     7
100
AcDbLine
 10
885.0
 20
481.0
 30
0.0
 11
885.0
 21
479.25
 31
0.0
  0
LINE
  5
1DA
330
1E
100
AcDbEntity
  8
1
  6
Continuous
 62
     7
100
AcDbLine
 10
885.0
 20
479.25
 30
0.0
 11
905.0
 21
479.25
 31
0.0
  0
LINE
  5
1DB
330
1E
100
AcDbEntity
  8
1
  6
Continuous
 62
     7
100
AcDbLine
 10
905.0
 20
479.25
 30
0.0
 11
905.0
 21
481.0
 31
0.0
  0
LINE
  5
1DC
330
1E
100
AcDbEntity
  8
1
  6
Continuous
 62
     7
100
AcDbLine
 10
905.0
 20
481.0
 30
0.0
 11
885.0
 21
481.0
 31
0.0
  0
LINE
  5
1DD
330
1E
100
AcDbEntity
  8
1
  6
Continuous
 62
     7
100
AcDbLine
 10
885.0
 20
484.4999999999999
 30
0.0
 11
885.0
 21
482.7499999999999
 31
0.0
  0
LINE
  5
1DE
330
1E
100
AcDbEntity
  8
1
  6
Continuous
 62
     7
100
AcDbLine
 10
885.0
 20
482.7499999999999
 30
0.0
 11
905.0
 21
482.7499999999999
 31
0.0
  0
LINE
  5
1DF
330
1E
100
AcDbEntity
  8
1
  6
Continuous
 62
     7
100
AcDbLine
 10
905.0
 20
482.7499999999999
 30
0.0
 11
905.0
 21
484.4999999999999
 31
0.0
  0
LINE
  5
1E0
330
1E
100
AcDbEntity
  8
1
  6
Continuous
 62
     7
100
AcDbLine
 10
905.0
 20
484.4999999999999
 30
0.0
 11
885.0
 21
484.4999999999999
 31
0.0
  0
CIRCLE
  5
1E1
330
1E
100
AcDbEntity
  8
1
  6
Continuous
 62
     7
100
AcDbCircle
 10
815.0
 20
468.125
 30
0.0
 40
0.8
  0
CIRCLE
  5
1E2
330
1E
100
AcDbEntity
  8
1
  6
Continuous
 62
     7
100
AcDbCircle
 10
820.0
 20
468.125
 30
0.0
 40
0.8
  0
CIRCLE
  5
1E3
330
1E
100
AcDbEntity
  8
1
  6
Continuous
 62
     7
100
AcDbCircle
 10
825.0
 20
468.125
 30
0.0
 40
0.8
  0
CIRCLE
  5
1E4
330
1E
100
AcDbEntity
  8
1
  6
Continuous
 62
     7
100
AcDbCircle
 10
830.0
 20
468.125
 30
0.0
 40
0.8
  0
CIRCLE
  5
1E5
330
1E
100
AcDbEntity
  8
1
  6
Continuous
 62
     7
100
AcDbCircle
 10
835.0
 20
463.125
 30
0.0
 40
0.8
  0
CIRCLE
  5
1E6
330
1E
100
AcDbEntity
  8
1
  6
Continuous
 62
     7
100
AcDbCircle
 10
830.0
 20
463.125
 30
0.0
 40
0.8
  0
CIRCLE
  5
1E7
330
1E
100
AcDbEntity
  8
1
  6
Continuous
 62
     7
100
AcDbCircle
 10
825.0
 20
463.125
 30
0.0
 40
0.8
  0
CIRCLE
  5
1E8
330
1E
100
AcDbEntity
  8
1
  6
Continuous
 62
     7
100
AcDbCircle
 10
820.0
 20
463.125
 30
0.0
 40
0.8
  0
CIRCLE
  5
1E9
330
1E
100
AcDbEntity
  8
1
  6
Continuous
 62
     7
100
AcDbCircle
 10
815.0
 20
463.125
 30
0.0
 40
0.8
  0
CIRCLE
  5
1EA
330
1E
100
AcDbEntity
  8
1
  6
Continuous
 62
     7
100
AcDbCircle
 10
835.0
 20
458.1249999999999
 30
0.0
 40
0.8
  0
CIRCLE
  5
1EB
330
1E
100
AcDbEntity
  8
1
  6
Continuous
 62
     7
100
AcDbCircle
 10
830.0
 20
458.1249999999999
 30
0.0
 40
0.8
  0
CIRCLE
  5
1EC
330
1E
100
AcDbEntity
  8
1
  6
Continuous
 62
     7
100
AcDbCircle
 10
825.0
 20
458.1249999999999
 30
0.0
 40
0.8
  0
CIRCLE
  5
1ED
330
1E
100
AcDbEntity
  8
1
  6
Continuous
 62
     7
100
AcDbCircle
 10
820.0
 20
458.1249999999999
 30
0.0
 40
0.8
  0
CIRCLE
  5
1EE
330
1E
100
AcDbEntity
  8
1
  6
Continuous
 62
     7
100
AcDbCircle
 10
815.0
 20
458.1249999999999
 30
0.0
 40
0.8
  0
CIRCLE
  5
1EF
330
1E
100
AcDbEntity
  8
1
  6
Continuous
 62
     7
100
AcDbCircle
 10
835.0
 20
453.125
 30
0.0
 40
0.8
  0
CIRCLE
  5
1F0
330
1E
100
AcDbEntity
  8
1
  6
Continuous
 62
     7
100
AcDbCircle
 10
830.0
 20
453.125
 30
0.0
 40
0.8
  0
CIRCLE
  5
1F1
330
1E
100
AcDbEntity
  8
1
  6
Continuous
 62
     7
100
AcDbCircle
 10
825.0
 20
453.125
 30
0.0
 40
0.8
  0
CIRCLE
  5
1F2
330
1E
100
AcDbEntity
  8
1
  6
Continuous
 62
     7
100
AcDbCircle
 10
820.0
 20
453.125
 30
0.0
 40
0.8
  0
CIRCLE
  5
1F3
330
1E
100
AcDbEntity
  8
1
  6
Continuous
 62
     7
100
AcDbCircle
 10
815.0
 20
453.125
 30
0.0
 40
0.8
  0
CIRCLE
  5
1F4
330
1E
100
AcDbEntity
  8
1
  6
Continuous
 62
     7
100
AcDbCircle
 10
835.0
 20
448.125
 30
0.0
 40
0.8
  0
CIRCLE
  5
1F5
330
1E
100
AcDbEntity
  8
1
  6
Continuous
 62
     7
100
AcDbCircle
 10
830.0
 20
448.125
 30
0.0
 40
0.8
  0
CIRCLE
  5
1F6
330
1E
100
AcDbEntity
  8
1
  6
Continuous
 62
     7
100
AcDbCircle
 10
825.0
 20
448.125
 30
0.0
 40
0.8
  0
CIRCLE
  5
1F7
330
1E
100
AcDbEntity
  8
1
  6
Continuous
 62
     7
100
AcDbCircle
 10
820.0
 20
448.125
 30
0.0
 40
0.8
  0
CIRCLE
  5
1F8
330
1E
100
AcDbEntity
  8
1
  6
Continuous
 62
     7
100
AcDbCircle
 10
815.0
 20
448.125
 30
0.0
 40
0.8
  0
CIRCLE
  5
1F9
330
1E
100
AcDbEntity
  8
1
  6
Continuous
 62
     7
100
AcDbCircle
 10
835.0
 20
443.125
 30
0.0
 40
0.8
  0
CIRCLE
  5
1FA
330
1E
100
AcDbEntity
  8
1
  6
Continuous
 62
     7
100
AcDbCircle
 10
830.0
 20
443.125
 30
0.0
 40
0.8
  0
CIRCLE
  5
1FB
330
1E
100
AcDbEntity
  8
1
  6
Continuous
 62
     7
100
AcDbCircle
 10
825.0
 20
443.125
 30
0.0
 40
0.8
  0
CIRCLE
  5
1FC
330
1E
100
AcDbEntity
  8
1
  6
Continuous
 62
     7
100
AcDbCircle
 10
820.0
 20
443.125
 30
0.0
 40
0.8
  0
CIRCLE
  5
1FD
330
1E
100
AcDbEntity
  8
1
  6
Continuous
 62
     7
100
AcDbCircle
 10
835.0
 20
438.125
 30
0.0
 40
0.8
  0
CIRCLE
  5
1FE
330
1E
100
AcDbEntity
  8
1
  6
Continuous
 62
     7
100
AcDbCircle
 10
830.0
 20
438.125
 30
0.0
 40
0.8
  0
CIRCLE
  5
1FF
330
1E
100
AcDbEntity
  8
1
  6
Continuous
 62
     7
100
AcDbCircle
 10
825.0
 20
438.125
 30
0.0
 40
0.8
  0
CIRCLE
  5
200
330
1E
100
AcDbEntity
  8
1
  6
Continuous
 62
     7
100
AcDbCircle
 10
820.0
 20
438.125
 30
0.0
 40
0.8
  0
CIRCLE
  5
201
330
1E
100
AcDbEntity
  8
1
  6
Continuous
 62
     7
100
AcDbCircle
 10
871.0
 20
437.25
 30
0.0
 40
0.8
  0
CIRCLE
  5
202
330
1E
100
AcDbEntity
  8
1
  6
Continuous
 62
     7
100
AcDbCircle
 10
866.0
 20
437.25
 30
0.0
 40
0.8
  0
CIRCLE
  5
203
330
1E
100
AcDbEntity
  8
1
  6
Continuous
 62
     7
100
AcDbCircle
 10
861.0
 20
437.25
 30
0.0
 40
0.8
  0
CIRCLE
  5
204
330
1E
100
AcDbEntity
  8
1
  6
Continuous
 62
     7
100
AcDbCircle
 10
856.0
 20
437.25
 30
0.0
 40
0.8
  0
CIRCLE
  5
205
330
1E
100
AcDbEntity
  8
1
  6
Continuous
 62
     7
100
AcDbCircle
 10
851.0
 20
437.25
 30
0.0
 40
0.8
  0
CIRCLE
  5
206
330
1E
100
AcDbEntity
  8
1
  6
Continuous
 62
     7
100
AcDbCircle
 10
871.0
 20
442.25
 30
0.0
 40
0.8
  0
CIRCLE
  5
207
330
1E
100
AcDbEntity
  8
1
  6
Continuous
 62
     7
100
AcDbCircle
 10
866.0
 20
442.25
 30
0.0
 40
0.8
  0
CIRCLE
  5
208
330
1E
100
AcDbEntity
  8
1
  6
Continuous
 62
     7
100
AcDbCircle
 10
861.0
 20
442.25
 30
0.0
 40
0.8
  0
CIRCLE
  5
209
330
1E
100
AcDbEntity
  8
1
  6
Continuous
 62
     7
100
AcDbCircle
 10
856.0
 20
442.25
 30
0.0
 40
0.8
  0
CIRCLE
  5
20A
330
1E
100
AcDbEntity
  8
1
  6
Continuous
 62
     7
100
AcDbCircle
 10
851.0
 20
442.25
 30
0.0
 40
0.8
  0
CIRCLE
  5
20B
330
1E
100
AcDbEntity
  8
1
  6
Continuous
 62
     7
100
AcDbCircle
 10
871.0
 20
447.25
 30
0.0
 40
0.8
  0
CIRCLE
  5
20C
330
1E
100
AcDbEntity
  8
1
  6
Continuous
 62
     7
100
AcDbCircle
 10
866.0
 20
447.25
 30
0.0
 40
0.8
  0
CIRCLE
  5
20D
330
1E
100
AcDbEntity
  8
1
  6
Continuous
 62
     7
100
AcDbCircle
 10
861.0
 20
447.25
 30
0.0
 40
0.8
  0
CIRCLE
  5
20E
330
1E
100
AcDbEntity
  8
1
  6
Continuous
 62
     7
100
AcDbCircle
 10
856.0
 20
447.25
 30
0.0
 40
0.8
  0
CIRCLE
  5
20F
330
1E
100
AcDbEntity
  8
1
  6
Continuous
 62
     7
100
AcDbCircle
 10
851.0
 20
447.25
 30
0.0
 40
0.8
  0
CIRCLE
  5
210
330
1E
100
AcDbEntity
  8
1
  6
Continuous
 62
     7
100
AcDbCircle
 10
871.0
 20
452.2499999999999
 30
0.0
 40
0.8
  0
CIRCLE
  5
211
330
1E
100
AcDbEntity
  8
1
  6
Continuous
 62
     7
100
AcDbCircle
 10
866.0
 20
452.2499999999999
 30
0.0
 40
0.8
  0
CIRCLE
  5
212
330
1E
100
AcDbEntity
  8
1
  6
Continuous
 62
     7
100
AcDbCircle
 10
861.0
 20
452.2499999999999
 30
0.0
 40
0.8
  0
CIRCLE
  5
213
330
1E
100
AcDbEntity
  8
1
  6
Continuous
 62
     7
100
AcDbCircle
 10
856.0
 20
452.2499999999999
 30
0.0
 40
0.8
  0
CIRCLE
  5
214
330
1E
100
AcDbEntity
  8
1
  6
Continuous
 62
     7
100
AcDbCircle
 10
851.0
 20
452.2499999999999
 30
0.0
 40
0.8
  0
CIRCLE
  5
215
330
1E
100
AcDbEntity
  8
1
  6
Continuous
 62
     7
100
AcDbCircle
 10
871.0
 20
457.2499999999999
 30
0.0
 40
0.8
  0
CIRCLE
  5
216
330
1E
100
AcDbEntity
  8
1
  6
Continuous
 62
     7
100
AcDbCircle
 10
866.0
 20
457.2499999999999
 30
0.0
 40
0.8
  0
CIRCLE
  5
217
330
1E
100
AcDbEntity
  8
1
  6
Continuous
 62
     7
100
AcDbCircle
 10
861.0
 20
457.2499999999999
 30
0.0
 40
0.8
  0
CIRCLE
  5
218
330
1E
100
AcDbEntity
  8
1
  6
Continuous
 62
     7
100
AcDbCircle
 10
856.0
 20
457.2499999999999
 30
0.0
 40
0.8
  0
CIRCLE
  5
219
330
1E
100
AcDbEntity
  8
1
  6
Continuous
 62
     7
100
AcDbCircle
 10
851.0
 20
457.2499999999999
 30
0.0
 40
0.8
  0
CIRCLE
  5
21A
330
1E
100
AcDbEntity
  8
1
  6
Continuous
 62
     7
100
AcDbCircle
 10
871.0
 20
462.25
 30
0.0
 40
0.8
  0
CIRCLE
  5
21B
330
1E
100
AcDbEntity
  8
1
  6
Continuous
 62
     7
100
AcDbCircle
 10
866.0
 20
462.25
 30
0.0
 40
0.8
  0
CIRCLE
  5
21C
330
1E
100
AcDbEntity
  8
1
  6
Continuous
 62
     7
100
AcDbCircle
 10
861.0
 20
462.25
 30
0.0
 40
0.8
  0
CIRCLE
  5
21D
330
1E
100
AcDbEntity
  8
1
  6
Continuous
 62
     7
100
AcDbCircle
 10
856.0
 20
462.25
 30
0.0
 40
0.8
  0
CIRCLE
  5
21E
330
1E
100
AcDbEntity
  8
1
  6
Continuous
 62
     7
100
AcDbCircle
 10
851.0
 20
462.25
 30
0.0
 40
0.8
  0
CIRCLE
  5
21F
330
1E
100
AcDbEntity
  8
1
  6
Continuous
 62
     7
100
AcDbCircle
 10
871.0
 20
467.25
 30
0.0
 40
0.8
  0
CIRCLE
  5
220
330
1E
100
AcDbEntity
  8
1
  6
Continuous
 62
     7
100
AcDbCircle
 10
866.0
 20
467.25
 30
0.0
 40
0.8
  0
CIRCLE
  5
221
330
1E
100
AcDbEntity
  8
1
  6
Continuous
 62
     7
100
AcDbCircle
 10
861.0
 20
467.25
 30
0.0
 40
0.8
  0
CIRCLE
  5
222
330
1E
100
AcDbEntity
  8
1
  6
Continuous
 62
     7
100
AcDbCircle
 10
856.0
 20
467.25
 30
0.0
 40
0.8
  0
CIRCLE
  5
223
330
1E
100
AcDbEntity
  8
1
  6
Continuous
 62
     7
100
AcDbCircle
 10
851.0
 20
467.25
 30
0.0
 40
0.8
  0
CIRCLE
  5
224
330
1E
100
AcDbEntity
  8
1
  6
Continuous
 62
     7
100
AcDbCircle
 10
871.0
 20
472.25
 30
0.0
 40
0.8
  0
CIRCLE
  5
225
330
1E
100
AcDbEntity
  8
1
  6
Continuous
 62
     7
100
AcDbCircle
 10
866.0
 20
472.25
 30
0.0
 40
0.8
  0
CIRCLE
  5
226
330
1E
100
AcDbEntity
  8
1
  6
Continuous
 62
     7
100
AcDbCircle
 10
861.0
 20
472.25
 30
0.0
 40
0.8
  0
CIRCLE
  5
227
330
1E
100
AcDbEntity
  8
1
  6
Continuous
 62
     7
100
AcDbCircle
 10
856.0
 20
472.25
 30
0.0
 40
0.8
  0
CIRCLE
  5
228
330
1E
100
AcDbEntity
  8
1
  6
Continuous
 62
     7
100
AcDbCircle
 10
851.0
 20
472.25
 30
0.0
 40
0.8
  0
CIRCLE
  5
229
330
1E
100
AcDbEntity
  8
1
  6
Continuous
 62
     7
100
AcDbCircle
 10
902.5
 20
424.0
 30
0.0
 40
0.8
  0
CIRCLE
  5
22A
330
1E
100
AcDbEntity
  8
1
  6
Continuous
 62
     7
100
AcDbCircle
 10
897.4999999999999
 20
424.0
 30
0.0
 40
0.8
  0
CIRCLE
  5
22B
330
1E
100
AcDbEntity
  8
1
  6
Continuous
 62
     7
100
AcDbCircle
 10
892.5
 20
424.0
 30
0.0
 40
0.8
  0
CIRCLE
  5
22C
330
1E
100
AcDbEntity
  8
1
  6
Continuous
 62
     7
100
AcDbCircle
 10
887.5
 20
424.0
 30
0.0
 40
0.8
  0
CIRCLE
  5
22D
330
1E
100
AcDbEntity
  8
1
  6
Continuous
 62
     7
100
AcDbCircle
 10
882.5000000000001
 20
404.0
 30
0.0
 40
0.8
  0
CIRCLE
  5
22E
330
1E
100
AcDbEntity
  8
1
  6
Continuous
 62
     7
100
AcDbCircle
 10
882.5000000000001
 20
409.0
 30
0.0
 40
0.8
  0
CIRCLE
  5
22F
330
1E
100
AcDbEntity
  8
1
  6
Continuous
 62
     7
100
AcDbCircle
 10
882.5000000000001
 20
414.0
 30
0.0
 40
0.8
  0
CIRCLE
  5
230
330
1E
100
AcDbEntity
  8
1
  6
Continuous
 62
     7
100
AcDbCircle
 10
882.5000000000001
 20
419.0
 30
0.0
 40
0.8
  0
CIRCLE
  5
231
330
1E
100
AcDbEntity
  8
1
  6
Continuous
 62
     7
100
AcDbCircle
 10
902.5
 20
419.0
 30
0.0
 40
0.8
  0
CIRCLE
  5
232
330
1E
100
AcDbEntity
  8
1
  6
Continuous
 62
     7
100
AcDbCircle
 10
897.4999999999999
 20
419.0
 30
0.0
 40
0.8
  0
CIRCLE
  5
233
330
1E
100
AcDbEntity
  8
1
  6
Continuous
 62
     7
100
AcDbCircle
 10
892.5
 20
419.0
 30
0.0
 40
0.8
  0
CIRCLE
  5
234
330
1E
100
AcDbEntity
  8
1
  6
Continuous
 62
     7
100
AcDbCircle
 10
887.5
 20
419.0
 30
0.0
 40
0.8
  0
CIRCLE
  5
235
330
1E
100
AcDbEntity
  8
1
  6
Continuous
 62
     7
100
AcDbCircle
 10
902.5
 20
414.0
 30
0.0
 40
0.8
  0
CIRCLE
  5
236
330
1E
100
AcDbEntity
  8
1
  6
Continuous
 62
     7
100
AcDbCircle
 10
897.4999999999999
 20
414.0
 30
0.0
 40
0.8
  0
CIRCLE
  5
237
330
1E
100
AcDbEntity
  8
1
  6
Continuous
 62
     7
100
AcDbCircle
 10
892.5
 20
414.0
 30
0.0
 40
0.8
  0
CIRCLE
  5
238
330
1E
100
AcDbEntity
  8
1
  6
Continuous
 62
     7
100
AcDbCircle
 10
887.5
 20
414.0
 30
0.0
 40
0.8
  0
CIRCLE
  5
239
330
1E
100
AcDbEntity
  8
1
  6
Continuous
 62
     7
100
AcDbCircle
 10
902.5
 20
409.0
 30
0.0
 40
0.8
  0
CIRCLE
  5
23A
330
1E
100
AcDbEntity
  8
1
  6
Continuous
 62
     7
100
AcDbCircle
 10
897.4999999999999
 20
409.0
 30
0.0
 40
0.8
  0
CIRCLE
  5
23B
330
1E
100
AcDbEntity
  8
1
  6
Continuous
 62
     7
100
AcDbCircle
 10
892.5
 20
409.0
 30
0.0
 40
0.8
  0
CIRCLE
  5
23C
330
1E
100
AcDbEntity
  8
1
  6
Continuous
 62
     7
100
AcDbCircle
 10
887.5
 20
409.0
 30
0.0
 40
0.8
  0
CIRCLE
  5
23D
330
1E
100
AcDbEntity
  8
1
  6
Continuous
 62
     7
100
AcDbCircle
 10
902.5
 20
404.0
 30
0.0
 40
0.8
  0
CIRCLE
  5
23E
330
1E
100
AcDbEntity
  8
1
  6
Continuous
 62
     7
100
AcDbCircle
 10
897.4999999999999
 20
404.0
 30
0.0
 40
0.8
  0
CIRCLE
  5
23F
330
1E
100
AcDbEntity
  8
1
  6
Continuous
 62
     7
100
AcDbCircle
 10
892.5
 20
404.0
 30
0.0
 40
0.8
  0
CIRCLE
  5
240
330
1E
100
AcDbEntity
  8
1
  6
Continuous
 62
     7
100
AcDbCircle
 10
887.5
 20
404.0
 30
0.0
 40
0.8
  0
CIRCLE
  5
241
330
1E
100
AcDbEntity
  8
1
  6
Continuous
 62
     7
100
AcDbCircle
 10
902.5
 20
399.0
 30
0.0
 40
0.8
  0
CIRCLE
  5
242
330
1E
100
AcDbEntity
  8
1
  6
Continuous
 62
     7
100
AcDbCircle
 10
897.4999999999999
 20
399.0
 30
0.0
 40
0.8
  0
CIRCLE
  5
243
330
1E
100
AcDbEntity
  8
1
  6
Continuous
 62
     7
100
AcDbCircle
 10
892.5
 20
399.0
 30
0.0
 40
0.8
  0
CIRCLE
  5
244
330
1E
100
AcDbEntity
  8
1
  6
Continuous
 62
     7
100
AcDbCircle
 10
887.5
 20
399.0
 30
0.0
 40
0.8
  0
CIRCLE
  5
245
330
1E
100
AcDbEntity
  8
1
  6
Continuous
 62
     7
100
AcDbCircle
 10
907.5000000000001
 20
404.0
 30
0.0
 40
0.8
  0
CIRCLE
  5
246
330
1E
100
AcDbEntity
  8
1
  6
Continuous
 62
     7
100
AcDbCircle
 10
907.5000000000001
 20
409.0
 30
0.0
 40
0.8
  0
CIRCLE
  5
247
330
1E
100
AcDbEntity
  8
1
  6
Continuous
 62
     7
100
AcDbCircle
 10
907.5000000000001
 20
414.0
 30
0.0
 40
0.8
  0
CIRCLE
  5
248
330
1E
100
AcDbEntity
  8
1
  6
Continuous
 62
     7
100
AcDbCircle
 10
907.5000000000001
 20
419.0
 30
0.0
 40
0.8
  0
LINE
  5
249
330
1E
100
AcDbEntity
  8
1
  6
Continuous
 62
     7
100
AcDbLine
 10
721.25
 20
496.25
 30
0.0
 11
958.75
 21
496.25
 31
0.0
  0
LINE
  5
24A
330
1E
100
AcDbEntity
  8
1
  6
Continuous
 62
     7
100
AcDbLine
 10
876.1000000000001
 20
413.4999999999999
 30
0.0
 11
876.1000000000001
 21
409.4999999999999
 31
0.0
  0
LINE
  5
24B
330
1E
100
AcDbEntity
  8
1
  6
Continuous
 62
     7
100
AcDbLine
 10
876.1000000000001
 20
409.4999999999999
 30
0.0
 11
877.5
 21
409.4999999999999
 31
0.0
  0
LINE
  5
24C
330
1E
100
AcDbEntity
  8
1
  6
Continuous
 62
     7
100
AcDbLine
 10
877.5
 20
409.4999999999999
 30
0.0
 11
877.5
 21
413.4999999999999
 31
0.0
  0
LINE
  5
24D
330
1E
100
AcDbEntity
  8
1
  6
Continuous
 62
     7
100
AcDbLine
 10
877.5
 20
413.4999999999999
 30
0.0
 11
876.1000000000001
 21
413.4999999999999
 31
0.0
  0
LINE
  5
24E
330
1E
100
AcDbEntity
  8
1
  6
Continuous
 62
     7
100
AcDbLine
 10
913.8999999999999
 20
413.4999999999999
 30
0.0
 11
913.8999999999999
 21
409.4999999999999
 31
0.0
  0
LINE
  5
24F
330
1E
100
AcDbEntity
  8
1
  6
Continuous
 62
     7
100
AcDbLine
 10
913.8999999999999
 20
409.4999999999999
 30
0.0
 11
912.5
 21
409.4999999999999
 31
0.0
  0
LINE
  5
250
330
1E
100
AcDbEntity
  8
1
  6
Continuous
 62
     7
100
AcDbLine
 10
912.5
 20
409.4999999999999
 30
0.0
 11
912.5
 21
413.4999999999999
 31
0.0
  0
LINE
  5
251
330
1E
100
AcDbEntity
  8
1
  6
Continuous
 62
     7
100
AcDbLine
 10
912.5
 20
413.4999999999999
 30
0.0
 11
913.8999999999999
 21
413.4999999999999
 31
0.0
  0
LINE
  5
252
330
1E
100
AcDbEntity
  8
1
  6
Continuous
 62
     7
100
AcDbLine
 10
893.0
 20
392.6
 30
0.0
 11
897.0
 21
392.6
 31
0.0
  0
LINE
  5
253
330
1E
100
AcDbEntity
  8
1
  6
Continuous
 62
     7
100
AcDbLine
 10
897.0
 20
392.6
 30
0.0
 11
897.0
 21
394.0
 31
0.0
  0
LINE
  5
254
330
1E
100
AcDbEntity
  8
1
  6
Continuous
 62
     7
100
AcDbLine
 10
897.0
 20
394.0
 30
0.0
 11
893.0
 21
394.0
 31
0.0
  0
LINE
  5
255
330
1E
100
AcDbEntity
  8
1
  6
Continuous
 62
     7
100
AcDbLine
 10
893.0
 20
394.0
 30
0.0
 11
893.0
 21
392.6
 31
0.0
  0
CIRCLE
  5
256
330
1E
100
AcDbEntity
  8
1
  6
Continuous
 62
     7
100
AcDbCircle
 10
783.6
 20
424.0
 30
0.0
 40
0.8
  0
CIRCLE
  5
257
330
1E
100
AcDbEntity
  8
1
  6
Continuous
 62
     7
100
AcDbCircle
 10
778.6
 20
424.0
 30
0.0
 40
0.8
  0
CIRCLE
  5
258
330
1E
100
AcDbEntity
  8
1
  6
Continuous
 62
     7
100
AcDbCircle
 10
773.6
 20
424.0
 30
0.0
 40
0.8
  0
CIRCLE
  5
259
330
1E
100
AcDbEntity
  8
1
  6
Continuous
 62
     7
100
AcDbCircle
 10
768.6
 20
424.0
 30
0.0
 40
0.8
  0
CIRCLE
  5
25A
330
1E
100
AcDbEntity
  8
1
  6
Continuous
 62
     7
100
AcDbCircle
 10
763.6
 20
404.0
 30
0.0
 40
0.8
  0
CIRCLE
  5
25B
330
1E
100
AcDbEntity
  8
1
  6
Continuous
 62
     7
100
AcDbCircle
 10
763.6
 20
409.0
 30
0.0
 40
0.8
  0
CIRCLE
  5
25C
330
1E
100
AcDbEntity
  8
1
  6
Continuous
 62
     7
100
AcDbCircle
 10
763.6
 20
414.0
 30
0.0
 40
0.8
  0
CIRCLE
  5
25D
330
1E
100
AcDbEntity
  8
1
  6
Continuous
 62
     7
100
AcDbCircle
 10
763.6
 20
419.0
 30
0.0
 40
0.8
  0
CIRCLE
  5
25E
330
1E
100
AcDbEntity
  8
1
  6
Continuous
 62
     7
100
AcDbCircle
 10
783.6
 20
419.0
 30
0.0
 40
0.8
  0
CIRCLE
  5
25F
330
1E
100
AcDbEntity
  8
1
  6
Continuous
 62
     7
100
AcDbCircle
 10
778.6
 20
419.0
 30
0.0
 40
0.8
  0
CIRCLE
  5
260
330
1E
100
AcDbEntity
  8
1
  6
Continuous
 62
     7
100
AcDbCircle
 10
773.6
 20
419.0
 30
0.0
 40
0.8
  0
CIRCLE
  5
261
330
1E
100
AcDbEntity
  8
1
  6
Continuous
 62
     7
100
AcDbCircle
 10
768.6
 20
419.0
 30
0.0
 40
0.8
  0
CIRCLE
  5
262
330
1E
100
AcDbEntity
  8
1
  6
Continuous
 62
     7
100
AcDbCircle
 10
783.6
 20
414.0
 30
0.0
 40
0.8
  0
CIRCLE
  5
263
330
1E
100
AcDbEntity
  8
1
  6
Continuous
 62
     7
100
AcDbCircle
 10
778.6
 20
414.0
 30
0.0
 40
0.8
  0
CIRCLE
  5
264
330
1E
100
AcDbEntity
  8
1
  6
Continuous
 62
     7
100
AcDbCircle
 10
773.6
 20
414.0
 30
0.0
 40
0.8
  0
CIRCLE
  5
265
330
1E
100
AcDbEntity
  8
1
  6
Continuous
 62
     7
100
AcDbCircle
 10
768.6
 20
414.0
 30
0.0
 40
0.8
  0
CIRCLE
  5
266
330
1E
100
AcDbEntity
  8
1
  6
Continuous
 62
     7
100
AcDbCircle
 10
783.6
 20
409.0
 30
0.0
 40
0.8
  0
CIRCLE
  5
267
330
1E
100
AcDbEntity
  8
1
  6
Continuous
 62
     7
100
AcDbCircle
 10
778.6
 20
409.0
 30
0.0
 40
0.8
  0
CIRCLE
  5
268
330
1E
100
AcDbEntity
  8
1
  6
Continuous
 62
     7
100
AcDbCircle
 10
773.6
 20
409.0
 30
0.0
 40
0.8
  0
CIRCLE
  5
269
330
1E
100
AcDbEntity
  8
1
  6
Continuous
 62
     7
100
AcDbCircle
 10
768.6
 20
409.0
 30
0.0
 40
0.8
  0
CIRCLE
  5
26A
330
1E
100
AcDbEntity
  8
1
  6
Continuous
 62
     7
100
AcDbCircle
 10
783.6
 20
404.0
 30
0.0
 40
0.8
  0
CIRCLE
  5
26B
330
1E
100
AcDbEntity
  8
1
  6
Continuous
 62
     7
100
AcDbCircle
 10
778.6
 20
404.0
 30
0.0
 40
0.8
  0
CIRCLE
  5
26C
330
1E
100
AcDbEntity
  8
1
  6
Continuous
 62
     7
100
AcDbCircle
 10
773.6
 20
404.0
 30
0.0
 40
0.8
  0
CIRCLE
  5
26D
330
1E
100
AcDbEntity
  8
1
  6
Continuous
 62
     7
100
AcDbCircle
 10
768.6
 20
404.0
 30
0.0
 40
0.8
  0
CIRCLE
  5
26E
330
1E
100
AcDbEntity
  8
1
  6
Continuous
 62
     7
100
AcDbCircle
 10
783.6
 20
399.0
 30
0.0
 40
0.8
  0
CIRCLE
  5
26F
330
1E
100
AcDbEntity
  8
1
  6
Continuous
 62
     7
100
AcDbCircle
 10
778.6
 20
399.0
 30
0.0
 40
0.8
  0
CIRCLE
  5
270
330
1E
100
AcDbEntity
  8
1
  6
Continuous
 62
     7
100
AcDbCircle
 10
773.6
 20
399.0
 30
0.0
 40
0.8
  0
CIRCLE
  5
271
330
1E
100
AcDbEntity
  8
1
  6
Continuous
 62
     7
100
AcDbCircle
 10
768.6
 20
399.0
 30
0.0
 40
0.8
  0
CIRCLE
  5
272
330
1E
100
AcDbEntity
  8
1
  6
Continuous
 62
     7
100
AcDbCircle
 10
788.6
 20
404.0
 30
0.0
 40
0.8
  0
CIRCLE
  5
273
330
1E
100
AcDbEntity
  8
1
  6
Continuous
 62
     7
100
AcDbCircle
 10
788.6
 20
409.0
 30
0.0
 40
0.8
  0
CIRCLE
  5
274
330
1E
100
AcDbEntity
  8
1
  6
Continuous
 62
     7
100
AcDbCircle
 10
788.6
 20
414.0
 30
0.0
 40
0.8
  0
CIRCLE
  5
275
330
1E
100
AcDbEntity
  8
1
  6
Continuous
 62
     7
100
AcDbCircle
 10
788.6
 20
419.0
 30
0.0
 40
0.8
  0
LINE
  5
276
330
1E
100
AcDbEntity
  8
1
  6
Continuous
 62
     7
100
AcDbLine
 10
757.2
 20
413.4999999999999
 30
0.0
 11
757.2
 21
409.4999999999999
 31
0.0
  0
LINE
  5
277
330
1E
100
AcDbEntity
  8
1
  6
Continuous
 62
     7
100
AcDbLine
 10
757.2
 20
409.4999999999999
 30
0.0
 11
758.6
 21
409.4999999999999
 31
0.0
  0
LINE
  5
278
330
1E
100
AcDbEntity
  8
1
  6
Continuous
 62
     7
100
AcDbLine
 10
758.6
 20
409.4999999999999
 30
0.0
 11
758.6
 21
413.4999999999999
 31
0.0
  0
LINE
  5
279
330
1E
100
AcDbEntity
  8
1
  6
Continuous
 62
     7
100
AcDbLine
 10
758.6
 20
413.4999999999999
 30
0.0
 11
757.2
 21
413.4999999999999
 31
0.0
  0
LINE
  5
27A
330
1E
100
AcDbEntity
  8
1
  6
Continuous
 62
     7
100
AcDbLine
 10
795.0
 20
413.4999999999999
 30
0.0
 11
795.0
 21
409.4999999999999
 31
0.0
  0
LINE
  5
27B
330
1E
100
AcDbEntity
  8
1
  6
Continuous
 62
     7
100
AcDbLine
 10
795.0
 20
409.4999999999999
 30
0.0
 11
793.6
 21
409.4999999999999
 31
0.0
  0
LINE
  5
27C
330
1E
100
AcDbEntity
  8
1
  6
Continuous
 62
     7
100
AcDbLine
 10
793.6
 20
409.4999999999999
 30
0.0
 11
793.6
 21
413.4999999999999
 31
0.0
  0
LINE
  5
27D
330
1E
100
AcDbEntity
  8
1
  6
Continuous
 62
     7
100
AcDbLine
 10
793.6
 20
413.4999999999999
 30
0.0
 11
795.0
 21
413.4999999999999
 31
0.0
  0
LINE
  5
27E
330
1E
100
AcDbEntity
  8
1
  6
Continuous
 62
     7
100
AcDbLine
 10
774.1
 20
392.6
 30
0.0
 11
778.1
 21
392.6
 31
0.0
  0
LINE
  5
27F
330
1E
100
AcDbEntity
  8
1
  6
Continuous
 62
     7
100
AcDbLine
 10
778.1
 20
392.6
 30
0.0
 11
778.1
 21
394.0
 31
0.0
  0
LINE
  5
280
330
1E
100
AcDbEntity
  8
1
  6
Continuous
 62
     7
100
AcDbLine
 10
778.1
 20
394.0
 30
0.0
 11
774.1
 21
394.0
 31
0.0
  0
LINE
  5
281
330
1E
100
AcDbEntity
  8
1
  6
Continuous
 62
     7
100
AcDbLine
 10
774.1
 20
394.0
 30
0.0
 11
774.1
 21
392.6
 31
0.0
  0
LINE
  5
282
330
1E
100
AcDbEntity
  8
1
  6
Continuous
 62
     7
100
AcDbLine
 10
885.0
 20
370.1249999999999
 30
0.0
 11
885.0
 21
368.3749999999999
 31
0.0
  0
LINE
  5
283
330
1E
100
AcDbEntity
  8
1
  6
Continuous
 62
     7
100
AcDbLine
 10
885.0
 20
368.3749999999999
 30
0.0
 11
925.0
 21
368.3749999999999
 31
0.0
  0
LINE
  5
284
330
1E
100
AcDbEntity
  8
1
  6
Continuous
 62
     7
100
AcDbLine
 10
925.0
 20
368.3749999999999
 30
0.0
 11
925.0
 21
370.1249999999999
 31
0.0
  0
LINE
  5
285
330
1E
100
AcDbEntity
  8
1
  6
Continuous
 62
     7
100
AcDbLine
 10
925.0
 20
370.1249999999999
 30
0.0
 11
885.0
 21
370.1249999999999
 31
0.0
  0
LINE
  5
286
330
1E
100
AcDbEntity
  8
1
  6
Continuous
 62
     7
100
AcDbLine
 10
885.0
 20
373.625
 30
0.0
 11
885.0
 21
371.875
 31
0.0
  0
LINE
  5
287
330
1E
100
AcDbEntity
  8
1
  6
Continuous
 62
     7
100
AcDbLine
 10
885.0
 20
371.875
 30
0.0
 11
925.0
 21
371.875
 31
0.0
  0
LINE
  5
288
330
1E
100
AcDbEntity
  8
1
  6
Continuous
 62
     7
100
AcDbLine
 10
925.0
 20
371.875
 30
0.0
 11
925.0
 21
373.625
 31
0.0
  0
LINE
  5
289
330
1E
100
AcDbEntity
  8
1
  6
Continuous
 62
     7
100
AcDbLine
 10
925.0
 20
373.625
 30
0.0
 11
885.0
 21
373.625
 31
0.0
  0
LINE
  5
28A
330
1E
100
AcDbEntity
  8
1
  6
Continuous
 62
     7
100
AcDbLine
 10
885.0
 20
363.125
 30
0.0
 11
885.0
 21
361.375
 31
0.0
  0
LINE
  5
28B
330
1E
100
AcDbEntity
  8
1
  6
Continuous
 62
     7
100
AcDbLine
 10
885.0
 20
361.375
 30
0.0
 11
925.0
 21
361.375
 31
0.0
  0
LINE
  5
28C
330
1E
100
AcDbEntity
  8
1
  6
Continuous
 62
     7
100
AcDbLine
 10
925.0
 20
361.375
 30
0.0
 11
925.0
 21
363.125
 31
0.0
  0
LINE
  5
28D
330
1E
100
AcDbEntity
  8
1
  6
Continuous
 62
     7
100
AcDbLine
 10
925.0
 20
363.125
 30
0.0
 11
885.0
 21
363.125
 31
0.0
  0
LINE
  5
28E
330
1E
100
AcDbEntity
  8
1
  6
Continuous
 62
     7
100
AcDbLine
 10
885.0
 20
366.625
 30
0.0
 11
885.0
 21
364.875
 31
0.0
  0
LINE
  5
28F
330
1E
100
AcDbEntity
  8
1
  6
Continuous
 62
     7
100
AcDbLine
 10
885.0
 20
364.875
 30
0.0
 11
925.0
 21
364.875
 31
0.0
  0
LINE
  5
290
330
1E
100
AcDbEntity
  8
1
  6
Continuous
 62
     7
100
AcDbLine
 10
925.0
 20
364.875
 30
0.0
 11
925.0
 21
366.625
 31
0.0
  0
LINE
  5
291
330
1E
100
AcDbEntity
  8
1
  6
Continuous
 62
     7
100
AcDbLine
 10
925.0
 20
366.625
 30
0.0
 11
885.0
 21
366.625
 31
0.0
  0
LINE
  5
292
330
1E
100
AcDbEntity
  8
1
  6
Continuous
 62
     7
100
AcDbLine
 10
885.0
 20
356.125
 30
0.0
 11
885.0
 21
354.375
 31
0.0
  0
LINE
  5
293
330
1E
100
AcDbEntity
  8
1
  6
Continuous
 62
     7
100
AcDbLine
 10
885.0
 20
354.375
 30
0.0
 11
925.0
 21
354.375
 31
0.0
  0
LINE
  5
294
330
1E
100
AcDbEntity
  8
1
  6
Continuous
 62
     7
100
AcDbLine
 10
925.0
 20
354.375
 30
0.0
 11
925.0
 21
356.125
 31
0.0
  0
LINE
  5
295
330
1E
100
AcDbEntity
  8
1
  6
Continuous
 62
     7
100
AcDbLine
 10
925.0
 20
356.125
 30
0.0
 11
885.0
 21
356.125
 31
0.0
  0
LINE
  5
296
330
1E
100
AcDbEntity
  8
1
  6
Continuous
 62
     7
100
AcDbLine
 10
885.0
 20
359.6249999999999
 30
0.0
 11
885.0
 21
357.8749999999999
 31
0.0
  0
LINE
  5
297
330
1E
100
AcDbEntity
  8
1
  6
Continuous
 62
     7
100
AcDbLine
 10
885.0
 20
357.8749999999999
 30
0.0
 11
925.0
 21
357.8749999999999
 31
0.0
  0
LINE
  5
298
330
1E
100
AcDbEntity
  8
1
  6
Continuous
 62
     7
100
AcDbLine
 10
925.0
 20
357.8749999999999
 30
0.0
 11
925.0
 21
359.6249999999999
 31
0.0
  0
LINE
  5
299
330
1E
100
AcDbEntity
  8
1
  6
Continuous
 62
     7
100
AcDbLine
 10
925.0
 20
359.6249999999999
 30
0.0
 11
885.0
 21
359.6249999999999
 31
0.0
  0
LINE
  5
29A
330
1E
100
AcDbEntity
  8
1
  6
Continuous
 62
     7
100
AcDbLine
 10
885.0
 20
349.1249999999999
 30
0.0
 11
885.0
 21
347.3749999999999
 31
0.0
  0
LINE
  5
29B
330
1E
100
AcDbEntity
  8
1
  6
Continuous
 62
     7
100
AcDbLine
 10
885.0
 20
347.3749999999999
 30
0.0
 11
925.0
 21
347.3749999999999
 31
0.0
  0
LINE
  5
29C
330
1E
100
AcDbEntity
  8
1
  6
Continuous
 62
     7
100
AcDbLine
 10
925.0
 20
347.3749999999999
 30
0.0
 11
925.0
 21
349.1249999999999
 31
0.0
  0
LINE
  5
29D
330
1E
100
AcDbEntity
  8
1
  6
Continuous
 62
     7
100
AcDbLine
 10
925.0
 20
349.1249999999999
 30
0.0
 11
885.0
 21
349.1249999999999
 31
0.0
  0
LINE
  5
29E
330
1E
100
AcDbEntity
  8
1
  6
Continuous
 62
     7
100
AcDbLine
 10
885.0
 20
352.625
 30
0.0
 11
885.0
 21
350.875
 31
0.0
  0
LINE
  5
29F
330
1E
100
AcDbEntity
  8
1
  6
Continuous
 62
     7
100
AcDbLine
 10
885.0
 20
350.875
 30
0.0
 11
925.0
 21
350.875
 31
0.0
  0
LINE
  5
2A0
330
1E
100
AcDbEntity
  8
1
  6
Continuous
 62
     7
100
AcDbLine
 10
925.0
 20
350.875
 30
0.0
 11
925.0
 21
352.625
 31
0.0
  0
LINE
  5
2A1
330
1E
100
AcDbEntity
  8
1
  6
Continuous
 62
     7
100
AcDbLine
 10
925.0
 20
352.625
 30
0.0
 11
885.0
 21
352.625
 31
0.0
  0
LINE
  5
2A2
330
1E
100
AcDbEntity
  8
1
  6
Continuous
 62
     7
100
AcDbLine
 10
885.0
 20
342.125
 30
0.0
 11
885.0
 21
340.375
 31
0.0
  0
LINE
  5
2A3
330
1E
100
AcDbEntity
  8
1
  6
Continuous
 62
     7
100
AcDbLine
 10
885.0
 20
340.375
 30
0.0
 11
925.0
 21
340.375
 31
0.0
  0
LINE
  5
2A4
330
1E
100
AcDbEntity
  8
1
  6
Continuous
 62
     7
100
AcDbLine
 10
925.0
 20
340.375
 30
0.0
 11
925.0
 21
342.125
 31
0.0
  0
LINE
  5
2A5
330
1E
100
AcDbEntity
  8
1
  6
Continuous
 62
     7
100
AcDbLine
 10
925.0
 20
342.125
 30
0.0
 11
885.0
 21
342.125
 31
0.0
  0
LINE
  5
2A6
330
1E
100
AcDbEntity
  8
1
  6
Continuous
 62
     7
100
AcDbLine
 10
885.0
 20
345.625
 30
0.0
 11
885.0
 21
343.875
 31
0.0
  0
LINE
  5
2A7
330
1E
100
AcDbEntity
  8
1
  6
Continuous
 62
     7
100
AcDbLine
 10
885.0
 20
343.875
 30
0.0
 11
925.0
 21
343.875
 31
0.0
  0
LINE
  5
2A8
330
1E
100
AcDbEntity
  8
1
  6
Continuous
 62
     7
100
AcDbLine
 10
925.0
 20
343.875
 30
0.0
 11
925.0
 21
345.625
 31
0.0
  0
LINE
  5
2A9
330
1E
100
AcDbEntity
  8
1
  6
Continuous
 62
     7
100
AcDbLine
 10
925.0
 20
345.625
 30
0.0
 11
885.0
 21
345.625
 31
0.0
  0
LINE
  5
2AA
330
1E
100
AcDbEntity
  8
1
  6
Continuous
 62
     7
100
AcDbLine
 10
885.0
 20
335.125
 30
0.0
 11
885.0
 21
333.375
 31
0.0
  0
LINE
  5
2AB
330
1E
100
AcDbEntity
  8
1
  6
Continuous
 62
     7
100
AcDbLine
 10
885.0
 20
333.375
 30
0.0
 11
925.0
 21
333.375
 31
0.0
  0
LINE
  5
2AC
330
1E
100
AcDbEntity
  8
1
  6
Continuous
 62
     7
100
AcDbLine
 10
925.0
 20
333.375
 30
0.0
 11
925.0
 21
335.125
 31
0.0
  0
LINE
  5
2AD
330
1E
100
AcDbEntity
  8
1
  6
Continuous
 62
     7
100
AcDbLine
 10
925.0
 20
335.125
 30
0.0
 11
885.0
 21
335.125
 31
0.0
  0
LINE
  5
2AE
330
1E
100
AcDbEntity
  8
1
  6
Continuous
 62
     7
100
AcDbLine
 10
885.0
 20
338.6249999999999
 30
0.0
 11
885.0
 21
336.8749999999999
 31
0.0
  0
LINE
  5
2AF
330
1E
100
AcDbEntity
  8
1
  6
Continuous
 62
     7
100
AcDbLine
 10
885.0
 20
336.8749999999999
 30
0.0
 11
925.0
 21
336.8749999999999
 31
0.0
  0
LINE
  5
2B0
330
1E
100
AcDbEntity
  8
1
  6
Continuous
 62
     7
100
AcDbLine
 10
925.0
 20
336.8749999999999
 30
0.0
 11
925.0
 21
338.6249999999999
 31
0.0
  0
LINE
  5
2B1
330
1E
100
AcDbEntity
  8
1
  6
Continuous
 62
     7
100
AcDbLine
 10
925.0
 20
338.6249999999999
 30
0.0
 11
885.0
 21
338.6249999999999
 31
0.0
  0
LINE
  5
2B2
330
1E
100
AcDbEntity
  8
1
  6
Continuous
 62
     7
100
AcDbLine
 10
885.0
 20
328.125
 30
0.0
 11
885.0
 21
326.3749999999999
 31
0.0
  0
LINE
  5
2B3
330
1E
100
AcDbEntity
  8
1
  6
Continuous
 62
     7
100
AcDbLine
 10
885.0
 20
326.3749999999999
 30
0.0
 11
925.0
 21
326.3749999999999
 31
0.0
  0
LINE
  5
2B4
330
1E
100
AcDbEntity
  8
1
  6
Continuous
 62
     7
100
AcDbLine
 10
925.0
 20
326.3749999999999
 30
0.0
 11
925.0
 21
328.125
 31
0.0
  0
LINE
  5
2B5
330
1E
100
AcDbEntity
  8
1
  6
Continuous
 62
     7
100
AcDbLine
 10
925.0
 20
328.125
 30
0.0
 11
885.0
 21
328.125
 31
0.0
  0
LINE
  5
2B6
330
1E
100
AcDbEntity
  8
1
  6
Continuous
 62
     7
100
AcDbLine
 10
885.0
 20
331.625
 30
0.0
 11
885.0
 21
329.875
 31
0.0
  0
LINE
  5
2B7
330
1E
100
AcDbEntity
  8
1
  6
Continuous
 62
     7
100
AcDbLine
 10
885.0
 20
329.875
 30
0.0
 11
925.0
 21
329.875
 31
0.0
  0
LINE
  5
2B8
330
1E
100
AcDbEntity
  8
1
  6
Continuous
 62
     7
100
AcDbLine
 10
925.0
 20
329.875
 30
0.0
 11
925.0
 21
331.625
 31
0.0
  0
LINE
  5
2B9
330
1E
100
AcDbEntity
  8
1
  6
Continuous
 62
     7
100
AcDbLine
 10
925.0
 20
331.625
 30
0.0
 11
885.0
 21
331.625
 31
0.0
  0
LINE
  5
2BA
330
1E
100
AcDbEntity
  8
1
  6
Continuous
 62
     7
100
AcDbLine
 10
755.0
 20
370.1249999999999
 30
0.0
 11
755.0
 21
368.3749999999999
 31
0.0
  0
LINE
  5
2BB
330
1E
100
AcDbEntity
  8
1
  6
Continuous
 62
     7
100
AcDbLine
 10
755.0
 20
368.3749999999999
 30
0.0
 11
795.0
 21
368.3749999999999
 31
0.0
  0
LINE
  5
2BC
330
1E
100
AcDbEntity
  8
1
  6
Continuous
 62
     7
100
AcDbLine
 10
795.0
 20
368.3749999999999
 30
0.0
 11
795.0
 21
370.1249999999999
 31
0.0
  0
LINE
  5
2BD
330
1E
100
AcDbEntity
  8
1
  6
Continuous
 62
     7
100
AcDbLine
 10
795.0
 20
370.1249999999999
 30
0.0
 11
755.0
 21
370.1249999999999
 31
0.0
  0
LINE
  5
2BE
330
1E
100
AcDbEntity
  8
1
  6
Continuous
 62
     7
100
AcDbLine
 10
755.0
 20
373.625
 30
0.0
 11
755.0
 21
371.875
 31
0.0
  0
LINE
  5
2BF
330
1E
100
AcDbEntity
  8
1
  6
Continuous
 62
     7
100
AcDbLine
 10
755.0
 20
371.875
 30
0.0
 11
795.0
 21
371.875
 31
0.0
  0
LINE
  5
2C0
330
1E
100
AcDbEntity
  8
1
  6
Continuous
 62
     7
100
AcDbLine
 10
795.0
 20
371.875
 30
0.0
 11
795.0
 21
373.625
 31
0.0
  0
LINE
  5
2C1
330
1E
100
AcDbEntity
  8
1
  6
Continuous
 62
     7
100
AcDbLine
 10
795.0
 20
373.625
 30
0.0
 11
755.0
 21
373.625
 31
0.0
  0
LINE
  5
2C2
330
1E
100
AcDbEntity
  8
1
  6
Continuous
 62
     7
100
AcDbLine
 10
755.0
 20
363.125
 30
0.0
 11
755.0
 21
361.375
 31
0.0
  0
LINE
  5
2C3
330
1E
100
AcDbEntity
  8
1
  6
Continuous
 62
     7
100
AcDbLine
 10
755.0
 20
361.375
 30
0.0
 11
795.0
 21
361.375
 31
0.0
  0
LINE
  5
2C4
330
1E
100
AcDbEntity
  8
1
  6
Continuous
 62
     7
100
AcDbLine
 10
795.0
 20
361.375
 30
0.0
 11
795.0
 21
363.125
 31
0.0
  0
LINE
  5
2C5
330
1E
100
AcDbEntity
  8
1
  6
Continuous
 62
     7
100
AcDbLine
 10
795.0
 20
363.125
 30
0.0
 11
755.0
 21
363.125
 31
0.0
  0
LINE
  5
2C6
330
1E
100
AcDbEntity
  8
1
  6
Continuous
 62
     7
100
AcDbLine
 10
755.0
 20
366.625
 30
0.0
 11
755.0
 21
364.875
 31
0.0
  0
LINE
  5
2C7
330
1E
100
AcDbEntity
  8
1
  6
Continuous
 62
     7
100
AcDbLine
 10
755.0
 20
364.875
 30
0.0
 11
795.0
 21
364.875
 31
0.0
  0
LINE
  5
2C8
330
1E
100
AcDbEntity
  8
1
  6
Continuous
 62
     7
100
AcDbLine
 10
795.0
 20
364.875
 30
0.0
 11
795.0
 21
366.625
 31
0.0
  0
LINE
  5
2C9
330
1E
100
AcDbEntity
  8
1
  6
Continuous
 62
     7
100
AcDbLine
 10
795.0
 20
366.625
 30
0.0
 11
755.0
 21
366.625
 31
0.0
  0
LINE
  5
2CA
330
1E
100
AcDbEntity
  8
1
  6
Continuous
 62
     7
100
AcDbLine
 10
755.0
 20
356.125
 30
0.0
 11
755.0
 21
354.375
 31
0.0
  0
LINE
  5
2CB
330
1E
100
AcDbEntity
  8
1
  6
Continuous
 62
     7
100
AcDbLine
 10
755.0
 20
354.375
 30
0.0
 11
795.0
 21
354.375
 31
0.0
  0
LINE
  5
2CC
330
1E
100
AcDbEntity
  8
1
  6
Continuous
 62
     7
100
AcDbLine
 10
795.0
 20
354.375
 30
0.0
 11
795.0
 21
356.125
 31
0.0
  0
LINE
  5
2CD
330
1E
100
AcDbEntity
  8
1
  6
Continuous
 62
     7
100
AcDbLine
 10
795.0
 20
356.125
 30
0.0
 11
755.0
 21
356.125
 31
0.0
  0
LINE
  5
2CE
330
1E
100
AcDbEntity
  8
1
  6
Continuous
 62
     7
100
AcDbLine
 10
755.0
 20
359.6249999999999
 30
0.0
 11
755.0
 21
357.8749999999999
 31
0.0
  0
LINE
  5
2CF
330
1E
100
AcDbEntity
  8
1
  6
Continuous
 62
     7
100
AcDbLine
 10
755.0
 20
357.8749999999999
 30
0.0
 11
795.0
 21
357.8749999999999
 31
0.0
  0
LINE
  5
2D0
330
1E
100
AcDbEntity
  8
1
  6
Continuous
 62
     7
100
AcDbLine
 10
795.0
 20
357.8749999999999
 30
0.0
 11
795.0
 21
359.6249999999999
 31
0.0
  0
LINE
  5
2D1
330
1E
100
AcDbEntity
  8
1
  6
Continuous
 62
     7
100
AcDbLine
 10
795.0
 20
359.6249999999999
 30
0.0
 11
755.0
 21
359.6249999999999
 31
0.0
  0
LINE
  5
2D2
330
1E
100
AcDbEntity
  8
1
  6
Continuous
 62
     7
100
AcDbLine
 10
755.0
 20
349.1249999999999
 30
0.0
 11
755.0
 21
347.3749999999999
 31
0.0
  0
LINE
  5
2D3
330
1E
100
AcDbEntity
  8
1
  6
Continuous
 62
     7
100
AcDbLine
 10
755.0
 20
347.3749999999999
 30
0.0
 11
795.0
 21
347.3749999999999
 31
0.0
  0
LINE
  5
2D4
330
1E
100
AcDbEntity
  8
1
  6
Continuous
 62
     7
100
AcDbLine
 10
795.0
 20
347.3749999999999
 30
0.0
 11
795.0
 21
349.1249999999999
 31
0.0
  0
LINE
  5
2D5
330
1E
100
AcDbEntity
  8
1
  6
Continuous
 62
     7
100
AcDbLine
 10
795.0
 20
349.1249999999999
 30
0.0
 11
755.0
 21
349.1249999999999
 31
0.0
  0
LINE
  5
2D6
330
1E
100
AcDbEntity
  8
1
  6
Continuous
 62
     7
100
AcDbLine
 10
755.0
 20
352.625
 30
0.0
 11
755.0
 21
350.875
 31
0.0
  0
LINE
  5
2D7
330
1E
100
AcDbEntity
  8
1
  6
Continuous
 62
     7
100
AcDbLine
 10
755.0
 20
350.875
 30
0.0
 11
795.0
 21
350.875
 31
0.0
  0
LINE
  5
2D8
330
1E
100
AcDbEntity
  8
1
  6
Continuous
 62
     7
100
AcDbLine
 10
795.0
 20
350.875
 30
0.0
 11
795.0
 21
352.625
 31
0.0
  0
LINE
  5
2D9
330
1E
100
AcDbEntity
  8
1
  6
Continuous
 62
     7
100
AcDbLine
 10
795.0
 20
352.625
 30
0.0
 11
755.0
 21
352.625
 31
0.0
  0
CIRCLE
  5
2DA
330
1E
100
AcDbEntity
  8
1
  6
Continuous
 62
     7
100
AcDbCircle
 10
761.0
 20
441.6249999999999
 30
0.0
 40
0.8
  0
CIRCLE
  5
2DB
330
1E
100
AcDbEntity
  8
1
  6
Continuous
 62
     7
100
AcDbCircle
 10
756.0
 20
441.6249999999999
 30
0.0
 40
0.8
  0
CIRCLE
  5
2DC
330
1E
100
AcDbEntity
  8
1
  6
Continuous
 62
     7
100
AcDbCircle
 10
751.0
 20
441.6249999999999
 30
0.0
 40
0.8
  0
CIRCLE
  5
2DD
330
1E
100
AcDbEntity
  8
1
  6
Continuous
 62
     7
100
AcDbCircle
 10
746.0
 20
441.6249999999999
 30
0.0
 40
0.8
  0
CIRCLE
  5
2DE
330
1E
100
AcDbEntity
  8
1
  6
Continuous
 62
     7
100
AcDbCircle
 10
761.0
 20
446.625
 30
0.0
 40
0.8
  0
CIRCLE
  5
2DF
330
1E
100
AcDbEntity
  8
1
  6
Continuous
 62
     7
100
AcDbCircle
 10
756.0
 20
446.625
 30
0.0
 40
0.8
  0
CIRCLE
  5
2E0
330
1E
100
AcDbEntity
  8
1
  6
Continuous
 62
     7
100
AcDbCircle
 10
751.0
 20
446.625
 30
0.0
 40
0.8
  0
CIRCLE
  5
2E1
330
1E
100
AcDbEntity
  8
1
  6
Continuous
 62
     7
100
AcDbCircle
 10
746.0
 20
446.625
 30
0.0
 40
0.8
  0
CIRCLE
  5
2E2
330
1E
100
AcDbEntity
  8
1
  6
Continuous
 62
     7
100
AcDbCircle
 10
761.0
 20
451.625
 30
0.0
 40
0.8
  0
CIRCLE
  5
2E3
330
1E
100
AcDbEntity
  8
1
  6
Continuous
 62
     7
100
AcDbCircle
 10
756.0
 20
451.625
 30
0.0
 40
0.8
  0
CIRCLE
  5
2E4
330
1E
100
AcDbEntity
  8
1
  6
Continuous
 62
     7
100
AcDbCircle
 10
751.0
 20
451.625
 30
0.0
 40
0.8
  0
CIRCLE
  5
2E5
330
1E
100
AcDbEntity
  8
1
  6
Continuous
 62
     7
100
AcDbCircle
 10
746.0
 20
451.625
 30
0.0
 40
0.8
  0
CIRCLE
  5
2E6
330
1E
100
AcDbEntity
  8
1
  6
Continuous
 62
     7
100
AcDbCircle
 10
761.0
 20
456.625
 30
0.0
 40
0.8
  0
CIRCLE
  5
2E7
330
1E
100
AcDbEntity
  8
1
  6
Continuous
 62
     7
100
AcDbCircle
 10
756.0
 20
456.625
 30
0.0
 40
0.8
  0
CIRCLE
  5
2E8
330
1E
100
AcDbEntity
  8
1
  6
Continuous
 62
     7
100
AcDbCircle
 10
751.0
 20
456.625
 30
0.0
 40
0.8
  0
CIRCLE
  5
2E9
330
1E
100
AcDbEntity
  8
1
  6
Continuous
 62
     7
100
AcDbCircle
 10
746.0
 20
456.625
 30
0.0
 40
0.8
  0
CIRCLE
  5
2EA
330
1E
100
AcDbEntity
  8
1
  6
Continuous
 62
     7
100
AcDbCircle
 10
751.0
 20
461.6249999999999
 30
0.0
 40
0.8
  0
CIRCLE
  5
2EB
330
1E
100
AcDbEntity
  8
1
  6
Continuous
 62
     7
100
AcDbCircle
 10
746.0
 20
461.6249999999999
 30
0.0
 40
0.8
  0
CIRCLE
  5
2EC
330
1E
100
AcDbEntity
  8
1
  6
Continuous
 62
     7
100
AcDbCircle
 10
761.0
 20
466.6249999999999
 30
0.0
 40
0.8
  0
CIRCLE
  5
2ED
330
1E
100
AcDbEntity
  8
1
  6
Continuous
 62
     7
100
AcDbCircle
 10
756.0
 20
466.6249999999999
 30
0.0
 40
0.8
  0
CIRCLE
  5
2EE
330
1E
100
AcDbEntity
  8
1
  6
Continuous
 62
     7
100
AcDbCircle
 10
751.0
 20
466.6249999999999
 30
0.0
 40
0.8
  0
CIRCLE
  5
2EF
330
1E
100
AcDbEntity
  8
1
  6
Continuous
 62
     7
100
AcDbCircle
 10
746.0
 20
466.6249999999999
 30
0.0
 40
0.8
  0
CIRCLE
  5
2F0
330
1E
100
AcDbEntity
  8
1
  6
Continuous
 62
     7
100
AcDbCircle
 10
761.0
 20
471.625
 30
0.0
 40
0.8
  0
CIRCLE
  5
2F1
330
1E
100
AcDbEntity
  8
1
  6
Continuous
 62
     7
100
AcDbCircle
 10
756.0
 20
471.625
 30
0.0
 40
0.8
  0
CIRCLE
  5
2F2
330
1E
100
AcDbEntity
  8
1
  6
Continuous
 62
     7
100
AcDbCircle
 10
751.0
 20
471.625
 30
0.0
 40
0.8
  0
CIRCLE
  5
2F3
330
1E
100
AcDbEntity
  8
1
  6
Continuous
 62
     7
100
AcDbCircle
 10
746.0
 20
471.625
 30
0.0
 40
0.8
  0
LINE
  5
2F4
330
1E
100
AcDbEntity
  8
1
  6
Continuous
 62
     7
100
AcDbLine
 10
805.4999999999999
 20
481.875
 30
0.0
 11
809.5
 21
481.875
 31
0.0
  0
LINE
  5
2F5
330
1E
100
AcDbEntity
  8
1
  6
Continuous
 62
     7
100
AcDbLine
 10
809.5
 20
481.875
 30
0.0
 11
809.5
 21
483.2749999999999
 31
0.0
  0
LINE
  5
2F6
330
1E
100
AcDbEntity
  8
1
  6
Continuous
 62
     7
100
AcDbLine
 10
809.5
 20
483.2749999999999
 30
0.0
 11
805.4999999999999
 21
483.2749999999999
 31
0.0
  0
LINE
  5
2F7
330
1E
100
AcDbEntity
  8
1
  6
Continuous
 62
     7
100
AcDbLine
 10
805.4999999999999
 20
483.2749999999999
 30
0.0
 11
805.4999999999999
 21
481.875
 31
0.0
  0
LINE
  5
2F8
330
1E
100
AcDbEntity
  8
1
  6
Continuous
 62
     7
100
AcDbLine
 10
735.6
 20
483.0
 30
0.0
 11
735.6
 21
479.0
 31
0.0
  0
LINE
  5
2F9
330
1E
100
AcDbEntity
  8
1
  6
Continuous
 62
     7
100
AcDbLine
 10
735.6
 20
479.0
 30
0.0
 11
737.0
 21
479.0
 31
0.0
  0
LINE
  5
2FA
330
1E
100
AcDbEntity
  8
1
  6
Continuous
 62
     7
100
AcDbLine
 10
737.0
 20
479.0
 30
0.0
 11
737.0
 21
483.0
 31
0.0
  0
LINE
  5
2FB
330
1E
100
AcDbEntity
  8
1
  6
Continuous
 62
     7
100
AcDbLine
 10
737.0
 20
483.0
 30
0.0
 11
735.6
 21
483.0
 31
0.0
  0
LINE
  5
2FC
330
1E
100
AcDbEntity
  8
1
  6
Continuous
 62
     7
100
AcDbLine
 10
915.0
 20
481.7499999999999
 30
0.0
 11
915.0
 21
444.2499999999999
 31
0.0
  0
LINE
  5
2FD
330
1E
100
AcDbEntity
  8
1
  6
Continuous
 62
     7
100
AcDbLine
 10
915.0
 20
444.2499999999999
 30
0.0
 11
943.5
 21
444.2499999999999
 31
0.0
  0
LINE
  5
2FE
330
1E
100
AcDbEntity
  8
1
  6
Continuous
 62
     7
100
AcDbLine
 10
943.5
 20
444.2499999999999
 30
0.0
 11
943.5
 21
481.7499999999999
 31
0.0
  0
LINE
  5
2FF
330
1E
100
AcDbEntity
  8
1
  6
Continuous
 62
     7
100
AcDbLine
 10
943.5
 20
481.7499999999999
 30
0.0
 11
915.0
 21
481.7499999999999
 31
0.0
  0
LINE
  5
300
330
1E
100
AcDbEntity
  8
1
  6
Continuous
 62
     7
100
AcDbLine
 10
922.25
 20
481.7499999999999
 30
0.0
 11
922.25
 21
482.7499999999999
 31
0.0
  0
ARC
  5
301
330
1E
100
AcDbEntity
  8
1
  6
Continuous
 62
     7
100
AcDbCircle
 10
923.2499999999999
 20
482.7499999999999
 30
0.0
 40
1.0
100
AcDbArc
 50
90.0
 51
180.0
  0
LINE
  5
302
330
1E
100
AcDbEntity
  8
1
  6
Continuous
 62
     7
100
AcDbLine
 10
923.2499999999999
 20
483.75
 30
0.0
 11
935.25
 21
483.75
 31
0.0
  0
LINE
  5
303
330
1E
100
AcDbEntity
  8
1
  6
Continuous
 62
     7
100
AcDbLine
 10
936.25
 20
482.7499999999999
 30
0.0
 11
936.25
 21
481.7499999999999
 31
0.0
  0
ARC
  5
304
330
1E
100
AcDbEntity
  8
1
  6
Continuous
 62
     7
100
AcDbCircle
 10
935.25
 20
482.7499999999999
 30
0.0
 40
1.0
100
AcDbArc
 50
0.0
 51
90.0
  0
ARC
  5
305
330
1E
100
AcDbEntity
  8
1
  6
Continuous
 62
     7
100
AcDbCircle
 10
919.8500000000001
 20
480.1499999999999
 30
0.0
 40
0.6
100
AcDbArc
 50
90.0
 51
270.0
  0
ARC
  5
306
330
1E
100
AcDbEntity
  8
1
  6
Continuous
 62
     7
100
AcDbCircle
 10
938.6499999999999
 20
480.1499999999999
 30
0.0
 40
0.6
100
AcDbArc
 50
270.0
 51
90.0
  0
LINE
  5
307
330
1E
100
AcDbEntity
  8
1
  6
Continuous
 62
     7
100
AcDbLine
 10
919.8500000000001
 20
480.75
 30
0.0
 11
938.650001
 21
480.75
 31
0.0
  0
LINE
  5
308
330
1E
100
AcDbEntity
  8
1
  6
Continuous
 62
     7
100
AcDbLine
 10
938.6499999999999
 20
479.55
 30
0.0
 11
919.8500000000001
 21
479.55
 31
0.0
  0
CIRCLE
  5
309
330
1E
100
AcDbEntity
  8
1
  6
Continuous
 62
     7
100
AcDbCircle
 10
782.5
 20
340.375
 30
0.0
 40
1.5
  0
CIRCLE
  5
30A
330
1E
100
AcDbEntity
  8
1
  6
Continuous
 62
     7
100
AcDbCircle
 10
772.5
 20
340.375
 30
0.0
 40
1.5
  0
CIRCLE
  5
30B
330
1E
100
AcDbEntity
  8
1
  6
Continuous
 62
     7
100
AcDbCircle
 10
762.5
 20
340.375
 30
0.0
 40
1.5
  0
CIRCLE
  5
30C
330
1E
100
AcDbEntity
  8
1
  6
Continuous
 62
     7
100
AcDbCircle
 10
752.5
 20
340.375
 30
0.0
 40
1.5
  0
CIRCLE
  5
30D
330
1E
100
AcDbEntity
  8
1
  6
Continuous
 62
     7
100
AcDbCircle
 10
742.4999999999999
 20
340.375
 30
0.0
 40
1.5
  0
LINE
  5
30E
330
1E
100
AcDbEntity
  8
1
  6
Continuous
 62
     7
100
AcDbLine
 10
781.0
 20
335.2410229999999
 30
0.0
 11
784.0
 21
335.241024
 31
0.0
  0
LINE
  5
30F
330
1E
100
AcDbEntity
  8
1
  6
Continuous
 62
     7
100
AcDbLine
 10
784.0
 20
335.241024
 30
0.0
 11
782.5
 21
332.6429529999999
 31
0.0
  0
LINE
  5
310
330
1E
100
AcDbEntity
  8
1
  6
Continuous
 62
     7
100
AcDbLine
 10
782.5
 20
332.6429529999999
 30
0.0
 11
781.000006
 21
335.2410229999999
 31
0.0
  0
LINE
  5
311
330
1E
100
AcDbEntity
  8
1
  6
Continuous
 62
     7
100
AcDbLine
 10
774.0
 20
332.6429529999999
 30
0.0
 11
771.0
 21
332.6429529999999
 31
0.0
  0
LINE
  5
312
330
1E
100
AcDbEntity
  8
1
  6
Continuous
 62
     7
100
AcDbLine
 10
771.0
 20
332.6429529999999
 30
0.0
 11
772.5
 21
335.241024
 31
0.0
  0
LINE
  5
313
330
1E
100
AcDbEntity
  8
1
  6
Continuous
 62
     7
100
AcDbLine
 10
772.5
 20
335.241024
 30
0.0
 11
773.999994
 21
332.6429529999999
 31
0.0
  0
LINE
  5
314
330
1E
100
AcDbEntity
  8
1
  6
Continuous
 62
     7
100
AcDbLine
 10
761.2999999999999
 20
332.6429529999999
 30
0.0
 11
761.2999999999999
 21
335.241024
 31
0.0
  0
LINE
  5
315
330
1E
100
AcDbEntity
  8
1
  6
Continuous
 62
     7
100
AcDbLine
 10
761.2999999999999
 20
335.241024
 30
0.0
 11
762.5
 21
332.6429529999999
 31
0.0
  0
LINE
  5
316
330
1E
100
AcDbEntity
  8
1
  6
Continuous
 62
     7
100
AcDbLine
 10
762.5
 20
332.6429529999999
 30
0.0
 11
763.7
 21
335.241024
 31
0.0
  0
LINE
  5
317
330
1E
100
AcDbEntity
  8
1
  6
Continuous
 62
     7
100
AcDbLine
 10
763.7
 20
335.241024
 30
0.0
 11
763.7
 21
332.6429529999999
 31
0.0
  0
LINE
  5
318
330
1E
100
AcDbEntity
  8
1
  6
Continuous
 62
     7
100
AcDbLine
 10
751.633977
 20
332.441981
 30
0.0
 11
751.633976
 21
335.4419819999999
 31
0.0
  0
LINE
  5
319
330
1E
100
AcDbEntity
  8
1
  6
Continuous
 62
     7
100
AcDbLine
 10
751.633976
 20
335.4419819999999
 30
0.0
 11
754.2320469999999
 21
333.9419809999999
 31
0.0
  0
LINE
  5
31A
330
1E
100
AcDbEntity
  8
1
  6
Continuous
 62
     7
100
AcDbLine
 10
754.2320469999999
 20
333.9419809999999
 30
0.0
 11
751.633977
 21
332.4419879999999
 31
0.0
  0
LINE
  5
31B
330
1E
100
AcDbEntity
  8
1
  6
Continuous
 62
     7
100
AcDbLine
 10
743.366023
 20
335.441981
 30
0.0
 11
743.366024
 21
332.441981
 31
0.0
  0
LINE
  5
31C
330
1E
100
AcDbEntity
  8
1
  6
Continuous
 62
     7
100
AcDbLine
 10
743.366024
 20
332.441981
 30
0.0
 11
740.767953
 21
333.9419809999999
 31
0.0
  0
LINE
  5
31D
330
1E
100
AcDbEntity
  8
1
  6
Continuous
 62
     7
100
AcDbLine
 10
740.767953
 20
333.9419809999999
 30
0.0
 11
743.366023
 21
335.441975
 31
0.0
  0
LINE
  5
31E
330
1E
100
AcDbEntity
  8
1
  6
Continuous
 62
     7
100
AcDbLine
 10
943.1499999999999
 20
322.55
 30
0.0
 11
943.1499999999999
 21
316.7499999999999
 31
0.0
  0
LINE
  5
31F
330
1E
100
AcDbEntity
  8
1
  6
Continuous
 62
     7
100
AcDbLine
 10
943.1499999999999
 20
316.7499999999999
 30
0.0
 11
951.75
 21
316.7499999999999
 31
0.0
  0
LINE
  5
320
330
1E
100
AcDbEntity
  8
1
  6
Continuous
 62
     7
100
AcDbLine
 10
951.75
 20
316.7499999999999
 30
0.0
 11
951.75
 21
322.55
 31
0.0
  0
LINE
  5
321
330
1E
100
AcDbEntity
  8
1
  6
Continuous
 62
     7
100
AcDbLine
 10
951.75
 20
322.55
 30
0.0
 11
943.1499999999999
 21
322.55
 31
0.0
  0
TEXT
  5
322
330
1E
100
AcDbEntity
  8
1
  6
Continuous
 62
     7
100
AcDbText
 10
735.0
 20
315.8
 30
0.0
 40
3.2
  1
POWER
 41
0.5625
  7
KANJI
100
AcDbText
  0
TEXT
  5
323
330
1E
100
AcDbEntity
  8
1
  6
Continuous
 62
     7
100
AcDbText
 10
748.5
 20
315.8
 30
0.0
 40
3.2
  1
DC IN
 41
0.611413
  7
KANJI
100
AcDbText
  0
TEXT
  5
324
330
1E
100
AcDbEntity
  8
1
  6
Continuous
 62
     7
100
AcDbText
 10
750.3
 20
311.8
 30
0.0
 40
3.2
  1
12V
 41
0.5625
  7
KANJI
100
AcDbText
  0
TEXT
  5
325
330
1E
100
AcDbEntity
  8
1
  6
Continuous
 62
     7
100
AcDbText
 10
732.8999999999999
 20
311.8
 30
0.0
 40
3.2
  1
ON
 41
0.5625
  7
KANJI
100
AcDbText
  0
TEXT
  5
326
330
1E
100
AcDbEntity
  8
1
  6
Continuous
 62
     7
100
AcDbText
 10
741.6
 20
311.8
 30
0.0
 40
3.2
  1
OFF
 41
0.5625
  7
KANJI
100
AcDbText
  0
TEXT
  5
327
330
1E
100
AcDbEntity
  8
1
  6
Continuous
 62
     7
100
AcDbText
 10
763.7999999999999
 20
311.8
 30
0.0
 40
3.2
  1
A/V
 41
0.5625
  7
KANJI
100
AcDbText
  0
TEXT
  5
328
330
1E
100
AcDbEntity
  8
1
  6
Continuous
 62
     7
100
AcDbText
 10
781.2999999999999
 20
311.8
 30
0.0
 40
3.2
  1
EX.
 41
0.649038
  7
KANJI
100
AcDbText
  0
TEXT
  5
329
330
1E
100
AcDbEntity
  8
1
  6
Continuous
 62
     7
100
AcDbText
 10
798.2999999999999
 20
311.8
 30
0.0
 40
3.2
  1
ANT
 41
0.5625
  7
KANJI
100
AcDbText
  0
LINE
  5
32A
330
1E
100
AcDbEntity
  8
1
  6
Continuous
 62
     7
100
AcDbLine
 10
733.7
 20
310.0
 30
0.0
 11
733.7
 21
307.5
 31
0.0
  0
LINE
  5
32B
330
1E
100
AcDbEntity
  8
1
  6
Continuous
 62
     7
100
AcDbLine
 10
733.7
 20
307.5
 30
0.0
 11
736.7
 21
307.5
 31
0.0
  0
LINE
  5
32C
330
1E
100
AcDbEntity
  8
1
  6
Continuous
 62
     7
100
AcDbLine
 10
736.7
 20
307.5
 30
0.0
 11
736.7
 21
310.0
 31
0.0
  0
ARC
  5
32D
330
1E
100
AcDbEntity
  8
1
  6
Continuous
 62
     7
100
AcDbCircle
 10
784.0
 20
312.344444
 30
0.0
 40
5.344444
100
AcDbArc
 50
221.544509
 51
318.455491
  0
LINE
  5
32E
330
1E
100
AcDbEntity
  8
1
  6
Continuous
 62
     7
100
AcDbLine
 10
780.0
 20
310.0
 30
0.0
 11
780.0
 21
308.8
 31
0.0
  0
LINE
  5
32F
330
1E
100
AcDbEntity
  8
1
  6
Continuous
 62
     7
100
AcDbLine
 10
780.0
 20
308.8
 30
0.0
 11
788.0
 21
308.8
 31
0.0
  0
LINE
  5
330
330
1E
100
AcDbEntity
  8
1
  6
Continuous
 62
     7
100
AcDbLine
 10
788.0
 20
308.8
 30
0.0
 11
788.0
 21
310.0
 31
0.0
  0
ARC
  5
331
330
1E
100
AcDbEntity
  8
1
  6
Continuous
 62
     7
100
AcDbCircle
 10
801.0
 20
312.344444
 30
0.0
 40
5.344444
100
AcDbArc
 50
221.544509
 51
318.455491
  0
LINE
  5
332
330
1E
100
AcDbEntity
  8
1
  6
Continuous
 62
     7
100
AcDbLine
 10
797.0
 20
310.0
 30
0.0
 11
797.0
 21
308.8
 31
0.0
  0
LINE
  5
333
330
1E
100
AcDbEntity
  8
1
  6
Continuous
 62
     7
100
AcDbLine
 10
797.0
 20
308.8
 30
0.0
 11
805.0
 21
308.8
 31
0.0
  0
LINE
  5
334
330
1E
100
AcDbEntity
  8
1
  6
Continuous
 62
     7
100
AcDbLine
 10
805.0
 20
308.8
 30
0.0
 11
805.0
 21
310.0
 31
0.0
  0
CIRCLE
  5
335
330
1E
100
AcDbEntity
  8
1
  6
Continuous
 62
     7
100
AcDbCircle
 10
850.8713210000001
 20
499.2499999999999
 30
0.0
 40
3.0
  0
LINE
  5
336
330
1E
100
AcDbEntity
  8
1
  6
Continuous
 62
     7
100
AcDbLine
 10
172.5
 20
637.5
 30
0.0
 11
181.25
 21
642.0
 31
0.0
  0
LINE
  5
337
330
1E
100
AcDbEntity
  8
1
  6
Continuous
 62
     7
100
AcDbLine
 10
181.25
 20
642.0
 30
0.0
 11
418.75
 21
642.0
 31
0.0
  0
LINE
  5
338
330
1E
100
AcDbEntity
  8
1
  6
Continuous
 62
     7
100
AcDbLine
 10
418.75
 20
642.0
 30
0.0
 11
427.5
 21
637.5
 31
0.0
  0
LINE
  5
339
330
1E
100
AcDbEntity
  8
1
  6
Continuous
 62
     7
100
AcDbLine
 10
172.5
 20
617.0
 30
0.0
 11
427.5
 21
617.0
 31
0.0
  0
LINE
  5
33A
330
1E
100
AcDbEntity
  8
1
  6
Continuous
 62
     7
100
AcDbLine
 10
427.5
 20
637.5
 30
0.0
 11
172.5
 21
637.5
 31
0.0
  0
LINE
  5
33B
330
1E
100
AcDbEntity
  8
1
  6
Continuous
 62
     7
100
AcDbLine
 10
172.5
 20
637.5
 30
0.0
 11
172.5
 21
604.0
 31
0.0
  0
ARC
  5
33C
330
1E
100
AcDbEntity
  8
1
  6
Continuous
 62
     7
100
AcDbCircle
 10
176.5
 20
604.0
 30
0.0
 40
4.0
100
AcDbArc
 50
180.0
 51
270.0
  0
LINE
  5
33D
330
1E
100
AcDbEntity
  8
1
  6
Continuous
 62
     7
100
AcDbLine
 10
176.5
 20
600.0
 30
0.0
 11
423.5
 21
600.0
 31
0.0
  0
LINE
  5
33E
330
1E
100
AcDbEntity
  8
1
  6
Continuous
 62
     7
100
AcDbLine
 10
427.5
 20
604.0
 30
0.0
 11
427.5
 21
637.5
 31
0.0
  0
ARC
  5
33F
330
1E
100
AcDbEntity
  8
1
  6
Continuous
 62
     7
100
AcDbCircle
 10
423.5
 20
604.0
 30
0.0
 40
4.0
100
AcDbArc
 50
270.0
 51
0.0
  0
ARC
  5
340
330
1E
100
AcDbEntity
  8
1
  6
Continuous
 62
     7
100
AcDbCircle
 10
300.0
 20
593.333333
 30
0.0
 40
9.666667
100
AcDbArc
 50
43.602819
 51
136.397181
  0
LINE
  5
341
330
1E
100
AcDbEntity
  8
1
  6
Continuous
 62
     7
100
AcDbLine
 10
289.1999999999999
 20
642.0
 30
0.0
 11
289.1999999999999
 21
645.0
 31
0.0
  0
ARC
  5
342
330
1E
100
AcDbEntity
  8
1
  6
Continuous
 62
     7
100
AcDbCircle
 10
290.7
 20
645.0
 30
0.0
 40
1.5
100
AcDbArc
 50
90.0
 51
180.0
  0
LINE
  5
343
330
1E
100
AcDbEntity
  8
1
  6
Continuous
 62
     7
100
AcDbLine
 10
290.7
 20
646.4999999999999
 30
0.0
 11
309.2999999999999
 21
646.4999999999999
 31
0.0
  0
LINE
  5
344
330
1E
100
AcDbEntity
  8
1
  6
Continuous
 62
     7
100
AcDbLine
 10
310.8
 20
645.0
 30
0.0
 11
310.8
 21
642.0
 31
0.0
  0
ARC
  5
345
330
1E
100
AcDbEntity
  8
1
  6
Continuous
 62
     7
100
AcDbCircle
 10
309.2999999999999
 20
645.0
 30
0.0
 40
1.5
100
AcDbArc
 50
0.0
 51
90.0
  0
LINE
  5
346
330
1E
100
AcDbEntity
  8
1
  6
Continuous
 62
     7
100
AcDbLine
 10
356.0
 20
642.0
 30
0.0
 11
356.0
 21
643.1
 31
0.0
  0
ARC
  5
347
330
1E
100
AcDbEntity
  8
1
  6
Continuous
 62
     7
100
AcDbCircle
 10
356.4999999999999
 20
643.1
 30
0.0
 40
0.5
100
AcDbArc
 50
90.0
 51
180.0
  0
LINE
  5
348
330
1E
100
AcDbEntity
  8
1
  6
Continuous
 62
     7
100
AcDbLine
 10
356.4999999999999
 20
643.5999999999999
 30
0.0
 11
358.4999999999999
 21
643.5999999999999
 31
0.0
  0
LINE
  5
349
330
1E
100
AcDbEntity
  8
1
  6
Continuous
 62
     7
100
AcDbLine
 10
359.0
 20
643.1
 30
0.0
 11
359.0
 21
642.0
 31
0.0
  0
ARC
  5
34A
330
1E
100
AcDbEntity
  8
1
  6
Continuous
 62
     7
100
AcDbCircle
 10
358.4999999999999
 20
643.1
 30
0.0
 40
0.5
100
AcDbArc
 50
0.0
 51
90.0
  0
LINE
  5
34B
330
1E
100
AcDbEntity
  8
1
  6
Continuous
 62
     7
100
AcDbLine
 10
366.0
 20
642.0
 30
0.0
 11
366.0
 21
643.1
 31
0.0
  0
ARC
  5
34C
330
1E
100
AcDbEntity
  8
1
  6
Continuous
 62
     7
100
AcDbCircle
 10
366.5
 20
643.1
 30
0.0
 40
0.5
100
AcDbArc
 50
90.0
 51
180.0
  0
LINE
  5
34D
330
1E
100
AcDbEntity
  8
1
  6
Continuous
 62
     7
100
AcDbLine
 10
366.5
 20
643.5999999999999
 30
0.0
 11
368.5
 21
643.5999999999999
 31
0.0
  0
LINE
  5
34E
330
1E
100
AcDbEntity
  8
1
  6
Continuous
 62
     7
100
AcDbLine
 10
369.0
 20
643.1
 30
0.0
 11
369.0
 21
642.0
 31
0.0
  0
ARC
  5
34F
330
1E
100
AcDbEntity
  8
1
  6
Continuous
 62
     7
100
AcDbCircle
 10
368.5
 20
643.1
 30
0.0
 40
0.5
100
AcDbArc
 50
0.0
 51
90.0
  0
LINE
  5
350
330
1E
100
AcDbEntity
  8
1
  6
Continuous
 62
     7
100
AcDbLine
 10
376.0
 20
642.0
 30
0.0
 11
376.0
 21
643.1
 31
0.0
  0
ARC
  5
351
330
1E
100
AcDbEntity
  8
1
  6
Continuous
 62
     7
100
AcDbCircle
 10
376.5
 20
643.1
 30
0.0
 40
0.5
100
AcDbArc
 50
90.0
 51
180.0
  0
LINE
  5
352
330
1E
100
AcDbEntity
  8
1
  6
Continuous
 62
     7
100
AcDbLine
 10
376.5
 20
643.5999999999999
 30
0.0
 11
378.5
 21
643.5999999999999
 31
0.0
  0
LINE
  5
353
330
1E
100
AcDbEntity
  8
1
  6
Continuous
 62
     7
100
AcDbLine
 10
379.0
 20
643.1
 30
0.0
 11
379.0
 21
642.0
 31
0.0
  0
ARC
  5
354
330
1E
100
AcDbEntity
  8
1
  6
Continuous
 62
     7
100
AcDbCircle
 10
378.5
 20
643.1
 30
0.0
 40
0.5
100
AcDbArc
 50
0.0
 51
90.0
  0
LINE
  5
355
330
1E
100
AcDbEntity
  8
1
  6
Continuous
 62
     7
100
AcDbLine
 10
386.0
 20
642.0
 30
0.0
 11
386.0
 21
643.1
 31
0.0
  0
ARC
  5
356
330
1E
100
AcDbEntity
  8
1
  6
Continuous
 62
     7
100
AcDbCircle
 10
386.5
 20
643.1
 30
0.0
 40
0.5
100
AcDbArc
 50
90.0
 51
180.0
  0
LINE
  5
357
330
1E
100
AcDbEntity
  8
1
  6
Continuous
 62
     7
100
AcDbLine
 10
386.5
 20
643.5999999999999
 30
0.0
 11
388.5
 21
643.5999999999999
 31
0.0
  0
LINE
  5
358
330
1E
100
AcDbEntity
  8
1
  6
Continuous
 62
     7
100
AcDbLine
 10
389.0
 20
643.1
 30
0.0
 11
389.0
 21
642.0
 31
0.0
  0
ARC
  5
359
330
1E
100
AcDbEntity
  8
1
  6
Continuous
 62
     7
100
AcDbCircle
 10
388.5
 20
643.1
 30
0.0
 40
0.5
100
AcDbArc
 50
0.0
 51
90.0
  0
LINE
  5
35A
330
1E
100
AcDbEntity
  8
1
  6
Continuous
 62
     7
100
AcDbLine
 10
396.0
 20
642.0
 30
0.0
 11
396.0
 21
643.1
 31
0.0
  0
ARC
  5
35B
330
1E
100
AcDbEntity
  8
1
  6
Continuous
 62
     7
100
AcDbCircle
 10
396.5
 20
643.1
 30
0.0
 40
0.5
100
AcDbArc
 50
90.0
 51
180.0
  0
LINE
  5
35C
330
1E
100
AcDbEntity
  8
1
  6
Continuous
 62
     7
100
AcDbLine
 10
396.5
 20
643.5999999999999
 30
0.0
 11
398.4999999999999
 21
643.5999999999999
 31
0.0
  0
LINE
  5
35D
330
1E
100
AcDbEntity
  8
1
  6
Continuous
 62
     7
100
AcDbLine
 10
399.0
 20
643.1
 30
0.0
 11
399.0
 21
642.0
 31
0.0
  0
ARC
  5
35E
330
1E
100
AcDbEntity
  8
1
  6
Continuous
 62
     7
100
AcDbCircle
 10
398.4999999999999
 20
643.1
 30
0.0
 40
0.5
100
AcDbArc
 50
0.0
 51
90.0
  0
ARC
  5
35F
330
1E
100
AcDbEntity
  8
1
  6
Continuous
 62
     7
100
AcDbCircle
 10
192.55
 20
641.68875
 30
0.0
 40
4.31125
100
AcDbArc
 50
4.140061
 51
175.859939
  0
ARC
  5
360
330
1E
100
AcDbEntity
  8
1
  6
Continuous
 62
     7
100
AcDbCircle
 10
192.55
 20
641.6849999999999
 30
0.0
 40
3.314999999999999
100
AcDbArc
 50
5.452621999999999
 51
174.547378
  0
LINE
  5
361
330
1E
100
AcDbEntity
  8
1
  6
Continuous
 62
     7
100
AcDbLine
 10
258.25
 20
642.0
 30
0.0
 11
258.25
 21
645.0
 31
0.0
  0
ARC
  5
362
330
1E
100
AcDbEntity
  8
1
  6
Continuous
 62
     7
100
AcDbCircle
 10
259.25
 20
645.0
 30
0.0
 40
1.0
100
AcDbArc
 50
90.0
 51
180.0
  0
LINE
  5
363
330
1E
100
AcDbEntity
  8
1
  6
Continuous
 62
     7
100
AcDbLine
 10
259.25
 20
646.0
 30
0.0
 11
265.75
 21
646.0
 31
0.0
  0
LINE
  5
364
330
1E
100
AcDbEntity
  8
1
  6
Continuous
 62
     7
100
AcDbLine
 10
266.7499999999999
 20
645.0
 30
0.0
 11
266.7499999999999
 21
642.0
 31
0.0
  0
ARC
  5
365
330
1E
100
AcDbEntity
  8
1
  6
Continuous
 62
     7
100
AcDbCircle
 10
265.75
 20
645.0
 30
0.0
 40
1.0
100
AcDbArc
 50
0.0
 51
90.0
  0
LINE
  5
366
330
1E
100
AcDbEntity
  8
1
  6
Continuous
 62
     7
100
AcDbLine
 10
333.25
 20
642.0
 30
0.0
 11
333.25
 21
645.0
 31
0.0
  0
ARC
  5
367
330
1E
100
AcDbEntity
  8
1
  6
Continuous
 62
     7
100
AcDbCircle
 10
334.25
 20
645.0
 30
0.0
 40
1.0
100
AcDbArc
 50
90.0
 51
180.0
  0
LINE
  5
368
330
1E
100
AcDbEntity
  8
1
  6
Continuous
 62
     7
100
AcDbLine
 10
334.25
 20
646.0
 30
0.0
 11
340.75
 21
646.0
 31
0.0
  0
LINE
  5
369
330
1E
100
AcDbEntity
  8
1
  6
Continuous
 62
     7
100
AcDbLine
 10
341.7499999999999
 20
645.0
 30
0.0
 11
341.7499999999999
 21
642.0
 31
0.0
  0
ARC
  5
36A
330
1E
100
AcDbEntity
  8
1
  6
Continuous
 62
     7
100
AcDbCircle
 10
340.75
 20
645.0
 30
0.0
 40
1.0
100
AcDbArc
 50
0.0
 51
90.0
  0
LINE
  5
36B
330
1E
100
AcDbEntity
  8
1
  6
Continuous
 62
     7
100
AcDbLine
 10
286.1286789999999
 20
640.5
 30
0.0
 11
286.140095
 21
640.369266
 31
0.0
  0
LINE
  5
36C
330
1E
100
AcDbEntity
  8
1
  6
Continuous
 62
     7
100
AcDbLine
 10
286.140095
 20
640.369266
 30
0.0
 11
286.1742549999999
 21
640.239528
 31
0.0
  0
LINE
  5
36D
330
1E
100
AcDbEntity
  8
1
  6
Continuous
 62
     7
100
AcDbLine
 10
286.1742549999999
 20
640.239528
 30
0.0
 11
286.2309009999999
 21
640.111771
 31
0.0
  0
LINE
  5
36E
330
1E
100
AcDbEntity
  8
1
  6
Continuous
 62
     7
100
AcDbLine
 10
286.2309009999999
 20
640.111771
 30
0.0
 11
286.3096009999999
 21
639.98697
 31
0.0
  0
LINE
  5
36F
330
1E
100
AcDbEntity
  8
1
  6
Continuous
 62
     7
100
AcDbLine
 10
286.3096009999999
 20
639.98697
 30
0.0
 11
286.4097549999999
 21
639.866073
 31
0.0
  0
LINE
  5
370
330
1E
100
AcDbEntity
  8
1
  6
Continuous
 62
     7
100
AcDbLine
 10
286.4097549999999
 20
639.866073
 30
0.0
 11
286.5306029999999
 21
639.7499999999999
 31
0.0
  0
LINE
  5
371
330
1E
100
AcDbEntity
  8
1
  6
Continuous
 62
     7
100
AcDbLine
 10
286.5306029999999
 20
639.7499999999999
 30
0.0
 11
286.671223
 21
639.6396349999999
 31
0.0
  0
LINE
  5
372
330
1E
100
AcDbEntity
  8
1
  6
Continuous
 62
     7
100
AcDbLine
 10
286.671223
 20
639.6396349999999
 30
0.0
 11
286.830545
 21
639.535819
 31
0.0
  0
LINE
  5
373
330
1E
100
AcDbEntity
  8
1
  6
Continuous
 62
     7
100
AcDbLine
 10
286.830545
 20
639.535819
 30
0.0
 11
287.007358
 21
639.43934
 31
0.0
  0
LINE
  5
374
330
1E
100
AcDbEntity
  8
1
  6
Continuous
 62
     7
100
AcDbLine
 10
287.007358
 20
639.43934
 30
0.0
 11
287.2003159999999
 21
639.350933
 31
0.0
  0
LINE
  5
375
330
1E
100
AcDbEntity
  8
1
  6
Continuous
 62
     7
100
AcDbLine
 10
287.2003159999999
 20
639.350933
 30
0.0
 11
287.407949
 21
639.2712719999999
 31
0.0
  0
LINE
  5
376
330
1E
100
AcDbEntity
  8
1
  6
Continuous
 62
     7
100
AcDbLine
 10
287.407949
 20
639.2712719999999
 30
0.0
 11
287.6286789999999
 21
639.200962
 31
0.0
  0
LINE
  5
377
330
1E
100
AcDbEntity
  8
1
  6
Continuous
 62
     7
100
AcDbLine
 10
287.6286789999999
 20
639.200962
 30
0.0
 11
287.860824
 21
639.140538
 31
0.0
  0
LINE
  5
378
330
1E
100
AcDbEntity
  8
1
  6
Continuous
 62
     7
100
AcDbLine
 10
287.860824
 20
639.140538
 30
0.0
 11
288.102618
 21
639.0904609999999
 31
0.0
  0
LINE
  5
379
330
1E
100
AcDbEntity
  8
1
  6
Continuous
 62
     7
100
AcDbLine
 10
288.102618
 20
639.0904609999999
 30
0.0
 11
288.352222
 21
639.051111
 31
0.0
  0
LINE
  5
37A
330
1E
100
AcDbEntity
  8
1
  6
Continuous
 62
     7
100
AcDbLine
 10
288.352222
 20
639.051111
 30
0.0
 11
288.6077339999999
 21
639.022788
 31
0.0
  0
LINE
  5
37B
330
1E
100
AcDbEntity
  8
1
  6
Continuous
 62
     7
100
AcDbLine
 10
288.6077339999999
 20
639.022788
 30
0.0
 11
288.8672119999999
 21
639.005708
 31
0.0
  0
LINE
  5
37C
330
1E
100
AcDbEntity
  8
1
  6
Continuous
 62
     7
100
AcDbLine
 10
288.8672119999999
 20
639.005708
 30
0.0
 11
289.1286789999999
 21
639.0
 31
0.0
  0
LINE
  5
37D
330
1E
100
AcDbEntity
  8
1
  6
Continuous
 62
     7
100
AcDbLine
 10
289.1286789999999
 20
639.0
 30
0.0
 11
289.390146
 21
639.005708
 31
0.0
  0
LINE
  5
37E
330
1E
100
AcDbEntity
  8
1
  6
Continuous
 62
     7
100
AcDbLine
 10
289.390146
 20
639.005708
 30
0.0
 11
289.649623
 21
639.022788
 31
0.0
  0
LINE
  5
37F
330
1E
100
AcDbEntity
  8
1
  6
Continuous
 62
     7
100
AcDbLine
 10
289.649623
 20
639.022788
 30
0.0
 11
289.9051359999999
 21
639.051111
 31
0.0
  0
LINE
  5
380
330
1E
100
AcDbEntity
  8
1
  6
Continuous
 62
     7
100
AcDbLine
 10
289.9051359999999
 20
639.051111
 30
0.0
 11
290.154739
 21
639.0904609999999
 31
0.0
  0
LINE
  5
381
330
1E
100
AcDbEntity
  8
1
  6
Continuous
 62
     7
100
AcDbLine
 10
290.154739
 20
639.0904609999999
 30
0.0
 11
290.3965339999999
 21
639.140538
 31
0.0
  0
LINE
  5
382
330
1E
100
AcDbEntity
  8
1
  6
Continuous
 62
     7
100
AcDbLine
 10
290.3965339999999
 20
639.140538
 30
0.0
 11
290.6286789999999
 21
639.200962
 31
0.0
  0
LINE
  5
383
330
1E
100
AcDbEntity
  8
1
  6
Continuous
 62
     7
100
AcDbLine
 10
290.6286789999999
 20
639.200962
 30
0.0
 11
290.849408
 21
639.2712719999999
 31
0.0
  0
LINE
  5
384
330
1E
100
AcDbEntity
  8
1
  6
Continuous
 62
     7
100
AcDbLine
 10
290.849408
 20
639.2712719999999
 30
0.0
 11
291.0570419999999
 21
639.350933
 31
0.0
  0
LINE
  5
385
330
1E
100
AcDbEntity
  8
1
  6
Continuous
 62
     7
100
AcDbLine
 10
291.0570419999999
 20
639.350933
 30
0.0
 11
291.249999
 21
639.43934
 31
0.0
  0
LINE
  5
386
330
1E
100
AcDbEntity
  8
1
  6
Continuous
 62
     7
100
AcDbLine
 10
291.249999
 20
639.43934
 30
0.0
 11
291.426812
 21
639.535819
 31
0.0
  0
LINE
  5
387
330
1E
100
AcDbEntity
  8
1
  6
Continuous
 62
     7
100
AcDbLine
 10
291.426812
 20
639.535819
 30
0.0
 11
291.586135
 21
639.6396349999999
 31
0.0
  0
LINE
  5
388
330
1E
100
AcDbEntity
  8
1
  6
Continuous
 62
     7
100
AcDbLine
 10
291.586135
 20
639.6396349999999
 30
0.0
 11
291.7267549999999
 21
639.7499999999999
 31
0.0
  0
LINE
  5
389
330
1E
100
AcDbEntity
  8
1
  6
Continuous
 62
     7
100
AcDbLine
 10
291.7267549999999
 20
639.7499999999999
 30
0.0
 11
291.8476019999999
 21
639.866073
 31
0.0
  0
LINE
  5
38A
330
1E
100
AcDbEntity
  8
1
  6
Continuous
 62
     7
100
AcDbLine
 10
291.8476019999999
 20
639.866073
 30
0.0
 11
291.9477569999999
 21
639.98697
 31
0.0
  0
LINE
  5
38B
330
1E
100
AcDbEntity
  8
1
  6
Continuous
 62
     7
100
AcDbLine
 10
291.9477569999999
 20
639.98697
 30
0.0
 11
292.026456
 21
640.111771
 31
0.0
  0
LINE
  5
38C
330
1E
100
AcDbEntity
  8
1
  6
Continuous
 62
     7
100
AcDbLine
 10
292.026456
 20
640.111771
 30
0.0
 11
292.0831019999999
 21
640.239528
 31
0.0
  0
LINE
  5
38D
330
1E
100
AcDbEntity
  8
1
  6
Continuous
 62
     7
100
AcDbLine
 10
292.0831019999999
 20
640.239528
 30
0.0
 11
292.117263
 21
640.369266
 31
0.0
  0
LINE
  5
38E
330
1E
100
AcDbEntity
  8
1
  6
Continuous
 62
     7
100
AcDbLine
 10
292.117263
 20
640.369266
 30
0.0
 11
292.1286789999999
 21
640.5
 31
0.0
  0
LINE
  5
38F
330
1E
100
AcDbEntity
  8
1
  6
Continuous
 62
     7
100
AcDbLine
 10
292.1286789999999
 20
640.5
 30
0.0
 11
292.117263
 21
640.6307339999999
 31
0.0
  0
LINE
  5
390
330
1E
100
AcDbEntity
  8
1
  6
Continuous
 62
     7
100
AcDbLine
 10
292.117263
 20
640.6307339999999
 30
0.0
 11
292.0831019999999
 21
640.7604719999999
 31
0.0
  0
LINE
  5
391
330
1E
100
AcDbEntity
  8
1
  6
Continuous
 62
     7
100
AcDbLine
 10
292.0831019999999
 20
640.7604719999999
 30
0.0
 11
292.026456
 21
640.888229
 31
0.0
  0
LINE
  5
392
330
1E
100
AcDbEntity
  8
1
  6
Continuous
 62
     7
100
AcDbLine
 10
292.026456
 20
640.888229
 30
0.0
 11
291.9477569999999
 21
641.0130299999999
 31
0.0
  0
LINE
  5
393
330
1E
100
AcDbEntity
  8
1
  6
Continuous
 62
     7
100
AcDbLine
 10
291.9477569999999
 20
641.0130299999999
 30
0.0
 11
291.8476019999999
 21
641.133927
 31
0.0
  0
LINE
  5
394
330
1E
100
AcDbEntity
  8
1
  6
Continuous
 62
     7
100
AcDbLine
 10
291.8476019999999
 20
641.133927
 30
0.0
 11
291.7267549999999
 21
641.25
 31
0.0
  0
LINE
  5
395
330
1E
100
AcDbEntity
  8
1
  6
Continuous
 62
     7
100
AcDbLine
 10
291.7267549999999
 20
641.25
 30
0.0
 11
291.586135
 21
641.3603649999999
 31
0.0
  0
LINE
  5
396
330
1E
100
AcDbEntity
  8
1
  6
Continuous
 62
     7
100
AcDbLine
 10
291.586135
 20
641.3603649999999
 30
0.0
 11
291.426812
 21
641.4641809999999
 31
0.0
  0
LINE
  5
397
330
1E
100
AcDbEntity
  8
1
  6
Continuous
 62
     7
100
AcDbLine
 10
291.426812
 20
641.4641809999999
 30
0.0
 11
291.249999
 21
641.56066
 31
0.0
  0
LINE
  5
398
330
1E
100
AcDbEntity
  8
1
  6
Continuous
 62
     7
100
AcDbLine
 10
291.249999
 20
641.56066
 30
0.0
 11
291.0570419999999
 21
641.6490669999999
 31
0.0
  0
LINE
  5
399
330
1E
100
AcDbEntity
  8
1
  6
Continuous
 62
     7
100
AcDbLine
 10
291.0570419999999
 20
641.6490669999999
 30
0.0
 11
290.849408
 21
641.728728
 31
0.0
  0
LINE
  5
39A
330
1E
100
AcDbEntity
  8
1
  6
Continuous
 62
     7
100
AcDbLine
 10
290.849408
 20
641.728728
 30
0.0
 11
290.6286789999999
 21
641.7990379999999
 31
0.0
  0
LINE
  5
39B
330
1E
100
AcDbEntity
  8
1
  6
Continuous
 62
     7
100
AcDbLine
 10
290.6286789999999
 20
641.7990379999999
 30
0.0
 11
290.3965339999999
 21
641.859462
 31
0.0
  0
LINE
  5
39C
330
1E
100
AcDbEntity
  8
1
  6
Continuous
 62
     7
100
AcDbLine
 10
290.3965339999999
 20
641.859462
 30
0.0
 11
290.154739
 21
641.9095389999999
 31
0.0
  0
LINE
  5
39D
330
1E
100
AcDbEntity
  8
1
  6
Continuous
 62
     7
100
AcDbLine
 10
290.154739
 20
641.9095389999999
 30
0.0
 11
289.9051359999999
 21
641.948889
 31
0.0
  0
LINE
  5
39E
330
1E
100
AcDbEntity
  8
1
  6
Continuous
 62
     7
100
AcDbLine
 10
289.9051359999999
 20
641.948889
 30
0.0
 11
289.649623
 21
641.977212
 31
0.0
  0
LINE
  5
39F
330
1E
100
AcDbEntity
  8
1
  6
Continuous
 62
     7
100
AcDbLine
 10
289.649623
 20
641.977212
 30
0.0
 11
289.390146
 21
641.9942919999999
 31
0.0
  0
LINE
  5
3A0
330
1E
100
AcDbEntity
  8
1
  6
Continuous
 62
     7
100
AcDbLine
 10
289.390146
 20
641.9942919999999
 30
0.0
 11
289.1286789999999
 21
642.0
 31
0.0
  0
LINE
  5
3A1
330
1E
100
AcDbEntity
  8
1
  6
Continuous
 62
     7
100
AcDbLine
 10
289.1286789999999
 20
642.0
 30
0.0
 11
288.8672119999999
 21
641.9942919999999
 31
0.0
  0
LINE
  5
3A2
330
1E
100
AcDbEntity
  8
1
  6
Continuous
 62
     7
100
AcDbLine
 10
288.8672119999999
 20
641.9942919999999
 30
0.0
 11
288.6077339999999
 21
641.977212
 31
0.0
  0
LINE
  5
3A3
330
1E
100
AcDbEntity
  8
1
  6
Continuous
 62
     7
100
AcDbLine
 10
288.6077339999999
 20
641.977212
 30
0.0
 11
288.352222
 21
641.948889
 31
0.0
  0
LINE
  5
3A4
330
1E
100
AcDbEntity
  8
1
  6
Continuous
 62
     7
100
AcDbLine
 10
288.352222
 20
641.948889
 30
0.0
 11
288.102618
 21
641.9095389999999
 31
0.0
  0
LINE
  5
3A5
330
1E
100
AcDbEntity
  8
1
  6
Continuous
 62
     7
100
AcDbLine
 10
288.102618
 20
641.9095389999999
 30
0.0
 11
287.860824
 21
641.859462
 31
0.0
  0
LINE
  5
3A6
330
1E
100
AcDbEntity
  8
1
  6
Continuous
 62
     7
100
AcDbLine
 10
287.860824
 20
641.859462
 30
0.0
 11
287.6286789999999
 21
641.7990379999999
 31
0.0
  0
LINE
  5
3A7
330
1E
100
AcDbEntity
  8
1
  6
Continuous
 62
     7
100
AcDbLine
 10
287.6286789999999
 20
641.7990379999999
 30
0.0
 11
287.407949
 21
641.728728
 31
0.0
  0
LINE
  5
3A8
330
1E
100
AcDbEntity
  8
1
  6
Continuous
 62
     7
100
AcDbLine
 10
287.407949
 20
641.728728
 30
0.0
 11
287.2003159999999
 21
641.6490669999999
 31
0.0
  0
LINE
  5
3A9
330
1E
100
AcDbEntity
  8
1
  6
Continuous
 62
     7
100
AcDbLine
 10
287.2003159999999
 20
641.6490669999999
 30
0.0
 11
287.007358
 21
641.56066
 31
0.0
  0
LINE
  5
3AA
330
1E
100
AcDbEntity
  8
1
  6
Continuous
 62
     7
100
AcDbLine
 10
287.007358
 20
641.56066
 30
0.0
 11
286.830545
 21
641.4641809999999
 31
0.0
  0
LINE
  5
3AB
330
1E
100
AcDbEntity
  8
1
  6
Continuous
 62
     7
100
AcDbLine
 10
286.830545
 20
641.4641809999999
 30
0.0
 11
286.671223
 21
641.3603649999999
 31
0.0
  0
LINE
  5
3AC
330
1E
100
AcDbEntity
  8
1
  6
Continuous
 62
     7
100
AcDbLine
 10
286.671223
 20
641.3603649999999
 30
0.0
 11
286.5306029999999
 21
641.25
 31
0.0
  0
LINE
  5
3AD
330
1E
100
AcDbEntity
  8
1
  6
Continuous
 62
     7
100
AcDbLine
 10
286.5306029999999
 20
641.25
 30
0.0
 11
286.4097549999999
 21
641.133927
 31
0.0
  0
LINE
  5
3AE
330
1E
100
AcDbEntity
  8
1
  6
Continuous
 62
     7
100
AcDbLine
 10
286.4097549999999
 20
641.133927
 30
0.0
 11
286.3096009999999
 21
641.0130299999999
 31
0.0
  0
LINE
  5
3AF
330
1E
100
AcDbEntity
  8
1
  6
Continuous
 62
     7
100
AcDbLine
 10
286.3096009999999
 20
641.0130299999999
 30
0.0
 11
286.2309009999999
 21
640.888229
 31
0.0
  0
LINE
  5
3B0
330
1E
100
AcDbEntity
  8
1
  6
Continuous
 62
     7
100
AcDbLine
 10
286.2309009999999
 20
640.888229
 30
0.0
 11
286.1742549999999
 21
640.7604719999999
 31
0.0
  0
LINE
  5
3B1
330
1E
100
AcDbEntity
  8
1
  6
Continuous
 62
     7
100
AcDbLine
 10
286.1742549999999
 20
640.7604719999999
 30
0.0
 11
286.140095
 21
640.6307339999999
 31
0.0
  0
LINE
  5
3B2
330
1E
100
AcDbEntity
  8
1
  6
Continuous
 62
     7
100
AcDbLine
 10
286.140095
 20
640.6307339999999
 30
0.0
 11
286.1286789999999
 21
640.5
 31
0.0
  0
LINE
  5
3B3
330
1E
100
AcDbEntity
  8
1
  6
Continuous
 62
     7
100
AcDbLine
 10
181.25
 20
642.0
 30
0.0
 11
181.2553649999999
 21
641.989771
 31
0.0
  0
LINE
  5
3B4
330
1E
100
AcDbEntity
  8
1
  6
Continuous
 62
     7
100
AcDbLine
 10
181.2553649999999
 20
641.989771
 30
0.0
 11
181.2712919999999
 21
641.9593629999999
 31
0.0
  0
LINE
  5
3B5
330
1E
100
AcDbEntity
  8
1
  6
Continuous
 62
     7
100
AcDbLine
 10
181.2712919999999
 20
641.9593629999999
 30
0.0
 11
181.2971469999999
 21
641.9096049999999
 31
0.0
  0
LINE
  5
3B6
330
1E
100
AcDbEntity
  8
1
  6
Continuous
 62
     7
100
AcDbLine
 10
181.2971469999999
 20
641.9096049999999
 30
0.0
 11
181.331509
 21
641.841855
 31
0.0
  0
LINE
  5
3B7
330
1E
100
AcDbEntity
  8
1
  6
Continuous
 62
     7
100
AcDbLine
 10
181.331509
 20
641.841855
 30
0.0
 11
181.371776
 21
641.757961
 31
0.0
  0
LINE
  5
3B8
330
1E
100
AcDbEntity
  8
1
  6
Continuous
 62
     7
100
AcDbLine
 10
181.371776
 20
641.757961
 30
0.0
 11
181.4138879999999
 21
641.660211
 31
0.0
  0
LINE
  5
3B9
330
1E
100
AcDbEntity
  8
1
  6
Continuous
 62
     7
100
AcDbLine
 10
181.4138879999999
 20
641.660211
 30
0.0
 11
181.452333
 21
641.5512719999999
 31
0.0
  0
LINE
  5
3BA
330
1E
100
AcDbEntity
  8
1
  6
Continuous
 62
     7
100
AcDbLine
 10
181.452333
 20
641.5512719999999
 30
0.0
 11
181.480555
 21
641.434114
 31
0.0
  0
LINE
  5
3BB
330
1E
100
AcDbEntity
  8
1
  6
Continuous
 62
     7
100
AcDbLine
 10
181.480555
 20
641.434114
 30
0.0
 11
181.491774
 21
641.3119349999999
 31
0.0
  0
LINE
  5
3BC
330
1E
100
AcDbEntity
  8
1
  6
Continuous
 62
     7
100
AcDbLine
 10
181.491774
 20
641.3119349999999
 30
0.0
 11
181.480118
 21
641.188065
 31
0.0
  0
LINE
  5
3BD
330
1E
100
AcDbEntity
  8
1
  6
Continuous
 62
     7
100
AcDbLine
 10
181.480118
 20
641.188065
 30
0.0
 11
181.441856
 21
641.0658859999999
 31
0.0
  0
LINE
  5
3BE
330
1E
100
AcDbEntity
  8
1
  6
Continuous
 62
     7
100
AcDbLine
 10
181.441856
 20
641.0658859999999
 30
0.0
 11
181.3764759999999
 21
640.948728
 31
0.0
  0
LINE
  5
3BF
330
1E
100
AcDbEntity
  8
1
  6
Continuous
 62
     7
100
AcDbLine
 10
181.3764759999999
 20
640.948728
 30
0.0
 11
181.2873409999999
 21
640.8397889999999
 31
0.0
  0
LINE
  5
3C0
330
1E
100
AcDbEntity
  8
1
  6
Continuous
 62
     7
100
AcDbLine
 10
181.2873409999999
 20
640.8397889999999
 30
0.0
 11
181.181722
 21
640.7420389999999
 31
0.0
  0
LINE
  5
3C1
330
1E
100
AcDbEntity
  8
1
  6
Continuous
 62
     7
100
AcDbLine
 10
181.181722
 20
640.7420389999999
 30
0.0
 11
181.0701159999999
 21
640.658145
 31
0.0
  0
LINE
  5
3C2
330
1E
100
AcDbEntity
  8
1
  6
Continuous
 62
     7
100
AcDbLine
 10
181.0701159999999
 20
640.658145
 30
0.0
 11
180.96492
 21
640.590395
 31
0.0
  0
LINE
  5
3C3
330
1E
100
AcDbEntity
  8
1
  6
Continuous
 62
     7
100
AcDbLine
 10
180.96492
 20
640.590395
 30
0.0
 11
180.878655
 21
640.540637
 31
0.0
  0
LINE
  5
3C4
330
1E
100
AcDbEntity
  8
1
  6
Continuous
 62
     7
100
AcDbLine
 10
180.878655
 20
640.540637
 30
0.0
 11
180.82205
 21
640.510229
 31
0.0
  0
LINE
  5
3C5
330
1E
100
AcDbEntity
  8
1
  6
Continuous
 62
     7
100
AcDbLine
 10
180.82205
 20
640.510229
 30
0.0
 11
180.802332
 21
640.5
 31
0.0
  0
LINE
  5
3C6
330
1E
100
AcDbEntity
  8
1
  6
Continuous
 62
     7
100
AcDbLine
 10
180.802332
 20
640.5
 30
0.0
 11
180.7822699999999
 21
640.489771
 31
0.0
  0
LINE
  5
3C7
330
1E
100
AcDbEntity
  8
1
  6
Continuous
 62
     7
100
AcDbLine
 10
180.7822699999999
 20
640.489771
 30
0.0
 11
180.7206219999999
 21
640.4593629999999
 31
0.0
  0
LINE
  5
3C8
330
1E
100
AcDbEntity
  8
1
  6
Continuous
 62
     7
100
AcDbLine
 10
180.7206219999999
 20
640.4593629999999
 30
0.0
 11
180.613385
 21
640.4096049999999
 31
0.0
  0
LINE
  5
3C9
330
1E
100
AcDbEntity
  8
1
  6
Continuous
 62
     7
100
AcDbLine
 10
180.613385
 20
640.4096049999999
 30
0.0
 11
180.455109
 21
640.341855
 31
0.0
  0
LINE
  5
3CA
330
1E
100
AcDbEntity
  8
1
  6
Continuous
 62
     7
100
AcDbLine
 10
180.455109
 20
640.341855
 30
0.0
 11
180.24046
 21
640.257961
 31
0.0
  0
LINE
  5
3CB
330
1E
100
AcDbEntity
  8
1
  6
Continuous
 62
     7
100
AcDbLine
 10
180.24046
 20
640.257961
 30
0.0
 11
179.9659399999999
 21
640.1602109999999
 31
0.0
  0
LINE
  5
3CC
330
1E
100
AcDbEntity
  8
1
  6
Continuous
 62
     7
100
AcDbLine
 10
179.9659399999999
 20
640.1602109999999
 30
0.0
 11
179.631421
 21
640.0512719999999
 31
0.0
  0
LINE
  5
3CD
330
1E
100
AcDbEntity
  8
1
  6
Continuous
 62
     7
100
AcDbLine
 10
179.631421
 20
640.0512719999999
 30
0.0
 11
179.2411889999999
 21
639.934114
 31
0.0
  0
LINE
  5
3CE
330
1E
100
AcDbEntity
  8
1
  6
Continuous
 62
     7
100
AcDbLine
 10
179.2411889999999
 20
639.934114
 30
0.0
 11
178.804308
 21
639.8119349999999
 31
0.0
  0
LINE
  5
3CF
330
1E
100
AcDbEntity
  8
1
  6
Continuous
 62
     7
100
AcDbLine
 10
178.804308
 20
639.8119349999999
 30
0.0
 11
178.3342509999999
 21
639.688065
 31
0.0
  0
LINE
  5
3D0
330
1E
100
AcDbEntity
  8
1
  6
Continuous
 62
     7
100
AcDbLine
 10
178.3342509999999
 20
639.688065
 30
0.0
 11
177.8478889999999
 21
639.565886
 31
0.0
  0
LINE
  5
3D1
330
1E
100
AcDbEntity
  8
1
  6
Continuous
 62
     7
100
AcDbLine
 10
177.8478889999999
 20
639.565886
 30
0.0
 11
177.364054
 21
639.448728
 31
0.0
  0
LINE
  5
3D2
330
1E
100
AcDbEntity
  8
1
  6
Continuous
 62
     7
100
AcDbLine
 10
177.364054
 20
639.448728
 30
0.0
 11
176.901956
 21
639.339789
 31
0.0
  0
LINE
  5
3D3
330
1E
100
AcDbEntity
  8
1
  6
Continuous
 62
     7
100
AcDbLine
 10
176.901956
 20
639.339789
 30
0.0
 11
176.479705
 21
639.2420389999999
 31
0.0
  0
LINE
  5
3D4
330
1E
100
AcDbEntity
  8
1
  6
Continuous
 62
     7
100
AcDbLine
 10
176.479705
 20
639.2420389999999
 30
0.0
 11
176.1131819999999
 21
639.158145
 31
0.0
  0
LINE
  5
3D5
330
1E
100
AcDbEntity
  8
1
  6
Continuous
 62
     7
100
AcDbLine
 10
176.1131819999999
 20
639.158145
 30
0.0
 11
175.815348
 21
639.0903950000001
 31
0.0
  0
LINE
  5
3D6
330
1E
100
AcDbEntity
  8
1
  6
Continuous
 62
     7
100
AcDbLine
 10
175.815348
 20
639.0903950000001
 30
0.0
 11
175.595992
 21
639.040637
 31
0.0
  0
LINE
  5
3D7
330
1E
100
AcDbEntity
  8
1
  6
Continuous
 62
     7
100
AcDbLine
 10
175.595992
 20
639.040637
 30
0.0
 11
175.461811
 21
639.0102289999999
 31
0.0
  0
LINE
  5
3D8
330
1E
100
AcDbEntity
  8
1
  6
Continuous
 62
     7
100
AcDbLine
 10
175.461811
 20
639.0102289999999
 30
0.0
 11
175.416667
 21
639.0
 31
0.0
  0
LINE
  5
3D9
330
1E
100
AcDbEntity
  8
1
  6
Continuous
 62
     7
100
AcDbLine
 10
418.75
 20
642.0
 30
0.0
 11
418.744635
 21
641.989771
 31
0.0
  0
LINE
  5
3DA
330
1E
100
AcDbEntity
  8
1
  6
Continuous
 62
     7
100
AcDbLine
 10
418.744635
 20
641.989771
 30
0.0
 11
418.7287079999999
 21
641.9593629999999
 31
0.0
  0
LINE
  5
3DB
330
1E
100
AcDbEntity
  8
1
  6
Continuous
 62
     7
100
AcDbLine
 10
418.7287079999999
 20
641.9593629999999
 30
0.0
 11
418.702853
 21
641.9096049999999
 31
0.0
  0
LINE
  5
3DC
330
1E
100
AcDbEntity
  8
1
  6
Continuous
 62
     7
100
AcDbLine
 10
418.702853
 20
641.9096049999999
 30
0.0
 11
418.668491
 21
641.841855
 31
0.0
  0
LINE
  5
3DD
330
1E
100
AcDbEntity
  8
1
  6
Continuous
 62
     7
100
AcDbLine
 10
418.668491
 20
641.841855
 30
0.0
 11
418.628224
 21
641.757961
 31
0.0
  0
LINE
  5
3DE
330
1E
100
AcDbEntity
  8
1
  6
Continuous
 62
     7
100
AcDbLine
 10
418.628224
 20
641.757961
 30
0.0
 11
418.586112
 21
641.660211
 31
0.0
  0
LINE
  5
3DF
330
1E
100
AcDbEntity
  8
1
  6
Continuous
 62
     7
100
AcDbLine
 10
418.586112
 20
641.660211
 30
0.0
 11
418.5476669999999
 21
641.5512719999999
 31
0.0
  0
LINE
  5
3E0
330
1E
100
AcDbEntity
  8
1
  6
Continuous
 62
     7
100
AcDbLine
 10
418.5476669999999
 20
641.5512719999999
 30
0.0
 11
418.519445
 21
641.434114
 31
0.0
  0
LINE
  5
3E1
330
1E
100
AcDbEntity
  8
1
  6
Continuous
 62
     7
100
AcDbLine
 10
418.519445
 20
641.434114
 30
0.0
 11
418.5082259999999
 21
641.3119349999999
 31
0.0
  0
LINE
  5
3E2
330
1E
100
AcDbEntity
  8
1
  6
Continuous
 62
     7
100
AcDbLine
 10
418.5082259999999
 20
641.3119349999999
 30
0.0
 11
418.519882
 21
641.188065
 31
0.0
  0
LINE
  5
3E3
330
1E
100
AcDbEntity
  8
1
  6
Continuous
 62
     7
100
AcDbLine
 10
418.519882
 20
641.188065
 30
0.0
 11
418.5581439999999
 21
641.0658859999999
 31
0.0
  0
LINE
  5
3E4
330
1E
100
AcDbEntity
  8
1
  6
Continuous
 62
     7
100
AcDbLine
 10
418.5581439999999
 20
641.0658859999999
 30
0.0
 11
418.623524
 21
640.948728
 31
0.0
  0
LINE
  5
3E5
330
1E
100
AcDbEntity
  8
1
  6
Continuous
 62
     7
100
AcDbLine
 10
418.623524
 20
640.948728
 30
0.0
 11
418.712659
 21
640.8397889999999
 31
0.0
  0
LINE
  5
3E6
330
1E
100
AcDbEntity
  8
1
  6
Continuous
 62
     7
100
AcDbLine
 10
418.712659
 20
640.8397889999999
 30
0.0
 11
418.8182779999999
 21
640.7420389999999
 31
0.0
  0
LINE
  5
3E7
330
1E
100
AcDbEntity
  8
1
  6
Continuous
 62
     7
100
AcDbLine
 10
418.8182779999999
 20
640.7420389999999
 30
0.0
 11
418.9298839999999
 21
640.658145
 31
0.0
  0
LINE
  5
3E8
330
1E
100
AcDbEntity
  8
1
  6
Continuous
 62
     7
100
AcDbLine
 10
418.9298839999999
 20
640.658145
 30
0.0
 11
419.03508
 21
640.590395
 31
0.0
  0
LINE
  5
3E9
330
1E
100
AcDbEntity
  8
1
  6
Continuous
 62
     7
100
AcDbLine
 10
419.03508
 20
640.590395
 30
0.0
 11
419.121345
 21
640.540637
 31
0.0
  0
LINE
  5
3EA
330
1E
100
AcDbEntity
  8
1
  6
Continuous
 62
     7
100
AcDbLine
 10
419.121345
 20
640.540637
 30
0.0
 11
419.1779499999999
 21
640.510229
 31
0.0
  0
LINE
  5
3EB
330
1E
100
AcDbEntity
  8
1
  6
Continuous
 62
     7
100
AcDbLine
 10
419.1779499999999
 20
640.510229
 30
0.0
 11
419.197668
 21
640.5
 31
0.0
  0
LINE
  5
3EC
330
1E
100
AcDbEntity
  8
1
  6
Continuous
 62
     7
100
AcDbLine
 10
419.197668
 20
640.5
 30
0.0
 11
419.2177299999999
 21
640.489771
 31
0.0
  0
LINE
  5
3ED
330
1E
100
AcDbEntity
  8
1
  6
Continuous
 62
     7
100
AcDbLine
 10
419.2177299999999
 20
640.489771
 30
0.0
 11
419.2793779999999
 21
640.4593629999999
 31
0.0
  0
LINE
  5
3EE
330
1E
100
AcDbEntity
  8
1
  6
Continuous
 62
     7
100
AcDbLine
 10
419.2793779999999
 20
640.4593629999999
 30
0.0
 11
419.3866149999999
 21
640.4096049999999
 31
0.0
  0
LINE
  5
3EF
330
1E
100
AcDbEntity
  8
1
  6
Continuous
 62
     7
100
AcDbLine
 10
419.3866149999999
 20
640.4096049999999
 30
0.0
 11
419.544891
 21
640.341855
 31
0.0
  0
LINE
  5
3F0
330
1E
100
AcDbEntity
  8
1
  6
Continuous
 62
     7
100
AcDbLine
 10
419.544891
 20
640.341855
 30
0.0
 11
419.7595399999999
 21
640.257961
 31
0.0
  0
LINE
  5
3F1
330
1E
100
AcDbEntity
  8
1
  6
Continuous
 62
     7
100
AcDbLine
 10
419.7595399999999
 20
640.257961
 30
0.0
 11
420.0340599999999
 21
640.1602109999999
 31
0.0
  0
LINE
  5
3F2
330
1E
100
AcDbEntity
  8
1
  6
Continuous
 62
     7
100
AcDbLine
 10
420.0340599999999
 20
640.1602109999999
 30
0.0
 11
420.3685789999999
 21
640.0512719999999
 31
0.0
  0
LINE
  5
3F3
330
1E
100
AcDbEntity
  8
1
  6
Continuous
 62
     7
100
AcDbLine
 10
420.3685789999999
 20
640.0512719999999
 30
0.0
 11
420.758811
 21
639.934114
 31
0.0
  0
LINE
  5
3F4
330
1E
100
AcDbEntity
  8
1
  6
Continuous
 62
     7
100
AcDbLine
 10
420.758811
 20
639.934114
 30
0.0
 11
421.195692
 21
639.8119349999999
 31
0.0
  0
LINE
  5
3F5
330
1E
100
AcDbEntity
  8
1
  6
Continuous
 62
     7
100
AcDbLine
 10
421.195692
 20
639.8119349999999
 30
0.0
 11
421.665749
 21
639.688065
 31
0.0
  0
LINE
  5
3F6
330
1E
100
AcDbEntity
  8
1
  6
Continuous
 62
     7
100
AcDbLine
 10
421.665749
 20
639.688065
 30
0.0
 11
422.152111
 21
639.565886
 31
0.0
  0
LINE
  5
3F7
330
1E
100
AcDbEntity
  8
1
  6
Continuous
 62
     7
100
AcDbLine
 10
422.152111
 20
639.565886
 30
0.0
 11
422.635946
 21
639.448728
 31
0.0
  0
LINE
  5
3F8
330
1E
100
AcDbEntity
  8
1
  6
Continuous
 62
     7
100
AcDbLine
 10
422.635946
 20
639.448728
 30
0.0
 11
423.098044
 21
639.339789
 31
0.0
  0
LINE
  5
3F9
330
1E
100
AcDbEntity
  8
1
  6
Continuous
 62
     7
100
AcDbLine
 10
423.098044
 20
639.339789
 30
0.0
 11
423.520295
 21
639.2420389999999
 31
0.0
  0
LINE
  5
3FA
330
1E
100
AcDbEntity
  8
1
  6
Continuous
 62
     7
100
AcDbLine
 10
423.520295
 20
639.2420389999999
 30
0.0
 11
423.8868179999999
 21
639.158145
 31
0.0
  0
LINE
  5
3FB
330
1E
100
AcDbEntity
  8
1
  6
Continuous
 62
     7
100
AcDbLine
 10
423.8868179999999
 20
639.158145
 30
0.0
 11
424.184652
 21
639.0903950000001
 31
0.0
  0
LINE
  5
3FC
330
1E
100
AcDbEntity
  8
1
  6
Continuous
 62
     7
100
AcDbLine
 10
424.184652
 20
639.0903950000001
 30
0.0
 11
424.404008
 21
639.040637
 31
0.0
  0
LINE
  5
3FD
330
1E
100
AcDbEntity
  8
1
  6
Continuous
 62
     7
100
AcDbLine
 10
424.404008
 20
639.040637
 30
0.0
 11
424.5381889999999
 21
639.0102289999999
 31
0.0
  0
LINE
  5
3FE
330
1E
100
AcDbEntity
  8
1
  6
Continuous
 62
     7
100
AcDbLine
 10
424.5381889999999
 20
639.0102289999999
 30
0.0
 11
424.5833329999999
 21
639.0
 31
0.0
  0
LINE
  5
3FF
330
1E
100
AcDbEntity
  8
1
  6
Continuous
 62
     7
100
AcDbLine
 10
582.0
 20
496.0
 30
0.0
 11
581.989771
 21
495.994635
 31
0.0
  0
LINE
  5
400
330
1E
100
AcDbEntity
  8
1
  6
Continuous
 62
     7
100
AcDbLine
 10
581.989771
 20
495.994635
 30
0.0
 11
581.9593629999999
 21
495.9787079999999
 31
0.0
  0
LINE
  5
401
330
1E
100
AcDbEntity
  8
1
  6
Continuous
 62
     7
100
AcDbLine
 10
581.9593629999999
 20
495.9787079999999
 30
0.0
 11
581.9096049999999
 21
495.952853
 31
0.0
  0
LINE
  5
402
330
1E
100
AcDbEntity
  8
1
  6
Continuous
 62
     7
100
AcDbLine
 10
581.9096049999999
 20
495.952853
 30
0.0
 11
581.841855
 21
495.918491
 31
0.0
  0
LINE
  5
403
330
1E
100
AcDbEntity
  8
1
  6
Continuous
 62
     7
100
AcDbLine
 10
581.841855
 20
495.918491
 30
0.0
 11
581.757961
 21
495.878224
 31
0.0
  0
LINE
  5
404
330
1E
100
AcDbEntity
  8
1
  6
Continuous
 62
     7
100
AcDbLine
 10
581.757961
 20
495.878224
 30
0.0
 11
581.6602109999999
 21
495.836112
 31
0.0
  0
LINE
  5
405
330
1E
100
AcDbEntity
  8
1
  6
Continuous
 62
     7
100
AcDbLine
 10
581.6602109999999
 20
495.836112
 30
0.0
 11
581.5512719999999
 21
495.7976669999999
 31
0.0
  0
LINE
  5
406
330
1E
100
AcDbEntity
  8
1
  6
Continuous
 62
     7
100
AcDbLine
 10
581.5512719999999
 20
495.7976669999999
 30
0.0
 11
581.434114
 21
495.7694449999999
 31
0.0
  0
LINE
  5
407
330
1E
100
AcDbEntity
  8
1
  6
Continuous
 62
     7
100
AcDbLine
 10
581.434114
 20
495.7694449999999
 30
0.0
 11
581.311935
 21
495.7582259999999
 31
0.0
  0
LINE
  5
408
330
1E
100
AcDbEntity
  8
1
  6
Continuous
 62
     7
100
AcDbLine
 10
581.311935
 20
495.7582259999999
 30
0.0
 11
581.188065
 21
495.769882
 31
0.0
  0
LINE
  5
409
330
1E
100
AcDbEntity
  8
1
  6
Continuous
 62
     7
100
AcDbLine
 10
581.188065
 20
495.769882
 30
0.0
 11
581.065886
 21
495.8081439999999
 31
0.0
  0
LINE
  5
40A
330
1E
100
AcDbEntity
  8
1
  6
Continuous
 62
     7
100
AcDbLine
 10
581.065886
 20
495.8081439999999
 30
0.0
 11
580.948728
 21
495.873524
 31
0.0
  0
LINE
  5
40B
330
1E
100
AcDbEntity
  8
1
  6
Continuous
 62
     7
100
AcDbLine
 10
580.948728
 20
495.873524
 30
0.0
 11
580.839789
 21
495.962659
 31
0.0
  0
LINE
  5
40C
330
1E
100
AcDbEntity
  8
1
  6
Continuous
 62
     7
100
AcDbLine
 10
580.839789
 20
495.962659
 30
0.0
 11
580.7420389999999
 21
496.0682779999999
 31
0.0
  0
LINE
  5
40D
330
1E
100
AcDbEntity
  8
1
  6
Continuous
 62
     7
100
AcDbLine
 10
580.7420389999999
 20
496.0682779999999
 30
0.0
 11
580.658145
 21
496.1798839999999
 31
0.0
  0
LINE
  5
40E
330
1E
100
AcDbEntity
  8
1
  6
Continuous
 62
     7
100
AcDbLine
 10
580.658145
 20
496.1798839999999
 30
0.0
 11
580.590395
 21
496.28508
 31
0.0
  0
LINE
  5
40F
330
1E
100
AcDbEntity
  8
1
  6
Continuous
 62
     7
100
AcDbLine
 10
580.590395
 20
496.28508
 30
0.0
 11
580.540637
 21
496.371345
 31
0.0
  0
LINE
  5
410
330
1E
100
AcDbEntity
  8
1
  6
Continuous
 62
     7
100
AcDbLine
 10
580.540637
 20
496.371345
 30
0.0
 11
580.5102289999999
 21
496.4279499999999
 31
0.0
  0
LINE
  5
411
330
1E
100
AcDbEntity
  8
1
  6
Continuous
 62
     7
100
AcDbLine
 10
580.5102289999999
 20
496.4279499999999
 30
0.0
 11
580.4999999999999
 21
496.4476679999999
 31
0.0
  0
LINE
  5
412
330
1E
100
AcDbEntity
  8
1
  6
Continuous
 62
     7
100
AcDbLine
 10
580.4999999999999
 20
496.4476679999999
 30
0.0
 11
580.489771
 21
496.4677299999999
 31
0.0
  0
LINE
  5
413
330
1E
100
AcDbEntity
  8
1
  6
Continuous
 62
     7
100
AcDbLine
 10
580.489771
 20
496.4677299999999
 30
0.0
 11
580.4593629999999
 21
496.529378
 31
0.0
  0
LINE
  5
414
330
1E
100
AcDbEntity
  8
1
  6
Continuous
 62
     7
100
AcDbLine
 10
580.4593629999999
 20
496.529378
 30
0.0
 11
580.4096049999999
 21
496.636615
 31
0.0
  0
LINE
  5
415
330
1E
100
AcDbEntity
  8
1
  6
Continuous
 62
     7
100
AcDbLine
 10
580.4096049999999
 20
496.636615
 30
0.0
 11
580.3418549999999
 21
496.794891
 31
0.0
  0
LINE
  5
416
330
1E
100
AcDbEntity
  8
1
  6
Continuous
 62
     7
100
AcDbLine
 10
580.3418549999999
 20
496.794891
 30
0.0
 11
580.257961
 21
497.0095399999999
 31
0.0
  0
LINE
  5
417
330
1E
100
AcDbEntity
  8
1
  6
Continuous
 62
     7
100
AcDbLine
 10
580.257961
 20
497.0095399999999
 30
0.0
 11
580.160211
 21
497.2840599999999
 31
0.0
  0
LINE
  5
418
330
1E
100
AcDbEntity
  8
1
  6
Continuous
 62
     7
100
AcDbLine
 10
580.160211
 20
497.2840599999999
 30
0.0
 11
580.0512719999999
 21
497.618579
 31
0.0
  0
LINE
  5
419
330
1E
100
AcDbEntity
  8
1
  6
Continuous
 62
     7
100
AcDbLine
 10
580.0512719999999
 20
497.618579
 30
0.0
 11
579.934114
 21
498.008811
 31
0.0
  0
LINE
  5
41A
330
1E
100
AcDbEntity
  8
1
  6
Continuous
 62
     7
100
AcDbLine
 10
579.934114
 20
498.008811
 30
0.0
 11
579.8119349999999
 21
498.445692
 31
0.0
  0
LINE
  5
41B
330
1E
100
AcDbEntity
  8
1
  6
Continuous
 62
     7
100
AcDbLine
 10
579.8119349999999
 20
498.445692
 30
0.0
 11
579.688065
 21
498.915749
 31
0.0
  0
LINE
  5
41C
330
1E
100
AcDbEntity
  8
1
  6
Continuous
 62
     7
100
AcDbLine
 10
579.688065
 20
498.915749
 30
0.0
 11
579.5658859999999
 21
499.402111
 31
0.0
  0
LINE
  5
41D
330
1E
100
AcDbEntity
  8
1
  6
Continuous
 62
     7
100
AcDbLine
 10
579.5658859999999
 20
499.402111
 30
0.0
 11
579.4487280000001
 21
499.885946
 31
0.0
  0
LINE
  5
41E
330
1E
100
AcDbEntity
  8
1
  6
Continuous
 62
     7
100
AcDbLine
 10
579.4487280000001
 20
499.885946
 30
0.0
 11
579.339789
 21
500.348044
 31
0.0
  0
LINE
  5
41F
330
1E
100
AcDbEntity
  8
1
  6
Continuous
 62
     7
100
AcDbLine
 10
579.339789
 20
500.348044
 30
0.0
 11
579.242039
 21
500.770295
 31
0.0
  0
LINE
  5
420
330
1E
100
AcDbEntity
  8
1
  6
Continuous
 62
     7
100
AcDbLine
 10
579.242039
 20
500.770295
 30
0.0
 11
579.1581449999999
 21
501.1368179999999
 31
0.0
  0
LINE
  5
421
330
1E
100
AcDbEntity
  8
1
  6
Continuous
 62
     7
100
AcDbLine
 10
579.1581449999999
 20
501.1368179999999
 30
0.0
 11
579.090395
 21
501.434652
 31
0.0
  0
LINE
  5
422
330
1E
100
AcDbEntity
  8
1
  6
Continuous
 62
     7
100
AcDbLine
 10
579.090395
 20
501.434652
 30
0.0
 11
579.040637
 21
501.654008
 31
0.0
  0
LINE
  5
423
330
1E
100
AcDbEntity
  8
1
  6
Continuous
 62
     7
100
AcDbLine
 10
579.040637
 20
501.654008
 30
0.0
 11
579.010229
 21
501.7881889999999
 31
0.0
  0
LINE
  5
424
330
1E
100
AcDbEntity
  8
1
  6
Continuous
 62
     7
100
AcDbLine
 10
579.010229
 20
501.7881889999999
 30
0.0
 11
579.0
 21
501.8333329999999
 31
0.0
  0
LINE
  5
425
330
1E
100
AcDbEntity
  8
1
  6
Continuous
 62
     7
100
AcDbLine
 10
582.0
 20
308.7499999999999
 30
0.0
 11
581.989771
 21
308.7553649999999
 31
0.0
  0
LINE
  5
426
330
1E
100
AcDbEntity
  8
1
  6
Continuous
 62
     7
100
AcDbLine
 10
581.989771
 20
308.7553649999999
 30
0.0
 11
581.9593629999999
 21
308.771292
 31
0.0
  0
LINE
  5
427
330
1E
100
AcDbEntity
  8
1
  6
Continuous
 62
     7
100
AcDbLine
 10
581.9593629999999
 20
308.771292
 30
0.0
 11
581.9096049999999
 21
308.7971469999999
 31
0.0
  0
LINE
  5
428
330
1E
100
AcDbEntity
  8
1
  6
Continuous
 62
     7
100
AcDbLine
 10
581.9096049999999
 20
308.7971469999999
 30
0.0
 11
581.841855
 21
308.831509
 31
0.0
  0
LINE
  5
429
330
1E
100
AcDbEntity
  8
1
  6
Continuous
 62
     7
100
AcDbLine
 10
581.841855
 20
308.831509
 30
0.0
 11
581.757961
 21
308.8717759999999
 31
0.0
  0
LINE
  5
42A
330
1E
100
AcDbEntity
  8
1
  6
Continuous
 62
     7
100
AcDbLine
 10
581.757961
 20
308.8717759999999
 30
0.0
 11
581.6602109999999
 21
308.913888
 31
0.0
  0
LINE
  5
42B
330
1E
100
AcDbEntity
  8
1
  6
Continuous
 62
     7
100
AcDbLine
 10
581.6602109999999
 20
308.913888
 30
0.0
 11
581.5512719999999
 21
308.952333
 31
0.0
  0
LINE
  5
42C
330
1E
100
AcDbEntity
  8
1
  6
Continuous
 62
     7
100
AcDbLine
 10
581.5512719999999
 20
308.952333
 30
0.0
 11
581.434114
 21
308.9805549999999
 31
0.0
  0
LINE
  5
42D
330
1E
100
AcDbEntity
  8
1
  6
Continuous
 62
     7
100
AcDbLine
 10
581.434114
 20
308.9805549999999
 30
0.0
 11
581.311935
 21
308.991774
 31
0.0
  0
LINE
  5
42E
330
1E
100
AcDbEntity
  8
1
  6
Continuous
 62
     7
100
AcDbLine
 10
581.311935
 20
308.991774
 30
0.0
 11
581.188065
 21
308.980118
 31
0.0
  0
LINE
  5
42F
330
1E
100
AcDbEntity
  8
1
  6
Continuous
 62
     7
100
AcDbLine
 10
581.188065
 20
308.980118
 30
0.0
 11
581.065886
 21
308.941856
 31
0.0
  0
LINE
  5
430
330
1E
100
AcDbEntity
  8
1
  6
Continuous
 62
     7
100
AcDbLine
 10
581.065886
 20
308.941856
 30
0.0
 11
580.948728
 21
308.8764759999999
 31
0.0
  0
LINE
  5
431
330
1E
100
AcDbEntity
  8
1
  6
Continuous
 62
     7
100
AcDbLine
 10
580.948728
 20
308.8764759999999
 30
0.0
 11
580.839789
 21
308.787341
 31
0.0
  0
LINE
  5
432
330
1E
100
AcDbEntity
  8
1
  6
Continuous
 62
     7
100
AcDbLine
 10
580.839789
 20
308.787341
 30
0.0
 11
580.7420389999999
 21
308.681722
 31
0.0
  0
LINE
  5
433
330
1E
100
AcDbEntity
  8
1
  6
Continuous
 62
     7
100
AcDbLine
 10
580.7420389999999
 20
308.681722
 30
0.0
 11
580.658145
 21
308.570116
 31
0.0
  0
LINE
  5
434
330
1E
100
AcDbEntity
  8
1
  6
Continuous
 62
     7
100
AcDbLine
 10
580.658145
 20
308.570116
 30
0.0
 11
580.590395
 21
308.46492
 31
0.0
  0
LINE
  5
435
330
1E
100
AcDbEntity
  8
1
  6
Continuous
 62
     7
100
AcDbLine
 10
580.590395
 20
308.46492
 30
0.0
 11
580.540637
 21
308.3786549999999
 31
0.0
  0
LINE
  5
436
330
1E
100
AcDbEntity
  8
1
  6
Continuous
 62
     7
100
AcDbLine
 10
580.540637
 20
308.3786549999999
 30
0.0
 11
580.5102289999999
 21
308.3220499999999
 31
0.0
  0
LINE
  5
437
330
1E
100
AcDbEntity
  8
1
  6
Continuous
 62
     7
100
AcDbLine
 10
580.5102289999999
 20
308.3220499999999
 30
0.0
 11
580.4999999999999
 21
308.3023319999999
 31
0.0
  0
LINE
  5
438
330
1E
100
AcDbEntity
  8
1
  6
Continuous
 62
     7
100
AcDbLine
 10
580.4999999999999
 20
308.3023319999999
 30
0.0
 11
580.489771
 21
308.28227
 31
0.0
  0
LINE
  5
439
330
1E
100
AcDbEntity
  8
1
  6
Continuous
 62
     7
100
AcDbLine
 10
580.489771
 20
308.28227
 30
0.0
 11
580.4593629999999
 21
308.220622
 31
0.0
  0
LINE
  5
43A
330
1E
100
AcDbEntity
  8
1
  6
Continuous
 62
     7
100
AcDbLine
 10
580.4593629999999
 20
308.220622
 30
0.0
 11
580.4096049999999
 21
308.113385
 31
0.0
  0
LINE
  5
43B
330
1E
100
AcDbEntity
  8
1
  6
Continuous
 62
     7
100
AcDbLine
 10
580.4096049999999
 20
308.113385
 30
0.0
 11
580.3418549999999
 21
307.9551089999999
 31
0.0
  0
LINE
  5
43C
330
1E
100
AcDbEntity
  8
1
  6
Continuous
 62
     7
100
AcDbLine
 10
580.3418549999999
 20
307.9551089999999
 30
0.0
 11
580.257961
 21
307.7404599999999
 31
0.0
  0
LINE
  5
43D
330
1E
100
AcDbEntity
  8
1
  6
Continuous
 62
     7
100
AcDbLine
 10
580.257961
 20
307.7404599999999
 30
0.0
 11
580.160211
 21
307.4659399999999
 31
0.0
  0
LINE
  5
43E
330
1E
100
AcDbEntity
  8
1
  6
Continuous
 62
     7
100
AcDbLine
 10
580.160211
 20
307.4659399999999
 30
0.0
 11
580.0512719999999
 21
307.131421
 31
0.0
  0
LINE
  5
43F
330
1E
100
AcDbEntity
  8
1
  6
Continuous
 62
     7
100
AcDbLine
 10
580.0512719999999
 20
307.131421
 30
0.0
 11
579.934114
 21
306.741189
 31
0.0
  0
LINE
  5
440
330
1E
100
AcDbEntity
  8
1
  6
Continuous
 62
     7
100
AcDbLine
 10
579.934114
 20
306.741189
 30
0.0
 11
579.8119349999999
 21
306.3043079999999
 31
0.0
  0
LINE
  5
441
330
1E
100
AcDbEntity
  8
1
  6
Continuous
 62
     7
100
AcDbLine
 10
579.8119349999999
 20
306.3043079999999
 30
0.0
 11
579.688065
 21
305.834251
 31
0.0
  0
LINE
  5
442
330
1E
100
AcDbEntity
  8
1
  6
Continuous
 62
     7
100
AcDbLine
 10
579.688065
 20
305.834251
 30
0.0
 11
579.5658859999999
 21
305.347889
 31
0.0
  0
LINE
  5
443
330
1E
100
AcDbEntity
  8
1
  6
Continuous
 62
     7
100
AcDbLine
 10
579.5658859999999
 20
305.347889
 30
0.0
 11
579.4487280000001
 21
304.864054
 31
0.0
  0
LINE
  5
444
330
1E
100
AcDbEntity
  8
1
  6
Continuous
 62
     7
100
AcDbLine
 10
579.4487280000001
 20
304.864054
 30
0.0
 11
579.339789
 21
304.4019559999999
 31
0.0
  0
LINE
  5
445
330
1E
100
AcDbEntity
  8
1
  6
Continuous
 62
     7
100
AcDbLine
 10
579.339789
 20
304.4019559999999
 30
0.0
 11
579.242039
 21
303.9797049999999
 31
0.0
  0
LINE
  5
446
330
1E
100
AcDbEntity
  8
1
  6
Continuous
 62
     7
100
AcDbLine
 10
579.242039
 20
303.9797049999999
 30
0.0
 11
579.1581449999999
 21
303.613182
 31
0.0
  0
LINE
  5
447
330
1E
100
AcDbEntity
  8
1
  6
Continuous
 62
     7
100
AcDbLine
 10
579.1581449999999
 20
303.613182
 30
0.0
 11
579.090395
 21
303.3153479999999
 31
0.0
  0
LINE
  5
448
330
1E
100
AcDbEntity
  8
1
  6
Continuous
 62
     7
100
AcDbLine
 10
579.090395
 20
303.3153479999999
 30
0.0
 11
579.040637
 21
303.0959919999999
 31
0.0
  0
LINE
  5
449
330
1E
100
AcDbEntity
  8
1
  6
Continuous
 62
     7
100
AcDbLine
 10
579.040637
 20
303.0959919999999
 30
0.0
 11
579.010229
 21
302.961811
 31
0.0
  0
LINE
  5
44A
330
1E
100
AcDbEntity
  8
1
  6
Continuous
 62
     7
100
AcDbLine
 10
579.010229
 20
302.961811
 30
0.0
 11
579.0
 21
302.916667
 31
0.0
  0
LINE
  5
44B
330
1E
100
AcDbEntity
  8
1
  6
Continuous
 62
     7
100
AcDbLine
 10
214.5
 20
617.0
 30
0.0
 11
214.5
 21
637.5
 31
0.0
  0
LINE
  5
44C
330
1E
100
AcDbEntity
  8
1
  6
Continuous
 62
     7
100
AcDbLine
 10
270.5
 20
617.0
 30
0.0
 11
270.5
 21
637.5
 31
0.0
  0
LINE
  5
44D
330
1E
100
AcDbEntity
  8
1
  6
Continuous
 62
     7
100
AcDbLine
 10
214.5
 20
634.0
 30
0.0
 11
270.5
 21
634.0
 31
0.0
  0
LINE
  5
44E
330
1E
100
AcDbEntity
  8
1
  6
Continuous
 62
     7
100
AcDbLine
 10
237.5
 20
634.0
 30
0.0
 11
237.5
 21
637.5
 31
0.0
  0
LINE
  5
44F
330
1E
100
AcDbEntity
  8
1
  6
Continuous
 62
     7
100
AcDbLine
 10
247.5
 20
634.0
 30
0.0
 11
247.5
 21
637.5
 31
0.0
  0
LINE
  5
450
330
1E
100
AcDbEntity
  8
1
  6
Continuous
 62
     7
100
AcDbLine
 10
237.5
 20
636.7
 30
0.0
 11
247.5
 21
636.7
 31
0.0
  0
LINE
  5
451
330
1E
100
AcDbEntity
  8
1
  6
Continuous
 62
     7
100
AcDbLine
 10
237.5
 20
634.7999999999999
 30
0.0
 11
247.5
 21
634.7999999999999
 31
0.0
  0
LINE
  5
452
330
1E
100
AcDbEntity
  8
1
  6
Continuous
 62
     7
100
AcDbLine
 10
216.5
 20
628.0
 30
0.0
 11
216.5
 21
623.0
 31
0.0
  0
LINE
  5
453
330
1E
100
AcDbEntity
  8
1
  6
Continuous
 62
     7
100
AcDbLine
 10
216.5
 20
623.0
 30
0.0
 11
223.4999999999999
 21
623.0
 31
0.0
  0
LINE
  5
454
330
1E
100
AcDbEntity
  8
1
  6
Continuous
 62
     7
100
AcDbLine
 10
223.4999999999999
 20
623.0
 30
0.0
 11
223.4999999999999
 21
628.0
 31
0.0
  0
LINE
  5
455
330
1E
100
AcDbEntity
  8
1
  6
Continuous
 62
     7
100
AcDbLine
 10
223.4999999999999
 20
628.0
 30
0.0
 11
216.5
 21
628.0
 31
0.0
  0
CIRCLE
  5
456
330
1E
100
AcDbEntity
  8
1
  6
Continuous
 62
     7
100
AcDbCircle
 10
264.0
 20
631.5
 30
0.0
 40
1.7
  0
LINE
  5
457
330
1E
100
AcDbEntity
  8
1
  6
Continuous
 62
     7
100
AcDbLine
 10
262.8
 20
631.5
 30
0.0
 11
265.2
 21
631.5
 31
0.0
  0
LINE
  5
458
330
1E
100
AcDbEntity
  8
1
  6
Continuous
 62
     7
100
AcDbLine
 10
264.0
 20
632.7
 30
0.0
 11
264.0
 21
630.2999999999999
 31
0.0
  0
ARC
  5
459
330
1E
100
AcDbEntity
  8
1
  6
Continuous
 62
     7
100
AcDbCircle
 10
425.1555559999999
 20
628.0
 30
0.0
 40
5.344444
100
AcDbArc
 50
311.544509
 51
48.455491
  0
LINE
  5
45A
330
1E
100
AcDbEntity
  8
1
  6
Continuous
 62
     7
100
AcDbLine
 10
427.5
 20
632.0
 30
0.0
 11
428.6999999999999
 21
632.0
 31
0.0
  0
LINE
  5
45B
330
1E
100
AcDbEntity
  8
1
  6
Continuous
 62
     7
100
AcDbLine
 10
428.6999999999999
 20
632.0
 30
0.0
 11
428.6999999999999
 21
624.0
 31
0.0
  0
LINE
  5
45C
330
1E
100
AcDbEntity
  8
1
  6
Continuous
 62
     7
100
AcDbLine
 10
428.6999999999999
 20
624.0
 30
0.0
 11
427.5
 21
624.0
 31
0.0
  0
LINE
  5
45D
330
1E
100
AcDbEntity
  8
1
  6
Continuous
 62
     7
100
AcDbLine
 10
582.0
 20
486.8
 30
0.0
 11
585.0
 21
486.8
 31
0.0
  0
ARC
  5
45E
330
1E
100
AcDbEntity
  8
1
  6
Continuous
 62
     7
100
AcDbCircle
 10
585.0
 20
485.3
 30
0.0
 40
1.5
100
AcDbArc
 50
0.0
 51
90.0
  0
LINE
  5
45F
330
1E
100
AcDbEntity
  8
1
  6
Continuous
 62
     7
100
AcDbLine
 10
586.5
 20
485.3
 30
0.0
 11
586.5
 21
466.6999999999999
 31
0.0
  0
LINE
  5
460
330
1E
100
AcDbEntity
  8
1
  6
Continuous
 62
     7
100
AcDbLine
 10
585.0
 20
465.2
 30
0.0
 11
582.0
 21
465.2
 31
0.0
  0
ARC
  5
461
330
1E
100
AcDbEntity
  8
1
  6
Continuous
 62
     7
100
AcDbCircle
 10
585.0
 20
466.6999999999999
 30
0.0
 40
1.5
100
AcDbArc
 50
270.0
 51
0.0
  0
LINE
  5
462
330
1E
100
AcDbEntity
  8
1
  6
Continuous
 62
     7
100
AcDbLine
 10
582.0
 20
444.2499999999999
 30
0.0
 11
585.0
 21
444.2499999999999
 31
0.0
  0
ARC
  5
463
330
1E
100
AcDbEntity
  8
1
  6
Continuous
 62
     7
100
AcDbCircle
 10
585.0
 20
443.25
 30
0.0
 40
1.0
100
AcDbArc
 50
0.0
 51
90.0
  0
LINE
  5
464
330
1E
100
AcDbEntity
  8
1
  6
Continuous
 62
     7
100
AcDbLine
 10
586.0
 20
443.25
 30
0.0
 11
586.0
 21
436.7499999999999
 31
0.0
  0
LINE
  5
465
330
1E
100
AcDbEntity
  8
1
  6
Continuous
 62
     7
100
AcDbLine
 10
585.0
 20
435.7499999999999
 30
0.0
 11
582.0
 21
435.7499999999999
 31
0.0
  0
ARC
  5
466
330
1E
100
AcDbEntity
  8
1
  6
Continuous
 62
     7
100
AcDbCircle
 10
585.0
 20
436.7499999999999
 30
0.0
 40
1.0
100
AcDbArc
 50
270.0
 51
0.0
  0
LINE
  5
467
330
1E
100
AcDbEntity
  8
1
  6
Continuous
 62
     7
100
AcDbLine
 10
582.0
 20
369.2499999999999
 30
0.0
 11
585.0
 21
369.2499999999999
 31
0.0
  0
ARC
  5
468
330
1E
100
AcDbEntity
  8
1
  6
Continuous
 62
     7
100
AcDbCircle
 10
585.0
 20
368.25
 30
0.0
 40
1.0
100
AcDbArc
 50
0.0
 51
90.0
  0
LINE
  5
469
330
1E
100
AcDbEntity
  8
1
  6
Continuous
 62
     7
100
AcDbLine
 10
586.0
 20
368.25
 30
0.0
 11
586.0
 21
361.75
 31
0.0
  0
LINE
  5
46A
330
1E
100
AcDbEntity
  8
1
  6
Continuous
 62
     7
100
AcDbLine
 10
585.0
 20
360.7499999999999
 30
0.0
 11
582.0
 21
360.7499999999999
 31
0.0
  0
ARC
  5
46B
330
1E
100
AcDbEntity
  8
1
  6
Continuous
 62
     7
100
AcDbCircle
 10
585.0
 20
361.75
 30
0.0
 40
1.0
100
AcDbArc
 50
270.0
 51
0.0
  0
LINE
  5
46C
330
1E
100
AcDbEntity
  8
1
  6
Continuous
 62
     7
100
AcDbLine
 10
582.0
 20
341.875
 30
0.0
 11
583.1
 21
341.875
 31
0.0
  0
ARC
  5
46D
330
1E
100
AcDbEntity
  8
1
  6
Continuous
 62
     7
100
AcDbCircle
 10
583.1
 20
341.375
 30
0.0
 40
0.5
100
AcDbArc
 50
0.0
 51
90.0
  0
LINE
  5
46E
330
1E
100
AcDbEntity
  8
1
  6
Continuous
 62
     7
100
AcDbLine
 10
583.6
 20
341.375
 30
0.0
 11
583.6
 21
339.375
 31
0.0
  0
LINE
  5
46F
330
1E
100
AcDbEntity
  8
1
  6
Continuous
 62
     7
100
AcDbLine
 10
583.1
 20
338.8749999999999
 30
0.0
 11
582.0
 21
338.8749999999999
 31
0.0
  0
ARC
  5
470
330
1E
100
AcDbEntity
  8
1
  6
Continuous
 62
     7
100
AcDbCircle
 10
583.1
 20
339.375
 30
0.0
 40
0.5
100
AcDbArc
 50
270.0
 51
0.0
  0
LINE
  5
471
330
1E
100
AcDbEntity
  8
1
  6
Continuous
 62
     7
100
AcDbLine
 10
582.0
 20
322.55
 30
0.0
 11
586.0
 21
322.55
 31
0.0
  0
LINE
  5
472
330
1E
100
AcDbEntity
  8
1
  6
Continuous
 62
     7
100
AcDbLine
 10
586.0
 20
322.55
 30
0.0
 11
586.0
 21
316.7499999999999
 31
0.0
  0
LINE
  5
473
330
1E
100
AcDbEntity
  8
1
  6
Continuous
 62
     7
100
AcDbLine
 10
586.0
 20
316.7499999999999
 30
0.0
 11
582.0
 21
316.7499999999999
 31
0.0
  0
ARC
  5
480
330
1E
100
AcDbEntity
  8
1
  6
Continuous
 62
     7
100
AcDbCircle
 10
175.118783
 20
458.184965
 30
0.0
 40
30.00152
100
AcDbArc
 50
50.998406
 51
77.71958199999999
  0
ARC
  5
481
330
1E
100
AcDbEntity
  8
1
  6
Continuous
 62
     7
100
AcDbCircle
 10
424.8812169999999
 20
458.184965
 30
0.0
 40
30.00152
100
AcDbArc
 50
102.280418
 51
129.0015939999999
  0
LINE
  5
483
330
1E
100
AcDbEntity
  8
1
  6
Continuous
 62
     7
100
AcDbLine
 10
907.75
 20
402.625
 30
0.0
 11
904.7499999999999
 21
399.625
 31
0.0
  0
LINE
  5
484
330
1E
100
AcDbEntity
  8
1
  6
Continuous
 62
     7
100
AcDbLine
 10
904.7499999999999
 20
399.625
 30
0.0
 11
904.7499999999999
 21
376.6249999999999
 31
0.0
  0
LINE
  5
485
330
1E
100
AcDbEntity
  8
1
  6
Continuous
 62
     7
100
AcDbLine
 10
904.7499999999999
 20
376.6249999999999
 30
0.0
 11
939.75
 21
376.6249999999999
 31
0.0
  0
LINE
  5
486
330
1E
100
AcDbEntity
  8
1
  6
Continuous
 62
     7
100
AcDbLine
 10
939.75
 20
376.6249999999999
 30
0.0
 11
939.75
 21
402.625
 31
0.0
  0
LINE
  5
487
330
1E
100
AcDbEntity
  8
1
  6
Continuous
 62
     7
100
AcDbLine
 10
939.75
 20
402.625
 30
0.0
 11
907.75
 21
402.625
 31
0.0
  0
LINE
  5
488
330
1E
100
AcDbEntity
  8
1
  6
Continuous
 62
     7
100
AcDbLine
 10
908.75
 20
396.625
 30
0.0
 11
935.7499999999999
 21
396.625
 31
0.0
  0
LINE
  5
489
330
1E
100
AcDbEntity
  8
1
  6
Continuous
 62
     7
100
AcDbLine
 10
935.7499999999999
 20
396.625
 30
0.0
 11
908.75
 21
382.6249999999999
 31
0.0
  0
LINE
  5
48A
330
1E
100
AcDbEntity
  8
1
  6
Continuous
 62
     7
100
AcDbLine
 10
908.75
 20
382.6249999999999
 30
0.0
 11
935.7499999999999
 21
382.6249999999999
 31
0.0
  0
LINE
  5
4BA
330
1E
100
AcDbEntity
  8
0
100
AcDbLine
 10
172.5
 20
292.0
 30
0.0
 11
172.5
 21
270.0
 31
0.0
  0
LINE
  5
4BB
330
1E
100
AcDbEntity
  8
0
100
AcDbLine
 10
427.5
 20
292.0
 30
0.0
 11
427.5
 21
270.0
 31
0.0
  0
LINE
  5
4BC
330
1E
100
AcDbEntity
  8
0
100
AcDbLine
 10
173.5
 20
270.0
 30
0.0
 11
299.67
 21
270.0
 31
0.0
  0
LINE
  5
4BD
330
1E
100
AcDbEntity
  8
0
100
AcDbLine
 10
426.4999999999999
 20
270.0
 30
0.0
 11
300.3299999999999
 21
270.0
 31
0.0
  0
SOLID
  5
4BE
330
1E
100
AcDbEntity
  8
0
100
AcDbTrace
 10
173.5
 20
270.1666666666667
 30
0.0
 11
173.5
 21
269.8333333333333
 31
0.0
 12
172.5
 22
270.0
 32
0.0
 13
172.5
 23
270.0
 33
0.0
  0
SOLID
  5
4BF
330
1E
100
AcDbEntity
  8
0
100
AcDbTrace
 10
426.4999999999999
 20
270.1666666666667
 30
0.0
 11
426.4999999999999
 21
269.8333333333333
 31
0.0
 12
427.5
 22
270.0
 32
0.0
 13
427.5
 23
270.0
 33
0.0
  0
MTEXT
  5
4C0
330
1E
100
AcDbEntity
  8
0
100
AcDbMText
 10
300.0
 20
274.2853058355724
 30
0.0
 40
5.0
 41
0.0
 71
     5
 72
     1
  1
{\Ftxt.shx,bigfont.shx;255}
 73
     1
 44
1.0
  0
LINE
  5
4C5
330
1E
100
AcDbEntity
  8
0
100
AcDbLine
 10
435.5
 20
300.0
 30
0.0
 11
460.0
 21
300.0
 31
0.0
  0
LINE
  5
4C6
330
1E
100
AcDbEntity
  8
0
100
AcDbLine
 10
435.5
 20
505.0
 30
0.0
 11
460.0
 21
505.0
 31
0.0
  0
LINE
  5
4C7
330
1E
100
AcDbEntity
  8
0
100
AcDbLine
 10
460.0
 20
301.0
 30
0.0
 11
460.0
 21
402.32
 31
0.0
  0
LINE
  5
4C8
330
1E
100
AcDbEntity
  8
0
100
AcDbLine
 10
460.0
 20
504.0
 30
0.0
 11
460.0
 21
402.6799999999999
 31
0.0
  0
SOLID
  5
4C9
330
1E
100
AcDbEntity
  8
0
100
AcDbTrace
 10
459.8333333333333
 20
301.0
 30
0.0
 11
460.1666666666666
 21
301.0
 31
0.0
 12
460.0
 22
300.0
 32
0.0
 13
460.0
 23
300.0
 33
0.0
  0
SOLID
  5
4CA
330
1E
100
AcDbEntity
  8
0
100
AcDbTrace
 10
459.8333333333333
 20
504.0
 30
0.0
 11
460.1666666666667
 21
504.0
 31
0.0
 12
460.0
 22
505.0
 32
0.0
 13
460.0
 23
505.0
 33
0.0
  0
MTEXT
  5
4CB
330
1E
100
AcDbEntity
  8
0
100
AcDbMText
 10
456.0974375104279
 20
402.5000000000001
 30
0.0
 40
5.0
 41
0.0
 71
     5
 72
     1
  1
{\Ftxt.shx,bigfont.shx;205}
 11
0.0000000000000001
 21
1.0
 31
0.0
 73
     1
 44
1.0
  0
LINE
  5
4D0
330
1E
100
AcDbEntity
  8
0
100
AcDbLine
 10
540.0
 20
292.0
 30
0.0
 11
540.0
 21
270.0
 31
0.0
  0
LINE
  5
4D1
330
1E
100
AcDbEntity
  8
0
100
AcDbLine
 10
582.0
 20
292.0
 30
0.0
 11
582.0
 21
270.0
 31
0.0
  0
LINE
  5
4D2
330
1E
100
AcDbEntity
  8
0
100
AcDbLine
 10
541.0
 20
270.0
 30
0.0
 11
560.7599999999999
 21
270.0
 31
0.0
  0
LINE
  5
4D3
330
1E
100
AcDbEntity
  8
0
100
AcDbLine
 10
581.0
 20
270.0
 30
0.0
 11
561.24
 21
270.0
 31
0.0
  0
SOLID
  5
4D4
330
1E
100
AcDbEntity
  8
0
100
AcDbTrace
 10
541.0
 20
270.1666666666667
 30
0.0
 11
541.0
 21
269.8333333333333
 31
0.0
 12
540.0
 22
270.0
 32
0.0
 13
540.0
 23
270.0
 33
0.0
  0
SOLID
  5
4D5
330
1E
100
AcDbEntity
  8
0
100
AcDbTrace
 10
581.0
 20
270.1666666666667
 30
0.0
 11
581.0
 21
269.8333333333333
 31
0.0
 12
582.0
 22
270.0
 32
0.0
 13
582.0
 23
270.0
 33
0.0
  0
MTEXT
  5
4D6
330
1E
100
AcDbEntity
  8
0
100
AcDbMText
 10
561.0
 20
273.8797695225848
 30
0.0
 40
5.0
 41
0.0
 71
     5
 72
     1
  1
{\Ftxt.shx,bigfont.shx;42}
 73
     1
 44
1.0
  0
LINE
  5
4DB
330
1E
100
AcDbEntity
  8
0
100
AcDbLine
 10
802.5
 20
468.0
 30
0.0
 11
802.5
 21
530.0
 31
0.0
  0
LINE
  5
4DC
330
1E
100
AcDbEntity
  8
0
100
AcDbLine
 10
877.5
 20
468.0
 30
0.0
 11
877.5
 21
530.0
 31
0.0
  0
LINE
  5
4DD
330
1E
100
AcDbEntity
  8
0
100
AcDbLine
 10
803.5
 20
530.0
 30
0.0
 11
839.76
 21
530.0
 31
0.0
  0
LINE
  5
4DE
330
1E
100
AcDbEntity
  8
0
100
AcDbLine
 10
876.5
 20
530.0
 30
0.0
 11
840.24
 21
530.0
 31
0.0
  0
SOLID
  5
4DF
330
1E
100
AcDbEntity
  8
0
100
AcDbTrace
 10
803.5
 20
530.1666666666666
 30
0.0
 11
803.5
 21
529.8333333333333
 31
0.0
 12
802.5
 22
530.0
 32
0.0
 13
802.5
 23
530.0
 33
0.0
  0
SOLID
  5
4E0
330
1E
100
AcDbEntity
  8
0
100
AcDbTrace
 10
876.5
 20
530.1666666666666
 30
0.0
 11
876.5
 21
529.8333333333333
 31
0.0
 12
877.5
 22
530.0
 32
0.0
 13
877.5
 23
530.0
 33
0.0
  0
MTEXT
  5
4E1
330
1E
100
AcDbEntity
  8
0
100
AcDbMText
 10
840.0
 20
534.47108747854
 30
0.0
 40
5.0
 41
0.0
 71
     5
 72
     1
  1
{\Ftxt.shx,bigfont.shx;75}
 73
     1
 44
1.0
  0
LINE
  5
4E4
330
1E
100
AcDbEntity
  8
0
100
AcDbLine
 10
978.0
 20
440.0
 30
0.0
 11
1000.0
 21
440.0
 31
0.0
  0
LINE
  5
4E5
330
1E
100
AcDbEntity
  8
0
100
AcDbLine
 10
978.0
 20
505.0
 30
0.0
 11
1000.0
 21
505.0
 31
0.0
  0
LINE
  5
4E6
330
1E
100
AcDbEntity
  8
0
100
AcDbLine
 10
1000.0
 20
441.0
 30
0.0
 11
1000.0
 21
472.32
 31
0.0
  0
LINE
  5
4E7
330
1E
100
AcDbEntity
  8
0
100
AcDbLine
 10
1000.0
 20
504.0
 30
0.0
 11
1000.0
 21
472.6799999999999
 31
0.0
  0
SOLID
  5
4E8
330
1E
100
AcDbEntity
  8
0
100
AcDbTrace
 10
999.8333333333333
 20
441.0
 30
0.0
 11
1000.166666666666
 21
441.0
 31
0.0
 12
1000.0
 22
440.0
 32
0.0
 13
1000.0
 23
440.0
 33
0.0
  0
SOLID
  5
4E9
330
1E
100
AcDbEntity
  8
0
100
AcDbTrace
 10
999.8333333333333
 20
504.0
 30
0.0
 11
1000.166666666666
 21
504.0
 31
0.0
 12
1000.0
 22
505.0
 32
0.0
 13
1000.0
 23
505.0
 33
0.0
  0
MTEXT
  5
4EA
330
1E
100
AcDbEntity
  8
0
100
AcDbMText
 10
996.3747062067326
 20
472.5000000000001
 30
0.0
 40
5.0
 41
0.0
 71
     5
 72
     1
  1
{\Ftxt.shx,bigfont.shx;65}
 11
0.0000000000000001
 21
1.0
 31
0.0
 73
     1
 44
1.0
  0
LINE
  5
4EE
330
1E
100
AcDbEntity
  8
0
100
AcDbLine
 10
938.0
 20
440.0
 30
0.0
 11
1000.166666666666
 21
440.0
 31
0.0
  0
LINE
  5
4EF
330
1E
100
AcDbEntity
  8
0
100
AcDbLine
 10
938.0
 20
365.0
 30
0.0
 11
1000.166666666666
 21
365.0
 31
0.0
  0
LINE
  5
4F0
330
1E
100
AcDbEntity
  8
0
100
AcDbLine
 10
1000.0
 20
439.0
 30
0.0
 11
1000.0
 21
402.6799999999999
 31
0.0
  0
LINE
  5
4F1
330
1E
100
AcDbEntity
  8
0
100
AcDbLine
 10
1000.0
 20
366.0
 30
0.0
 11
1000.0
 21
402.32
 31
0.0
  0
SOLID
  5
4F2
330
1E
100
AcDbEntity
  8
0
100
AcDbTrace
 10
999.8333333333333
 20
439.0
 30
0.0
 11
1000.166666666666
 21
439.0
 31
0.0
 12
1000.0
 22
440.0
 32
0.0
 13
1000.0
 23
440.0
 33
0.0
  0
SOLID
  5
4F3
330
1E
100
AcDbEntity
  8
0
100
AcDbTrace
 10
999.8333333333333
 20
366.0
 30
0.0
 11
1000.166666666666
 21
366.0
 31
0.0
 12
1000.0
 22
365.0
 32
0.0
 13
1000.0
 23
365.0
 33
0.0
  0
MTEXT
  5
4F4
330
1E
100
AcDbEntity
  8
0
100
AcDbMText
 10
996.2155248346967
 20
402.5000000000002
 30
0.0
 40
5.0
 41
0.0
 71
     5
 72
     1
  1
{\Ftxt.shx,bigfont.shx;75}
 11
0.0000000000000001
 21
1.0
 31
0.0
 73
     1
 44
1.0
  0
LEADER
  5
4FA
330
1E
100
AcDbEntity
  8
0
100
AcDbLeader
  3
Standard
 40
0.18
 41
0.66
 76
     3
 10
875.3749990000001
 20
361.319392
 30
0.0
 10
822.6517240000001
 20
270.0
 30
0.0
 10
911.7625829999999
 20
270.0
 30
0.0
213
0.0
223
-0.09
233
0.0
1001
ACAD
1000
DSTYLE
1002
{
1070
   147
1040
0.09
1070
    77
1070
     0
1070
    41
1040
1.0
1070
    42
1040
0.0
1070
    43
1040
0.5
1070
    44
1040
0.0
1070
   141
1040
0.0
1070
   171
1070
     0
1002
}
  0
MTEXT
  5
4FC
330
1E
100
AcDbEntity
  8
0
100
AcDbMText
 10
839.4479485805128
 20
277.1432774953016
 30
0.0
 40
5.0
 41
19.95427879153198
 71
     1
 72
     5
  1
{\Ftxt.shx,bigfont.shx;4-M3}
 73
     1
 44
1.0
  0
MTEXT
  5
4FD
330
1E
100
AcDbEntity
  8
0
100
AcDbMText
 10
861.3695514384794
 20
277.9860943443943
 30
0.0
 40
6.0
 41
23.60788022079673
 71
     1
 72
     5
  1
{\Ftxt.shx,bigfont.shx;タップ}
 73
     1
 44
1.0
  0
ENDSEC
  0
SECTION
  2
OBJECTS
  0
DICTIONARY
  5
C
330
0
100
AcDbDictionary
281
     1
  3
ACAD_GROUP
350
D
  3
ACAD_PLOTSTYLENAME
350
E
  3
ACAD_MLINESTYLE
350
16
  3
ACAD_PLOTSETTINGS
350
18
  3
ACAD_LAYOUT
350
19
  0
DICTIONARY
  5
D
102
{ACAD_REACTORS
330
C
102
}
330
C
100
AcDbDictionary
281
     1
  0
ACDBDICTIONARYWDFLT
  5
E
102
{ACAD_REACTORS
330
C
102
}
330
C
100
AcDbDictionary
281
     1
  3
Normal
350
F
100
AcDbDictionaryWithDefault
340
F
  0
DICTIONARY
  5
16
102
{ACAD_REACTORS
330
C
102
}
330
C
100
AcDbDictionary
281
     1
  3
Standard
350
17
  0
DICTIONARY
  5
18
102
{ACAD_REACTORS
330
C
102
}
330
C
100
AcDbDictionary
281
     1
  0
DICTIONARY
  5
19
102
{ACAD_REACTORS
330
C
102
}
330
C
100
AcDbDictionary
281
     1
  3
ﾚｲｱｳﾄ1
350
1D
  3
Model
350
21
  0
ACDBPLACEHOLDER
  5
F
102
{ACAD_REACTORS
330
E
102
}
330
E
  0
MLINESTYLE
  5
17
102
{ACAD_REACTORS
330
16
102
}
330
16
100
AcDbMlineStyle
  2
STANDARD
 70
     0
  3

 62
   256
 51
90.0
 52
90.0
 71
     2
 49
0.5
 62
   256
  6
BYLAYER
 49
-0.5
 62
   256
  6
BYLAYER
  0
LAYOUT
  5
1D
102
{ACAD_REACTORS
330
19
102
}
330
19
100
AcDbPlotSettings
  1

  2
自動 Canon LASER SHOT LBP-1820 (merit 上)
  4

  6

 40
0.0
 41
0.0
 42
0.0
 43
0.0
 44
0.0
 45
0.0
 46
0.0
 47
0.0
 48
0.0
 49
0.0
140
0.0
141
0.0
142
1.0
143
1.0
 70
   688
 72
     0
 73
     0
 74
     5
  7

 75
    16
147
1.0
148
0.0
149
0.0
100
AcDbLayout
  1
ﾚｲｱｳﾄ1
 70
     1
 71
     1
 10
0.0
 20
0.0
 11
12.0
 21
9.0
 12
0.0
 22
0.0
 32
0.0
 14
0.0
 24
0.0
 34
0.0
 15
297.0
 25
210.0
 35
0.0
146
0.0
 13
0.0
 23
0.0
 33
0.0
 16
1.0
 26
0.0
 36
0.0
 17
0.0
 27
1.0
 37
0.0
 76
     0
330
1A
  0
LAYOUT
  5
21
102
{ACAD_REACTORS
330
19
102
}
330
19
100
AcDbPlotSettings
  1

  2
自動 Canon LASER SHOT LBP-1820 (merit 上)
  4

  6

 40
0.0
 41
0.0
 42
0.0
 43
0.0
 44
0.0
 45
0.0
 46
0.0
 47
0.0
 48
0.0
 49
0.0
140
0.0
141
0.0
142
1.0
143
1.0
 70
  1712
 72
     0
 73
     0
 74
     0
  7

 75
     0
147
1.0
148
0.0
149
0.0
100
AcDbLayout
  1
Model
 70
     1
 71
     0
 10
0.0
 20
0.0
 11
12.0
 21
9.0
 12
0.0
 22
0.0
 32
0.0
 14
0.0
 24
0.0
 34
0.0
 15
0.0
 25
0.0
 35
0.0
146
0.0
 13
0.0
 23
0.0
 33
0.0
 16
1.0
 26
0.0
 36
0.0
 17
0.0
 27
1.0
 37
0.0
 76
     0
330
1E
  0
ENDSEC
  0
EOF
