  0
SECTION
  2
HEADER
  9
$ACADVER
  1
AC1015
  9
$ACADMAINTVER
 70
     6
  9
$DWGCODEPAGE
  3
ANSI_932
  9
$INSBASE
 10
0.0
 20
0.0
 30
0.0
  9
$EXTMIN
 10
63.65451195516448
 20
111.8508922213816
 30
-0.0015258207003583
  9
$EXTMAX
 10
532.0222791428936
 20
368.422852480345
 30
0.0000000349246037
  9
$LIMMIN
 10
0.0
 20
0.0
  9
$LIMMAX
 10
594.0
 20
420.0
  9
$ORTHOMODE
 70
     0
  9
$REGENMODE
 70
     1
  9
$FILLMODE
 70
     1
  9
$QTEXTMODE
 70
     0
  9
$MIRRTEXT
 70
     1
  9
$LTSCALE
 40
0.5
  9
$ATTMODE
 70
     1
  9
$TEXTSIZE
 40
0.2
  9
$TRACEWID
 40
0.05
  9
$TEXTSTYLE
  7
STANDARD
  9
$CLAYER
  8
0
  9
$CELTYPE
  6
ByLayer
  9
$CECOLOR
 62
   256
  9
$CELTSCALE
 40
1.0
  9
$DISPSILH
 70
     0
  9
$DIMSCALE
 40
1.0
  9
$DIMASZ
 40
1.0
  9
$DIMEXO
 40
0.0
  9
$DIMDLI
 40
0.5
  9
$DIMRND
 40
0.0
  9
$DIMDLE
 40
0.0
  9
$DIMEXE
 40
0.0
  9
$DIMTP
 40
0.0
  9
$DIMTM
 40
0.0
  9
$DIMTXT
 40
0.18
  9
$DIMCEN
 40
0.0
  9
$DIMTSZ
 40
0.0
  9
$DIMTOL
 70
     0
  9
$DIMLIM
 70
     0
  9
$DIMTIH
 70
     1
  9
$DIMTOH
 70
     1
  9
$DIMSE1
 70
     0
  9
$DIMSE2
 70
     0
  9
$DIMTAD
 70
     0
  9
$DIMZIN
 70
     0
  9
$DIMBLK
  1

  9
$DIMASO
 70
     0
  9
$DIMSHO
 70
     0
  9
$DIMPOST
  1

  9
$DIMAPOST
  1

  9
$DIMALT
 70
     0
  9
$DIMALTD
 70
     0
  9
$DIMALTF
 40
25.4
  9
$DIMLFAC
 40
1.0
  9
$DIMTOFL
 70
     0
  9
$DIMTVP
 40
0.0
  9
$DIMTIX
 70
     0
  9
$DIMSOXD
 70
     0
  9
$DIMSAH
 70
     0
  9
$DIMBLK1
  1

  9
$DIMBLK2
  1

  9
$DIMSTYLE
  2
Standard
  9
$DIMCLRD
 70
     0
  9
$DIMCLRE
 70
     0
  9
$DIMCLRT
 70
     0
  9
$DIMTFAC
 40
1.0
  9
$DIMGAP
 40
0.09
  9
$DIMJUST
 70
     0
  9
$DIMSD1
 70
     0
  9
$DIMSD2
 70
     0
  9
$DIMTOLJ
 70
     1
  9
$DIMTZIN
 70
     0
  9
$DIMALTZ
 70
     0
  9
$DIMALTTZ
 70
     0
  9
$DIMUPT
 70
     0
  9
$DIMDEC
 70
     4
  9
$DIMTDEC
 70
     4
  9
$DIMALTU
 70
     2
  9
$DIMALTTD
 70
     2
  9
$DIMTXSTY
  7
STANDARD
  9
$DIMAUNIT
 70
     0
  9
$DIMADEC
 70
     0
  9
$DIMALTRND
 40
0.0
  9
$DIMAZIN
 70
     0
  9
$DIMDSEP
 70
    46
  9
$DIMATFIT
 70
     3
  9
$DIMFRAC
 70
     0
  9
$DIMLDRBLK
  1

  9
$DIMLUNIT
 70
     2
  9
$DIMLWD
 70
    -2
  9
$DIMLWE
 70
    -2
  9
$DIMTMOVE
 70
     0
  9
$LUNITS
 70
     2
  9
$LUPREC
 70
     2
  9
$SKETCHINC
 40
0.0
  9
$FILLETRAD
 40
0.0
  9
$AUNITS
 70
     1
  9
$AUPREC
 70
     2
  9
$MENU
  1
ACAD
  9
$ELEVATION
 40
0.0
  9
$PELEVATION
 40
0.0
  9
$THICKNESS
 40
0.0
  9
$LIMCHECK
 70
     1
  9
$CHAMFERA
 40
0.0
  9
$CHAMFERB
 40
0.0
  9
$CHAMFERC
 40
0.0
  9
$CHAMFERD
 40
0.0
  9
$SKPOLY
 70
     0
  9
$TDCREATE
 40
2311945.642540544
  9
$TDUCREATE
 40
2311945.267540543
  9
$TDUPDATE
 40
2454796.584667245
  9
$TDUUPDATE
 40
2454796.209667245
  9
$TDINDWG
 40
0.0190306713
  9
$TDUSRTIMER
 40
0.0190303125
  9
$USRTIMER
 70
     1
  9
$ANGBASE
 50
0.0
  9
$ANGDIR
 70
     0
  9
$PDMODE
 70
     0
  9
$PDSIZE
 40
0.0
  9
$PLINEWID
 40
0.0
  9
$SPLFRAME
 70
     0
  9
$SPLINETYPE
 70
     6
  9
$SPLINESEGS
 70
     8
  9
$HANDSEED
  5
7DC
  9
$SURFTAB1
 70
     6
  9
$SURFTAB2
 70
     6
  9
$SURFTYPE
 70
     6
  9
$SURFU
 70
     6
  9
$SURFV
 70
     6
  9
$UCSBASE
  2

  9
$UCSNAME
  2

  9
$UCSORG
 10
0.0
 20
0.0
 30
0.0
  9
$UCSXDIR
 10
1.0
 20
0.0
 30
0.0
  9
$UCSYDIR
 10
0.0
 20
1.0
 30
0.0
  9
$UCSORTHOREF
  2

  9
$UCSORTHOVIEW
 70
     0
  9
$UCSORGTOP
 10
0.0
 20
0.0
 30
0.0
  9
$UCSORGBOTTOM
 10
0.0
 20
0.0
 30
0.0
  9
$UCSORGLEFT
 10
0.0
 20
0.0
 30
0.0
  9
$UCSORGRIGHT
 10
0.0
 20
0.0
 30
0.0
  9
$UCSORGFRONT
 10
0.0
 20
0.0
 30
0.0
  9
$UCSORGBACK
 10
0.0
 20
0.0
 30
0.0
  9
$PUCSBASE
  2

  9
$PUCSNAME
  2

  9
$PUCSORG
 10
0.0
 20
0.0
 30
0.0
  9
$PUCSXDIR
 10
1.0
 20
0.0
 30
0.0
  9
$PUCSYDIR
 10
0.0
 20
1.0
 30
0.0
  9
$PUCSORTHOREF
  2

  9
$PUCSORTHOVIEW
 70
     0
  9
$PUCSORGTOP
 10
0.0
 20
0.0
 30
0.0
  9
$PUCSORGBOTTOM
 10
0.0
 20
0.0
 30
0.0
  9
$PUCSORGLEFT
 10
0.0
 20
0.0
 30
0.0
  9
$PUCSORGRIGHT
 10
0.0
 20
0.0
 30
0.0
  9
$PUCSORGFRONT
 10
0.0
 20
0.0
 30
0.0
  9
$PUCSORGBACK
 10
0.0
 20
0.0
 30
0.0
  9
$USERI1
 70
     0
  9
$USERI2
 70
     0
  9
$USERI3
 70
     0
  9
$USERI4
 70
     0
  9
$USERI5
 70
     0
  9
$USERR1
 40
0.0
  9
$USERR2
 40
0.0
  9
$USERR3
 40
0.0
  9
$USERR4
 40
0.0
  9
$USERR5
 40
0.0
  9
$WORLDVIEW
 70
     1
  9
$SHADEDGE
 70
     3
  9
$SHADEDIF
 70
    70
  9
$TILEMODE
 70
     1
  9
$MAXACTVP
 70
    64
  9
$PINSBASE
 10
0.0
 20
0.0
 30
0.0
  9
$PLIMCHECK
 70
     0
  9
$PEXTMIN
 10
0.0
 20
0.0
 30
0.0
  9
$PEXTMAX
 10
297.0
 20
210.0
 30
0.0
  9
$PLIMMIN
 10
0.0
 20
0.0
  9
$PLIMMAX
 10
12.0
 20
9.0
  9
$UNITMODE
 70
     0
  9
$VISRETAIN
 70
     1
  9
$PLINEGEN
 70
     0
  9
$PSLTSCALE
 70
     1
  9
$TREEDEPTH
 70
  3020
  9
$CMLSTYLE
  2
Standard
  9
$CMLJUST
 70
     0
  9
$CMLSCALE
 40
1.0
  9
$PROXYGRAPHICS
 70
     1
  9
$MEASUREMENT
 70
     0
  9
$CELWEIGHT
370
    -1
  9
$ENDCAPS
280
     0
  9
$JOINSTYLE
280
     0
  9
$LWDISPLAY
290
     0
  9
$INSUNITS
 70
     0
  9
$HYPERLINKBASE
  1

  9
$STYLESHEET
  1

  9
$XEDIT
290
     1
  9
$CEPSNTYPE
380
     0
  9
$PSTYLEMODE
290
     1
  9
$FINGERPRINTGUID
  2
{C31239E9-659E-43C9-9DB8-05ED4F330DCC}
  9
$VERSIONGUID
  2
{3DBAF56A-65B1-417C-B134-E55F8F5D89D9}
  9
$EXTNAMES
290
     1
  9
$PSVPSCALE
 40
0.0
  9
$OLESTARTUP
290
     0
  0
ENDSEC
  0
SECTION
  2
CLASSES
  0
CLASS
  1
ACDBDICTIONARYWDFLT
  2
AcDbDictionaryWithDefault
  3
AutoCAD 2000
 90
        0
280
     0
281
     0
  0
CLASS
  1
ACDBPLACEHOLDER
  2
AcDbPlaceHolder
  3
AutoCAD 2000
 90
        0
280
     0
281
     0
  0
CLASS
  1
LAYOUT
  2
AcDbLayout
  3
AutoCAD 2000
 90
        0
280
     0
281
     0
  0
ENDSEC
  0
SECTION
  2
TABLES
  0
TABLE
  2
VPORT
  5
8
330
0
100
AcDbSymbolTable
 70
     5
  0
VPORT
  5
7DB
330
8
100
AcDbSymbolTableRecord
100
AcDbViewportTableRecord
  2
*Active
 70
     0
 10
0.0
 20
0.0
 11
1.0
 21
1.0
 12
265.6093546742555
 22
235.2104015557191
 13
0.0
 23
0.0
 14
1.0
 24
1.0
 15
0.0
 25
0.0
 16
0.0
 26
0.0
 36
1.0
 17
0.0
 27
0.0
 37
0.0
 40
395.9521235860438
 41
1.461725394896719
 42
50.0
 43
0.0
 44
0.0
 50
0.0
 51
0.0
 71
     0
 72
   100
 73
     1
 74
     1
 75
     0
 76
     0
 77
     0
 78
     0
281
     0
 65
     1
110
0.0
120
0.0
130
0.0
111
1.0
121
0.0
131
0.0
112
0.0
122
1.0
132
0.0
 79
     0
146
0.0
  0
ENDTAB
  0
TABLE
  2
LTYPE
  5
5
330
0
100
AcDbSymbolTable
 70
     5
  0
LTYPE
  5
13
330
5
100
AcDbSymbolTableRecord
100
AcDbLinetypeTableRecord
  2
ByBlock
 70
     0
  3

 72
    65
 73
     0
 40
0.0
  0
LTYPE
  5
14
330
5
100
AcDbSymbolTableRecord
100
AcDbLinetypeTableRecord
  2
ByLayer
 70
     0
  3

 72
    65
 73
     0
 40
0.0
  0
LTYPE
  5
15
330
5
100
AcDbSymbolTableRecord
100
AcDbLinetypeTableRecord
  2
CONTINUOUS
 70
     0
  3
Solid line
 72
    65
 73
     0
 40
0.0
  0
LTYPE
  5
22
330
5
100
AcDbSymbolTableRecord
100
AcDbLinetypeTableRecord
  2
HIDDEN
 70
     0
  3
------------------------
 72
    65
 73
     2
 40
12.6
 49
8.4
 74
     0
 49
-4.2
 74
     0
  0
LTYPE
  5
23
330
5
100
AcDbSymbolTableRecord
100
AcDbLinetypeTableRecord
  2
DOT
 70
     0
  3
････････････････････････
 72
    65
 73
     2
 40
8.0
 49
6.0
 74
     0
 49
-2.0
 74
     0
  0
LTYPE
  5
24
330
5
100
AcDbSymbolTableRecord
100
AcDbLinetypeTableRecord
  2
DASHDOT
 70
     0
  3
--･--･--･--･--･--･--･--
 72
    65
 73
     4
 40
50.5
 49
30.0
 74
     0
 49
-9.0
 74
     0
 49
2.5
 74
     0
 49
-9.0
 74
     0
  0
LTYPE
  5
25
330
5
100
AcDbSymbolTableRecord
100
AcDbLinetypeTableRecord
  2
DIVIDE
 70
     0
  3
--･･--･･--･･--･･--･･--
 72
    65
 73
     6
 40
58.0
 49
30.0
 74
     0
 49
-9.0
 74
     0
 49
2.5
 74
     0
 49
-5.0
 74
     0
 49
2.5
 74
     0
 49
-9.0
 74
     0
  0
ENDTAB
  0
TABLE
  2
LAYER
  5
2
330
0
100
AcDbSymbolTable
 70
     3
  0
LAYER
  5
10
330
2
100
AcDbSymbolTableRecord
100
AcDbLayerTableRecord
  2
0
 70
     0
 62
     7
  6
CONTINUOUS
370
    -3
390
F
  0
LAYER
  5
26
330
2
100
AcDbSymbolTableRecord
100
AcDbLayerTableRecord
  2
1
 70
     0
 62
     7
  6
CONTINUOUS
370
    -3
390
F
  0
LAYER
  5
791
330
2
100
AcDbSymbolTableRecord
100
AcDbLayerTableRecord
  2
Defpoints
 70
     0
 62
     7
  6
CONTINUOUS
290
     0
370
    -3
390
F
  0
ENDTAB
  0
TABLE
  2
STYLE
  5
3
330
0
100
AcDbSymbolTable
 70
     2
  0
STYLE
  5
11
330
3
100
AcDbSymbolTableRecord
100
AcDbTextStyleTableRecord
  2
STANDARD
 70
     0
 40
0.0
 41
1.0
 50
0.0
 71
     0
 42
0.2
  3
TXT
  4

  0
STYLE
  5
27
330
3
100
AcDbSymbolTableRecord
100
AcDbTextStyleTableRecord
  2
KANJI
 70
     0
 40
0.0
 41
1.0
 50
0.0
 71
     0
 42
0.2
  3
TXT
  4
BIGFONT
  0
ENDTAB
  0
TABLE
  2
VIEW
  5
6
330
0
100
AcDbSymbolTable
 70
     0
  0
ENDTAB
  0
TABLE
  2
UCS
  5
7
330
0
100
AcDbSymbolTable
 70
     0
  0
ENDTAB
  0
TABLE
  2
APPID
  5
9
330
0
100
AcDbSymbolTable
 70
     1
  0
APPID
  5
12
330
9
100
AcDbSymbolTableRecord
100
AcDbRegAppTableRecord
  2
ACAD
 70
     0
  0
ENDTAB
  0
TABLE
  2
DIMSTYLE
  5
A
330
0
100
AcDbSymbolTable
 70
     1
100
AcDbDimStyleTable
 71
     1
340
7B5
  0
DIMSTYLE
105
7B5
330
A
100
AcDbSymbolTableRecord
100
AcDbDimStyleTableRecord
  2
Standard
 70
     0
340
11
  0
ENDTAB
  0
TABLE
  2
BLOCK_RECORD
  5
1
330
0
100
AcDbSymbolTable
 70
     6
  0
BLOCK_RECORD
  5
1E
330
1
100
AcDbSymbolTableRecord
100
AcDbBlockTableRecord
  2
*Model_Space
340
21
  0
BLOCK_RECORD
  5
1A
330
1
100
AcDbSymbolTableRecord
100
AcDbBlockTableRecord
  2
*Paper_Space
340
1D
  0
BLOCK_RECORD
  5
2B
330
1
100
AcDbSymbolTableRecord
100
AcDbBlockTableRecord
  2
*D0
340
0
  0
BLOCK_RECORD
  5
36
330
1
100
AcDbSymbolTableRecord
100
AcDbBlockTableRecord
  2
*D1
340
0
  0
BLOCK_RECORD
  5
41
330
1
100
AcDbSymbolTableRecord
100
AcDbBlockTableRecord
  2
*D2
340
0
  0
BLOCK_RECORD
  5
792
330
1
100
AcDbSymbolTableRecord
100
AcDbBlockTableRecord
  2
*D3
340
0
  0
BLOCK_RECORD
  5
79E
330
1
100
AcDbSymbolTableRecord
100
AcDbBlockTableRecord
  2
*D4
340
0
  0
BLOCK_RECORD
  5
7AA
330
1
100
AcDbSymbolTableRecord
100
AcDbBlockTableRecord
  2
*D5
340
0
  0
ENDTAB
  0
ENDSEC
  0
SECTION
  2
BLOCKS
  0
BLOCK
  5
1F
330
1E
100
AcDbEntity
  8
0
100
AcDbBlockBegin
  2
*Model_Space
 70
     0
 10
0.0
 20
0.0
 30
0.0
  3
*Model_Space
  1

  0
ENDBLK
  5
20
330
1E
100
AcDbEntity
  8
0
100
AcDbBlockEnd
  0
BLOCK
  5
1B
330
1A
100
AcDbEntity
 67
     1
  8
0
100
AcDbBlockBegin
  2
*Paper_Space
 70
     0
 10
0.0
 20
0.0
 30
0.0
  3
*Paper_Space
  1

  0
ENDBLK
  5
1C
330
1A
100
AcDbEntity
 67
     1
  8
0
100
AcDbBlockEnd
  0
BLOCK
  5
2C
330
2B
100
AcDbEntity
  8
1
  6
Continuous
 62
     7
100
AcDbBlockBegin
  2
*D0
 70
     1
 10
0.0
 20
0.0
 30
0.0
  3
*D0
  1

  0
LINE
  5
2D
330
2B
100
AcDbEntity
  8
1
  6
Continuous
 62
     7
100
AcDbLine
 10
290.0
 20
214.5
 30
0.0
 11
290.0
 21
268.5
 31
0.0
  0
LINE
  5
2E
330
2B
100
AcDbEntity
  8
1
  6
Continuous
 62
     7
100
AcDbLine
 10
294.0
 20
214.5
 30
0.0
 11
284.0
 21
214.5
 31
0.0
  0
LINE
  5
2F
330
2B
100
AcDbEntity
  8
1
  6
Continuous
 62
     7
100
AcDbLine
 10
294.0
 20
268.5
 30
0.0
 11
284.0
 21
268.5
 31
0.0
  0
LINE
  5
30
330
2B
100
AcDbEntity
  8
1
  6
Continuous
 62
     7
100
AcDbLine
 10
290.0
 20
214.5
 30
0.0
 11
288.964724
 21
218.3637029999999
 31
0.0
  0
LINE
  5
31
330
2B
100
AcDbEntity
  8
1
  6
Continuous
 62
     7
100
AcDbLine
 10
290.0
 20
214.5
 30
0.0
 11
291.0352759999999
 21
218.3637029999999
 31
0.0
  0
LINE
  5
32
330
2B
100
AcDbEntity
  8
1
  6
Continuous
 62
     7
100
AcDbLine
 10
290.0
 20
268.5
 30
0.0
 11
291.0352759999999
 21
264.636297
 31
0.0
  0
LINE
  5
33
330
2B
100
AcDbEntity
  8
1
  6
Continuous
 62
     7
100
AcDbLine
 10
290.0
 20
268.5
 30
0.0
 11
288.964724
 21
264.636297
 31
0.0
  0
TEXT
  5
34
330
2B
100
AcDbEntity
  8
1
  6
Continuous
 62
     7
100
AcDbText
 10
290.0
 20
237.5
 30
0.0
 40
8.0
  1
54
 50
90.0
 41
0.5
  7
KANJI
100
AcDbText
  0
ENDBLK
  5
35
330
2B
100
AcDbEntity
  8
0
100
AcDbBlockEnd
  0
BLOCK
  5
37
330
36
100
AcDbEntity
  8
1
  6
Continuous
 62
     7
100
AcDbBlockBegin
  2
*D1
 70
     1
 10
0.0
 20
0.0
 30
0.0
  3
*D1
  1

  0
LINE
  5
38
330
36
100
AcDbEntity
  8
1
  6
Continuous
 62
     7
100
AcDbLine
 10
148.0000149999999
 20
190.0
 30
0.0
 11
260.000014
 21
190.0
 31
0.0
  0
LINE
  5
39
330
36
100
AcDbEntity
  8
1
  6
Continuous
 62
     7
100
AcDbLine
 10
148.0000149999999
 20
186.0
 30
0.0
 11
148.0000149999999
 21
196.0
 31
0.0
  0
LINE
  5
3A
330
36
100
AcDbEntity
  8
1
  6
Continuous
 62
     7
100
AcDbLine
 10
260.000014
 20
186.0
 30
0.0
 11
260.000014
 21
196.0
 31
0.0
  0
LINE
  5
3B
330
36
100
AcDbEntity
  8
1
  6
Continuous
 62
     7
100
AcDbLine
 10
148.0000149999999
 20
190.0
 30
0.0
 11
151.8637189999999
 21
191.035276
 31
0.0
  0
LINE
  5
3C
330
36
100
AcDbEntity
  8
1
  6
Continuous
 62
     7
100
AcDbLine
 10
148.0000149999999
 20
190.0
 30
0.0
 11
151.8637189999999
 21
188.964724
 31
0.0
  0
LINE
  5
3D
330
36
100
AcDbEntity
  8
1
  6
Continuous
 62
     7
100
AcDbLine
 10
260.000014
 20
190.0
 30
0.0
 11
256.1363109999999
 21
188.964724
 31
0.0
  0
LINE
  5
3E
330
36
100
AcDbEntity
  8
1
  6
Continuous
 62
     7
100
AcDbLine
 10
260.000014
 20
190.0
 30
0.0
 11
256.1363109999999
 21
191.035276
 31
0.0
  0
TEXT
  5
3F
330
36
100
AcDbEntity
  8
1
  6
Continuous
 62
     7
100
AcDbText
 10
198.000015
 20
190.0
 30
0.0
 40
8.0
  1
112
 41
0.5
  7
KANJI
100
AcDbText
  0
ENDBLK
  5
40
330
36
100
AcDbEntity
  8
0
100
AcDbBlockEnd
  0
BLOCK
  5
42
330
41
100
AcDbEntity
  8
1
  6
Continuous
 62
     7
100
AcDbBlockBegin
  2
*D2
 70
     1
 10
0.0
 20
0.0
 30
0.0
  3
*D2
  1

  0
LINE
  5
43
330
41
100
AcDbEntity
  8
1
  6
Continuous
 62
     7
100
AcDbLine
 10
64.5
 20
190.0
 30
0.0
 11
120.5
 21
190.0
 31
0.0
  0
LINE
  5
44
330
41
100
AcDbEntity
  8
1
  6
Continuous
 62
     7
100
AcDbLine
 10
64.5
 20
186.0
 30
0.0
 11
64.5
 21
196.0
 31
0.0
  0
LINE
  5
45
330
41
100
AcDbEntity
  8
1
  6
Continuous
 62
     7
100
AcDbLine
 10
120.5
 20
186.0
 30
0.0
 11
120.5
 21
196.0
 31
0.0
  0
LINE
  5
46
330
41
100
AcDbEntity
  8
1
  6
Continuous
 62
     7
100
AcDbLine
 10
64.5
 20
190.0
 30
0.0
 11
68.363703
 21
191.035276
 31
0.0
  0
LINE
  5
47
330
41
100
AcDbEntity
  8
1
  6
Continuous
 62
     7
100
AcDbLine
 10
64.5
 20
190.0
 30
0.0
 11
68.363703
 21
188.964724
 31
0.0
  0
LINE
  5
48
330
41
100
AcDbEntity
  8
1
  6
Continuous
 62
     7
100
AcDbLine
 10
120.5
 20
190.0
 30
0.0
 11
116.6362969999999
 21
188.964724
 31
0.0
  0
LINE
  5
49
330
41
100
AcDbEntity
  8
1
  6
Continuous
 62
     7
100
AcDbLine
 10
120.5
 20
190.0
 30
0.0
 11
116.6362969999999
 21
191.035276
 31
0.0
  0
TEXT
  5
4A
330
41
100
AcDbEntity
  8
1
  6
Continuous
 62
     7
100
AcDbText
 10
88.49999999999999
 20
190.0
 30
0.0
 40
8.0
  1
56
 41
0.5
  7
KANJI
100
AcDbText
  0
ENDBLK
  5
4B
330
41
100
AcDbEntity
  8
0
100
AcDbBlockEnd
  0
BLOCK
  5
79B
330
792
100
AcDbEntity
  8
0
100
AcDbBlockBegin
  2
*D3
 70
     1
 10
0.0
 20
0.0
 30
0.0
  3
*D3
  1

  0
LINE
  5
793
330
792
100
AcDbEntity
  8
1
  6
Continuous
 62
     0
370
    -2
100
AcDbLine
 10
284.0
 20
214.5
 30
0.0
 11
290.0
 21
214.5
 31
0.0
  0
LINE
  5
794
330
792
100
AcDbEntity
  8
1
  6
Continuous
 62
     0
370
    -2
100
AcDbLine
 10
284.0
 20
268.5
 30
0.0
 11
290.0
 21
268.5
 31
0.0
  0
LINE
  5
795
330
792
100
AcDbEntity
  8
1
  6
Continuous
 62
     0
370
    -2
100
AcDbLine
 10
290.0
 20
215.5
 30
0.0
 11
290.0
 21
267.5
 31
0.0
  0
SOLID
  5
796
330
792
100
AcDbEntity
  8
1
  6
Continuous
 62
     0
100
AcDbTrace
 10
289.8333333333333
 20
215.5
 30
0.0
 11
290.1666666666666
 21
215.5
 31
0.0
 12
290.0
 22
214.5
 32
0.0
 13
290.0
 23
214.5
 33
0.0
  0
SOLID
  5
797
330
792
100
AcDbEntity
  8
1
  6
Continuous
 62
     0
100
AcDbTrace
 10
289.8333333333333
 20
267.5
 30
0.0
 11
290.1666666666666
 21
267.5
 31
0.0
 12
290.0
 22
268.5
 32
0.0
 13
290.0
 23
268.5
 33
0.0
  0
POINT
  5
798
330
792
100
AcDbEntity
  8
Defpoints
  6
Continuous
 62
     0
100
AcDbPoint
 10
284.0
 20
214.5
 30
0.0
  0
POINT
  5
799
330
792
100
AcDbEntity
  8
Defpoints
  6
Continuous
 62
     0
100
AcDbPoint
 10
284.0
 20
268.5
 30
0.0
  0
POINT
  5
79A
330
792
100
AcDbEntity
  8
Defpoints
  6
Continuous
 62
     0
100
AcDbPoint
 10
290.0
 20
268.5
 30
0.0
  0
ENDBLK
  5
79C
330
792
100
AcDbEntity
  8
0
100
AcDbBlockEnd
  0
BLOCK
  5
7A7
330
79E
100
AcDbEntity
  8
0
100
AcDbBlockBegin
  2
*D4
 70
     1
 10
0.0
 20
0.0
 30
0.0
  3
*D4
  1

  0
LINE
  5
79F
330
79E
100
AcDbEntity
  8
1
  6
Continuous
 62
     0
370
    -2
100
AcDbLine
 10
148.0000149999999
 20
196.0
 30
0.0
 11
148.0000149999999
 21
190.0
 31
0.0
  0
LINE
  5
7A0
330
79E
100
AcDbEntity
  8
1
  6
Continuous
 62
     0
370
    -2
100
AcDbLine
 10
260.000014
 20
196.0
 30
0.0
 11
260.000014
 21
190.0
 31
0.0
  0
LINE
  5
7A1
330
79E
100
AcDbEntity
  8
1
  6
Continuous
 62
     0
370
    -2
100
AcDbLine
 10
149.000015
 20
190.0
 30
0.0
 11
259.000014
 21
190.0
 31
0.0
  0
SOLID
  5
7A2
330
79E
100
AcDbEntity
  8
1
  6
Continuous
 62
     0
100
AcDbTrace
 10
149.000015
 20
190.1666666666666
 30
0.0
 11
149.000015
 21
189.8333333333333
 31
0.0
 12
148.0000149999999
 22
190.0
 32
0.0
 13
148.0000149999999
 23
190.0
 33
0.0
  0
SOLID
  5
7A3
330
79E
100
AcDbEntity
  8
1
  6
Continuous
 62
     0
100
AcDbTrace
 10
259.000014
 20
190.1666666666666
 30
0.0
 11
259.000014
 21
189.8333333333333
 31
0.0
 12
260.000014
 22
190.0
 32
0.0
 13
260.000014
 23
190.0
 33
0.0
  0
POINT
  5
7A4
330
79E
100
AcDbEntity
  8
Defpoints
  6
Continuous
 62
     0
100
AcDbPoint
 10
148.0000149999999
 20
196.0
 30
0.0
  0
POINT
  5
7A5
330
79E
100
AcDbEntity
  8
Defpoints
  6
Continuous
 62
     0
100
AcDbPoint
 10
260.000014
 20
196.0
 30
0.0
  0
POINT
  5
7A6
330
79E
100
AcDbEntity
  8
Defpoints
  6
Continuous
 62
     0
100
AcDbPoint
 10
260.000014
 20
190.0
 30
0.0
  0
ENDBLK
  5
7A8
330
79E
100
AcDbEntity
  8
0
100
AcDbBlockEnd
  0
BLOCK
  5
7B3
330
7AA
100
AcDbEntity
  8
0
100
AcDbBlockBegin
  2
*D5
 70
     1
 10
0.0
 20
0.0
 30
0.0
  3
*D5
  1

  0
LINE
  5
7AB
330
7AA
100
AcDbEntity
  8
1
  6
Continuous
 62
     0
370
    -2
100
AcDbLine
 10
64.5
 20
196.0
 30
0.0
 11
64.5
 21
190.0
 31
0.0
  0
LINE
  5
7AC
330
7AA
100
AcDbEntity
  8
1
  6
Continuous
 62
     0
370
    -2
100
AcDbLine
 10
120.5
 20
196.0
 30
0.0
 11
120.5
 21
190.0
 31
0.0
  0
LINE
  5
7AD
330
7AA
100
AcDbEntity
  8
1
  6
Continuous
 62
     0
370
    -2
100
AcDbLine
 10
65.5
 20
190.0
 30
0.0
 11
119.5
 21
190.0
 31
0.0
  0
SOLID
  5
7AE
330
7AA
100
AcDbEntity
  8
1
  6
Continuous
 62
     0
100
AcDbTrace
 10
65.5
 20
190.1666666666666
 30
0.0
 11
65.5
 21
189.8333333333333
 31
0.0
 12
64.5
 22
190.0
 32
0.0
 13
64.5
 23
190.0
 33
0.0
  0
SOLID
  5
7AF
330
7AA
100
AcDbEntity
  8
1
  6
Continuous
 62
     0
100
AcDbTrace
 10
119.5
 20
190.1666666666666
 30
0.0
 11
119.5
 21
189.8333333333333
 31
0.0
 12
120.5
 22
190.0
 32
0.0
 13
120.5
 23
190.0
 33
0.0
  0
POINT
  5
7B0
330
7AA
100
AcDbEntity
  8
Defpoints
  6
Continuous
 62
     0
100
AcDbPoint
 10
64.5
 20
196.0
 30
0.0
  0
POINT
  5
7B1
330
7AA
100
AcDbEntity
  8
Defpoints
  6
Continuous
 62
     0
100
AcDbPoint
 10
120.5
 20
196.0
 30
0.0
  0
POINT
  5
7B2
330
7AA
100
AcDbEntity
  8
Defpoints
  6
Continuous
 62
     0
100
AcDbPoint
 10
120.5
 20
190.0
 30
0.0
  0
ENDBLK
  5
7B4
330
7AA
100
AcDbEntity
  8
0
100
AcDbBlockEnd
  0
ENDSEC
  0
SECTION
  2
ENTITIES
  0
LINE
  5
8A
330
1E
100
AcDbEntity
  8
1
  6
HIDDEN
 62
     7
100
AcDbLine
 10
75.5
 20
268.5
 30
0.0
 11
78.2
 21
276.8
 31
0.0
  0
LINE
  5
8B
330
1E
100
AcDbEntity
  8
1
  6
HIDDEN
 62
     7
100
AcDbLine
 10
78.2
 20
276.8
 30
0.0
 11
106.8
 21
276.8
 31
0.0
  0
LINE
  5
8C
330
1E
100
AcDbEntity
  8
1
  6
HIDDEN
 62
     7
100
AcDbLine
 10
106.8
 20
276.8
 30
0.0
 11
109.4999999999999
 21
268.5
 31
0.0
  0
LINE
  5
8D
330
1E
100
AcDbEntity
  8
1
  6
HIDDEN
 62
     7
100
AcDbLine
 10
80.0
 20
268.5
 30
0.0
 11
80.0
 21
271.3999999999999
 31
0.0
  0
LINE
  5
8E
330
1E
100
AcDbEntity
  8
1
  6
HIDDEN
 62
     7
100
AcDbLine
 10
85.0
 20
268.5
 30
0.0
 11
85.0
 21
271.3999999999999
 31
0.0
  0
ARC
  5
8F
330
1E
100
AcDbEntity
  8
1
  6
HIDDEN
 62
     7
100
AcDbCircle
 10
82.5
 20
271.3999999999999
 30
0.0
 40
2.5
100
AcDbArc
 50
0.0
 51
180.0
  0
LINE
  5
90
330
1E
100
AcDbEntity
  8
1
  6
HIDDEN
 62
     7
100
AcDbLine
 10
88.49999999999999
 20
276.8
 30
0.0
 11
88.49999999999999
 21
271.4999999999999
 31
0.0
  0
LINE
  5
91
330
1E
100
AcDbEntity
  8
1
  6
HIDDEN
 62
     7
100
AcDbLine
 10
88.49999999999999
 20
271.4999999999999
 30
0.0
 11
96.5
 21
271.4999999999999
 31
0.0
  0
LINE
  5
92
330
1E
100
AcDbEntity
  8
1
  6
HIDDEN
 62
     7
100
AcDbLine
 10
96.5
 20
271.4999999999999
 30
0.0
 11
96.5
 21
276.8
 31
0.0
  0
LINE
  5
93
330
1E
100
AcDbEntity
  8
1
  6
HIDDEN
 62
     7
100
AcDbLine
 10
359.5
 20
268.5
 30
0.0
 11
356.8
 21
276.8
 31
0.0
  0
LINE
  5
94
330
1E
100
AcDbEntity
  8
1
  6
HIDDEN
 62
     7
100
AcDbLine
 10
356.8
 20
276.8
 30
0.0
 11
328.2
 21
276.8
 31
0.0
  0
LINE
  5
95
330
1E
100
AcDbEntity
  8
1
  6
HIDDEN
 62
     7
100
AcDbLine
 10
328.2
 20
276.8
 30
0.0
 11
325.4999999999999
 21
268.5
 31
0.0
  0
LINE
  5
96
330
1E
100
AcDbEntity
  8
1
  6
HIDDEN
 62
     7
100
AcDbLine
 10
355.0
 20
268.5
 30
0.0
 11
355.0
 21
271.3999999999999
 31
0.0
  0
LINE
  5
97
330
1E
100
AcDbEntity
  8
1
  6
HIDDEN
 62
     7
100
AcDbLine
 10
350.0
 20
268.5
 30
0.0
 11
350.0
 21
271.3999999999999
 31
0.0
  0
ARC
  5
98
330
1E
100
AcDbEntity
  8
1
  6
HIDDEN
 62
     7
100
AcDbCircle
 10
352.4999999999999
 20
271.3999999999999
 30
0.0
 40
2.5
100
AcDbArc
 50
0.0
 51
180.0
  0
LINE
  5
99
330
1E
100
AcDbEntity
  8
1
  6
HIDDEN
 62
     7
100
AcDbLine
 10
346.4999999999999
 20
276.8
 30
0.0
 11
346.4999999999999
 21
271.4999999999999
 31
0.0
  0
LINE
  5
9A
330
1E
100
AcDbEntity
  8
1
  6
HIDDEN
 62
     7
100
AcDbLine
 10
346.4999999999999
 20
271.4999999999999
 30
0.0
 11
338.5
 21
271.4999999999999
 31
0.0
  0
LINE
  5
9B
330
1E
100
AcDbEntity
  8
1
  6
HIDDEN
 62
     7
100
AcDbLine
 10
338.5
 20
271.4999999999999
 30
0.0
 11
338.5
 21
276.8
 31
0.0
  0
LINE
  5
9C
330
1E
100
AcDbEntity
  8
1
  6
Continuous
 62
     7
100
AcDbLine
 10
259.999996
 20
368.0000039999999
 30
0.0
 11
260.0000039999999
 21
312.0000039999999
 31
0.0
  0
LINE
  5
9D
330
1E
100
AcDbEntity
  8
1
  6
Continuous
 62
     7
100
AcDbLine
 10
256.499996
 20
368.0000039999999
 30
0.0
 11
256.500004
 21
312.0000039999999
 31
0.0
  0
LINE
  5
9E
330
1E
100
AcDbEntity
  8
1
  6
Continuous
 62
     7
100
AcDbLine
 10
147.999998
 20
355.499988
 30
0.0
 11
148.000002
 21
324.4999879999999
 31
0.0
  0
LINE
  5
9F
330
1E
100
AcDbEntity
  8
1
  6
Continuous
 62
     7
100
AcDbLine
 10
163.499996
 20
367.9999899999999
 30
0.0
 11
163.5000039999999
 21
311.9999899999999
 31
0.0
  0
LINE
  5
A0
330
1E
100
AcDbEntity
  8
1
  6
Continuous
 62
     7
100
AcDbLine
 10
154.499997
 20
357.499989
 30
0.0
 11
149.999997
 21
357.9999879999999
 31
0.0
  0
LINE
  5
A1
330
1E
100
AcDbEntity
  8
1
  6
Continuous
 62
     7
100
AcDbLine
 10
154.5000029999999
 20
322.499989
 30
0.0
 11
150.0000029999999
 21
321.9999879999999
 31
0.0
  0
LINE
  5
A2
330
1E
100
AcDbEntity
  8
1
  6
Continuous
 62
     7
100
AcDbLine
 10
149.999996
 20
364.9999879999999
 30
0.0
 11
149.999997
 21
357.9999879999999
 31
0.0
  0
LINE
  5
A3
330
1E
100
AcDbEntity
  8
1
  6
Continuous
 62
     7
100
AcDbLine
 10
150.0000039999999
 20
314.9999879999999
 30
0.0
 11
150.0000029999999
 21
321.9999879999999
 31
0.0
  0
LINE
  5
A4
330
1E
100
AcDbEntity
  8
1
  6
Continuous
 62
     7
100
AcDbLine
 10
151.9807509999999
 20
366.320491
 30
0.0
 11
149.999996
 21
364.9999879999999
 31
0.0
  0
LINE
  5
A5
330
1E
100
AcDbEntity
  8
1
  6
Continuous
 62
     7
100
AcDbLine
 10
157.527752
 20
367.999989
 30
0.0
 11
259.999996
 21
368.0000039999999
 31
0.0
  0
ARC
  5
A6
330
1E
100
AcDbEntity
  8
1
  6
Continuous
 62
     7
100
AcDbCircle
 10
157.527754
 20
357.999989
 30
0.0
 40
10.0
100
AcDbArc
 50
90.000008
 51
123.690076
  0
LINE
  5
A7
330
1E
100
AcDbEntity
  8
1
  6
Continuous
 62
     7
100
AcDbLine
 10
260.0000039999999
 20
312.0000039999999
 30
0.0
 11
157.5277599999999
 21
311.999989
 31
0.0
  0
LINE
  5
A8
330
1E
100
AcDbEntity
  8
1
  6
Continuous
 62
     7
100
AcDbLine
 10
151.980758
 20
313.679485
 30
0.0
 11
150.0000039999999
 21
314.9999879999999
 31
0.0
  0
ARC
  5
A9
330
1E
100
AcDbEntity
  8
1
  6
Continuous
 62
     7
100
AcDbCircle
 10
157.5277589999999
 20
321.999989
 30
0.0
 40
10.0
100
AcDbArc
 50
236.309941
 51
270.0000079999999
  0
ARC
  5
AA
330
1E
100
AcDbEntity
  8
1
  6
Continuous
 62
     7
100
AcDbCircle
 10
230.0
 20
340.0
 30
0.0
 40
82.0
100
AcDbArc
 50
167.319625
 51
192.6803919999999
  0
LINE
  5
AB
330
1E
100
AcDbEntity
  8
1
  6
Continuous
 62
     7
100
AcDbLine
 10
154.499997
 20
357.499989
 30
0.0
 11
160.499997
 21
357.499989
 31
0.0
  0
LINE
  5
AC
330
1E
100
AcDbEntity
  8
1
  6
Continuous
 62
     7
100
AcDbLine
 10
160.499997
 20
357.499989
 30
0.0
 11
160.499997
 21
322.4999899999999
 31
0.0
  0
LINE
  5
AD
330
1E
100
AcDbEntity
  8
1
  6
Continuous
 62
     7
100
AcDbLine
 10
160.499997
 20
322.4999899999999
 30
0.0
 11
154.5000029999999
 21
322.4999899999999
 31
0.0
  0
LINE
  5
AE
330
1E
100
AcDbEntity
  8
1
  6
Continuous
 62
     7
100
AcDbLine
 10
160.499997
 20
357.4999899999999
 30
0.0
 11
259.999997
 21
357.5000039999999
 31
0.0
  0
LINE
  5
AF
330
1E
100
AcDbEntity
  8
1
  6
Continuous
 62
     7
100
AcDbLine
 10
260.0000029999999
 20
322.5000039999999
 30
0.0
 11
160.499997
 21
322.4999899999999
 31
0.0
  0
LINE
  5
B0
330
1E
100
AcDbEntity
  8
1
  6
Continuous
 62
     7
100
AcDbLine
 10
147.999998
 20
355.499988
 30
0.0
 11
148.4999979999999
 21
356.4999879999999
 31
0.0
  0
LINE
  5
B1
330
1E
100
AcDbEntity
  8
1
  6
Continuous
 62
     7
100
AcDbLine
 10
148.4999979999999
 20
356.4999879999999
 30
0.0
 11
149.999996
 21
364.9999879999999
 31
0.0
  0
LINE
  5
B2
330
1E
100
AcDbEntity
  8
1
  6
Continuous
 62
     7
100
AcDbLine
 10
148.000002
 20
324.4999879999999
 30
0.0
 11
148.500002
 21
323.4999879999999
 31
0.0
  0
LINE
  5
B3
330
1E
100
AcDbEntity
  8
1
  6
Continuous
 62
     7
100
AcDbLine
 10
148.500002
 20
323.4999879999999
 30
0.0
 11
150.0000039999999
 21
314.9999879999999
 31
0.0
  0
LINE
  5
B4
330
1E
100
AcDbEntity
  8
1
  6
Continuous
 62
     7
100
AcDbLine
 10
152.499998
 20
352.9999879999999
 30
0.0
 11
152.499998
 21
326.999989
 31
0.0
  0
LINE
  5
B5
330
1E
100
AcDbEntity
  8
1
  6
Continuous
 62
     7
100
AcDbLine
 10
152.499998
 20
326.999989
 30
0.0
 11
158.500002
 21
326.999989
 31
0.0
  0
LINE
  5
B6
330
1E
100
AcDbEntity
  8
1
  6
Continuous
 62
     7
100
AcDbLine
 10
158.500002
 20
326.999989
 30
0.0
 11
158.500002
 21
352.9999879999999
 31
0.0
  0
LINE
  5
B7
330
1E
100
AcDbEntity
  8
1
  6
Continuous
 62
     7
100
AcDbLine
 10
158.500002
 20
352.9999879999999
 30
0.0
 11
152.499998
 21
352.9999879999999
 31
0.0
  0
LINE
  5
B8
330
1E
100
AcDbEntity
  8
1
  6
Continuous
 62
     7
100
AcDbLine
 10
152.499998
 20
352.999989
 30
0.0
 11
150.999998
 21
352.9999879999999
 31
0.0
  0
LINE
  5
B9
330
1E
100
AcDbEntity
  8
1
  6
Continuous
 62
     7
100
AcDbLine
 10
152.499998
 20
326.9999879999999
 30
0.0
 11
150.999998
 21
326.9999879999999
 31
0.0
  0
ARC
  5
BA
330
1E
100
AcDbEntity
  8
1
  6
Continuous
 62
     7
100
AcDbCircle
 10
66.999998
 20
339.9999879999999
 30
0.0
 40
85.0
100
AcDbArc
 50
351.202589
 51
8.797411
  0
LINE
  5
BB
330
1E
100
AcDbEntity
  8
1
  6
Continuous
 62
     7
100
AcDbLine
 10
158.500002
 20
350.999989
 30
0.0
 11
160.499997
 21
350.9999899999999
 31
0.0
  0
LINE
  5
BC
330
1E
100
AcDbEntity
  8
1
  6
Continuous
 62
     7
100
AcDbLine
 10
158.500002
 20
328.999989
 30
0.0
 11
160.500002
 21
328.9999899999999
 31
0.0
  0
LINE
  5
BD
330
1E
100
AcDbEntity
  8
1
  6
Continuous
 62
     7
100
AcDbLine
 10
155.499998
 20
352.9999879999999
 30
0.0
 11
155.500002
 21
326.999989
 31
0.0
  0
LINE
  5
BE
330
1E
100
AcDbEntity
  8
1
  6
Continuous
 62
     7
100
AcDbLine
 10
163.5000179999999
 20
214.5
 30
0.0
 11
163.50001
 21
268.5
 31
0.0
  0
LINE
  5
BF
330
1E
100
AcDbEntity
  8
1
  6
Continuous
 62
     7
100
AcDbLine
 10
152.5000179999999
 20
215.5
 30
0.0
 11
153.4442689999999
 21
215.027871
 31
0.0
  0
LINE
  5
C0
330
1E
100
AcDbEntity
  8
1
  6
Continuous
 62
     7
100
AcDbLine
 10
155.6803509999999
 20
214.5
 30
0.0
 11
260.000018
 21
214.5
 31
0.0
  0
ARC
  5
C1
330
1E
100
AcDbEntity
  8
1
  6
Continuous
 62
     7
100
AcDbCircle
 10
155.6803509999999
 20
219.4999999999999
 30
0.0
 40
5.0
100
AcDbArc
 50
243.43477
 51
270.0
  0
LINE
  5
C2
330
1E
100
AcDbEntity
  8
1
  6
Continuous
 62
     7
100
AcDbLine
 10
150.000011
 20
263.5
 30
0.0
 11
152.5000179999999
 21
215.5
 31
0.0
  0
LINE
  5
C3
330
1E
100
AcDbEntity
  8
1
  6
Continuous
 62
     7
100
AcDbLine
 10
150.000011
 20
263.5
 30
0.0
 11
150.000011
 21
265.5
 31
0.0
  0
LINE
  5
C4
330
1E
100
AcDbEntity
  8
1
  6
Continuous
 62
     7
100
AcDbLine
 10
150.000011
 20
265.5
 30
0.0
 11
153.240379
 21
267.660249
 31
0.0
  0
LINE
  5
C5
330
1E
100
AcDbEntity
  8
1
  6
Continuous
 62
     7
100
AcDbLine
 10
156.013883
 20
268.5
 30
0.0
 11
260.00001
 21
268.5
 31
0.0
  0
ARC
  5
C6
330
1E
100
AcDbEntity
  8
1
  6
Continuous
 62
     7
100
AcDbCircle
 10
156.013883
 20
263.5
 30
0.0
 40
5.0
100
AcDbArc
 50
90.0
 51
123.6901159999999
  0
LINE
  5
C7
330
1E
100
AcDbEntity
  8
1
  6
Continuous
 62
     7
100
AcDbLine
 10
148.5000179999999
 20
219.4999999999999
 30
0.0
 11
150.000011
 21
263.5
 31
0.0
  0
ARC
  5
C8
330
1E
100
AcDbEntity
  8
1
  6
Continuous
 62
     7
100
AcDbCircle
 10
155.3732949999999
 20
222.3732779999999
 30
0.0
 40
7.449675999999999
100
AcDbArc
 50
202.6866879999999
 51
247.3133199999999
  0
LINE
  5
C9
330
1E
100
AcDbEntity
  8
1
  6
Continuous
 62
     7
100
AcDbLine
 10
148.0000119999999
 20
257.0
 30
0.0
 11
148.0000169999999
 21
226.0
 31
0.0
  0
LINE
  5
CA
330
1E
100
AcDbEntity
  8
1
  6
Continuous
 62
     7
100
AcDbLine
 10
148.0000119999999
 20
257.0
 30
0.0
 11
148.500012
 21
258.0
 31
0.0
  0
LINE
  5
CB
330
1E
100
AcDbEntity
  8
1
  6
Continuous
 62
     7
100
AcDbLine
 10
148.0000169999999
 20
226.0000009999999
 30
0.0
 11
148.675549
 21
224.6489379999999
 31
0.0
  0
LINE
  5
CC
330
1E
100
AcDbEntity
  8
1
  6
Continuous
 62
     7
100
AcDbLine
 10
148.500012
 20
258.0
 30
0.0
 11
150.000011
 21
265.5
 31
0.0
  0
LINE
  5
CD
330
1E
100
AcDbEntity
  8
1
  6
Continuous
 62
     7
100
AcDbLine
 10
260.00001
 20
268.5
 30
0.0
 11
260.000018
 21
214.5
 31
0.0
  0
LINE
  5
CE
330
1E
100
AcDbEntity
  8
1
  6
Continuous
 62
     7
100
AcDbLine
 10
256.50001
 20
268.5
 30
0.0
 11
256.5000109999999
 21
265.5
 31
0.0
  0
LINE
  5
CF
330
1E
100
AcDbEntity
  8
1
  6
Continuous
 62
     7
100
AcDbLine
 10
256.5000109999999
 20
265.5
 30
0.0
 11
255.5000129999999
 21
252.4999999999999
 31
0.0
  0
LINE
  5
D0
330
1E
100
AcDbEntity
  8
1
  6
Continuous
 62
     7
100
AcDbLine
 10
255.5000129999999
 20
252.4999999999999
 30
0.0
 11
255.500015
 21
237.5
 31
0.0
  0
LINE
  5
D1
330
1E
100
AcDbEntity
  8
1
  6
Continuous
 62
     7
100
AcDbLine
 10
255.500015
 20
237.5
 30
0.0
 11
256.500018
 21
214.5
 31
0.0
  0
CIRCLE
  5
D2
330
1E
100
AcDbEntity
  8
1
  6
Continuous
 62
     7
100
AcDbCircle
 10
225.0
 20
339.9999989999999
 30
0.0
 40
1.0
  0
CIRCLE
  5
D3
330
1E
100
AcDbEntity
  8
1
  6
Continuous
 62
     7
100
AcDbCircle
 10
184.4999999999999
 20
339.9999989999999
 30
0.0
 40
1.0
  0
LINE
  5
D4
330
1E
100
AcDbEntity
  8
1
  6
HIDDEN
 62
     7
100
AcDbLine
 10
179.75
 20
356.9999989999999
 30
0.0
 11
179.75
 21
322.999999
 31
0.0
  0
LINE
  5
D5
330
1E
100
AcDbEntity
  8
1
  6
HIDDEN
 62
     7
100
AcDbLine
 10
179.75
 20
322.999999
 30
0.0
 11
229.7499999999999
 21
322.999999
 31
0.0
  0
LINE
  5
D6
330
1E
100
AcDbEntity
  8
1
  6
HIDDEN
 62
     7
100
AcDbLine
 10
229.7499999999999
 20
322.999999
 30
0.0
 11
229.7499999999999
 21
356.9999989999999
 31
0.0
  0
LINE
  5
D7
330
1E
100
AcDbEntity
  8
1
  6
HIDDEN
 62
     7
100
AcDbLine
 10
229.7499999999999
 20
356.9999989999999
 30
0.0
 11
179.75
 21
356.9999989999999
 31
0.0
  0
LINE
  5
D8
330
1E
100
AcDbEntity
  8
1
  6
HIDDEN
 62
     7
100
AcDbLine
 10
226.75
 20
354.299999
 30
0.0
 11
229.7499999999999
 21
356.9999989999999
 31
0.0
  0
LINE
  5
D9
330
1E
100
AcDbEntity
  8
1
  6
HIDDEN
 62
     7
100
AcDbLine
 10
226.75
 20
325.699999
 30
0.0
 11
229.7499999999999
 21
322.999999
 31
0.0
  0
LINE
  5
DA
330
1E
100
AcDbEntity
  8
1
  6
HIDDEN
 62
     7
100
AcDbLine
 10
182.75
 20
325.699999
 30
0.0
 11
179.75
 21
322.999999
 31
0.0
  0
LINE
  5
DB
330
1E
100
AcDbEntity
  8
1
  6
HIDDEN
 62
     7
100
AcDbLine
 10
182.75
 20
354.299999
 30
0.0
 11
179.75
 21
356.9999989999999
 31
0.0
  0
LINE
  5
DC
330
1E
100
AcDbEntity
  8
1
  6
HIDDEN
 62
     7
100
AcDbLine
 10
182.75
 20
343.999999
 30
0.0
 11
182.75
 21
354.299999
 31
0.0
  0
LINE
  5
DD
330
1E
100
AcDbEntity
  8
1
  6
HIDDEN
 62
     7
100
AcDbLine
 10
182.75
 20
354.299999
 30
0.0
 11
226.75
 21
354.299999
 31
0.0
  0
LINE
  5
DE
330
1E
100
AcDbEntity
  8
1
  6
HIDDEN
 62
     7
100
AcDbLine
 10
226.75
 20
354.299999
 30
0.0
 11
226.75
 21
343.999999
 31
0.0
  0
LINE
  5
DF
330
1E
100
AcDbEntity
  8
1
  6
HIDDEN
 62
     7
100
AcDbLine
 10
182.75
 20
335.9999989999999
 30
0.0
 11
182.75
 21
325.699999
 31
0.0
  0
LINE
  5
E0
330
1E
100
AcDbEntity
  8
1
  6
HIDDEN
 62
     7
100
AcDbLine
 10
182.75
 20
325.699999
 30
0.0
 11
226.75
 21
325.699999
 31
0.0
  0
LINE
  5
E1
330
1E
100
AcDbEntity
  8
1
  6
HIDDEN
 62
     7
100
AcDbLine
 10
226.75
 20
325.699999
 30
0.0
 11
226.75
 21
335.9999989999999
 31
0.0
  0
ARC
  5
E2
330
1E
100
AcDbEntity
  8
1
  6
HIDDEN
 62
     7
100
AcDbCircle
 10
182.75
 20
339.9999989999999
 30
0.0
 40
4.0
100
AcDbArc
 50
270.0
 51
90.0
  0
ARC
  5
E3
330
1E
100
AcDbEntity
  8
1
  6
HIDDEN
 62
     7
100
AcDbCircle
 10
226.75
 20
339.9999989999999
 30
0.0
 40
4.0
100
AcDbArc
 50
90.0
 51
270.0
  0
LINE
  5
E4
330
1E
100
AcDbEntity
  8
1
  6
HIDDEN
 62
     7
100
AcDbLine
 10
226.75
 20
343.999999
 30
0.0
 11
228.55
 21
343.999999
 31
0.0
  0
LINE
  5
E5
330
1E
100
AcDbEntity
  8
1
  6
HIDDEN
 62
     7
100
AcDbLine
 10
228.55
 20
343.999999
 30
0.0
 11
228.55
 21
335.9999989999999
 31
0.0
  0
LINE
  5
E6
330
1E
100
AcDbEntity
  8
1
  6
HIDDEN
 62
     7
100
AcDbLine
 10
228.55
 20
335.9999989999999
 30
0.0
 11
226.7500009999999
 21
335.9999989999999
 31
0.0
  0
LINE
  5
E7
330
1E
100
AcDbEntity
  8
1
  6
HIDDEN
 62
     7
100
AcDbLine
 10
182.75
 20
343.999999
 30
0.0
 11
180.9499999999999
 21
343.999999
 31
0.0
  0
LINE
  5
E8
330
1E
100
AcDbEntity
  8
1
  6
HIDDEN
 62
     7
100
AcDbLine
 10
180.9499999999999
 20
343.999999
 30
0.0
 11
180.9499999999999
 21
335.9999989999999
 31
0.0
  0
LINE
  5
E9
330
1E
100
AcDbEntity
  8
1
  6
HIDDEN
 62
     7
100
AcDbLine
 10
180.9499999999999
 20
335.9999989999999
 30
0.0
 11
182.75
 21
335.9999989999999
 31
0.0
  0
LINE
  5
EA
330
1E
100
AcDbEntity
  8
1
  6
HIDDEN
 62
     7
100
AcDbLine
 10
180.8
 20
352.4999989999999
 30
0.0
 11
179.75
 21
352.4999989999999
 31
0.0
  0
LINE
  5
EB
330
1E
100
AcDbEntity
  8
1
  6
HIDDEN
 62
     7
100
AcDbLine
 10
180.8
 20
347.499999
 30
0.0
 11
179.75
 21
347.499999
 31
0.0
  0
ARC
  5
EC
330
1E
100
AcDbEntity
  8
1
  6
HIDDEN
 62
     7
100
AcDbCircle
 10
177.777778
 20
349.999999
 30
0.0
 40
3.922222
100
AcDbArc
 50
320.4022469999999
 51
39.597753
  0
LINE
  5
ED
330
1E
100
AcDbEntity
  8
1
  6
HIDDEN
 62
     7
100
AcDbLine
 10
228.6999999999999
 20
352.4999989999999
 30
0.0
 11
229.7499999999999
 21
352.4999989999999
 31
0.0
  0
LINE
  5
EE
330
1E
100
AcDbEntity
  8
1
  6
HIDDEN
 62
     7
100
AcDbLine
 10
228.6999999999999
 20
347.499999
 30
0.0
 11
229.7499999999999
 21
347.499999
 31
0.0
  0
ARC
  5
EF
330
1E
100
AcDbEntity
  8
1
  6
HIDDEN
 62
     7
100
AcDbCircle
 10
231.722222
 20
349.999999
 30
0.0
 40
3.922222
100
AcDbArc
 50
140.4022469999999
 51
219.5977529999999
  0
CIRCLE
  5
F0
330
1E
100
AcDbEntity
  8
1
  6
HIDDEN
 62
     7
100
AcDbCircle
 10
196.75
 20
339.9999989999999
 30
0.0
 40
2.7
  0
CIRCLE
  5
F1
330
1E
100
AcDbEntity
  8
1
  6
HIDDEN
 62
     7
100
AcDbCircle
 10
212.7499999999999
 20
339.9999989999999
 30
0.0
 40
2.7
  0
LINE
  5
F2
330
1E
100
AcDbEntity
  8
1
  6
HIDDEN
 62
     7
100
AcDbLine
 10
179.75
 20
268.5
 30
0.0
 11
182.75
 21
276.8
 31
0.0
  0
LINE
  5
F3
330
1E
100
AcDbEntity
  8
1
  6
HIDDEN
 62
     7
100
AcDbLine
 10
182.75
 20
276.8
 30
0.0
 11
226.75
 21
276.8
 31
0.0
  0
LINE
  5
F4
330
1E
100
AcDbEntity
  8
1
  6
HIDDEN
 62
     7
100
AcDbLine
 10
226.75
 20
276.8
 30
0.0
 11
229.7499999999999
 21
268.5
 31
0.0
  0
LINE
  5
F5
330
1E
100
AcDbEntity
  8
1
  6
HIDDEN
 62
     7
100
AcDbLine
 10
179.750008
 20
214.4999869999999
 30
0.0
 11
182.7500099999999
 21
206.199988
 31
0.0
  0
LINE
  5
F6
330
1E
100
AcDbEntity
  8
1
  6
HIDDEN
 62
     7
100
AcDbLine
 10
182.7500099999999
 20
206.199988
 30
0.0
 11
226.7500099999999
 21
206.200001
 31
0.0
  0
LINE
  5
F7
330
1E
100
AcDbEntity
  8
1
  6
HIDDEN
 62
     7
100
AcDbLine
 10
226.7500099999999
 20
206.200001
 30
0.0
 11
229.750008
 21
214.5000009999999
 31
0.0
  0
LINE
  5
F8
330
1E
100
AcDbEntity
  8
1
  6
Continuous
 62
     7
100
AcDbLine
 10
163.500014
 20
244.4999999999999
 30
0.0
 11
255.500014
 21
244.4999999999999
 31
0.0
  0
LINE
  5
F9
330
1E
100
AcDbEntity
  8
1
  6
Continuous
 62
     7
100
AcDbLine
 10
255.500014
 20
243.5
 30
0.0
 11
163.500014
 21
243.5
 31
0.0
  0
LINE
  5
FA
330
1E
100
AcDbEntity
  8
1
  6
Continuous
 62
     7
100
AcDbLine
 10
224.0000109999999
 20
261.8
 30
0.0
 11
224.0000109999999
 21
252.8
 31
0.0
  0
LINE
  5
FB
330
1E
100
AcDbEntity
  8
1
  6
Continuous
 62
     7
100
AcDbLine
 10
224.0000109999999
 20
252.8
 30
0.0
 11
245.0000129999999
 21
252.8
 31
0.0
  0
LINE
  5
FC
330
1E
100
AcDbEntity
  8
1
  6
Continuous
 62
     7
100
AcDbLine
 10
245.0000129999999
 20
252.8
 30
0.0
 11
245.0000129999999
 21
261.8
 31
0.0
  0
LINE
  5
FD
330
1E
100
AcDbEntity
  8
1
  6
Continuous
 62
     7
100
AcDbLine
 10
245.0000129999999
 20
261.8
 30
0.0
 11
224.0000109999999
 21
261.8
 31
0.0
  0
CIRCLE
  5
FE
330
1E
100
AcDbEntity
  8
1
  6
Continuous
 62
     7
100
AcDbCircle
 10
252.000013
 20
249.5
 30
0.0
 40
2.0
  0
CIRCLE
  5
FF
330
1E
100
AcDbEntity
  8
1
  6
Continuous
 62
     7
100
AcDbCircle
 10
252.0000149999999
 20
239.5
 30
0.0
 40
2.0
  0
LINE
  5
100
330
1E
100
AcDbEntity
  8
1
  6
Continuous
 62
     7
100
AcDbLine
 10
251.0000129999999
 20
249.5
 30
0.0
 11
253.0000129999999
 21
249.5
 31
0.0
  0
LINE
  5
101
330
1E
100
AcDbEntity
  8
1
  6
Continuous
 62
     7
100
AcDbLine
 10
252.000013
 20
250.4999999999999
 30
0.0
 11
252.000013
 21
248.4999999999999
 31
0.0
  0
LINE
  5
102
330
1E
100
AcDbEntity
  8
1
  6
Continuous
 62
     7
100
AcDbLine
 10
251.0000149999999
 20
239.5
 30
0.0
 11
253.0000149999999
 21
239.5
 31
0.0
  0
LINE
  5
103
330
1E
100
AcDbEntity
  8
1
  6
Continuous
 62
     7
100
AcDbLine
 10
252.0000149999999
 20
240.5
 30
0.0
 11
252.0000149999999
 21
238.5
 31
0.0
  0
CIRCLE
  5
104
330
1E
100
AcDbEntity
  8
1
  6
Continuous
 62
     7
100
AcDbCircle
 10
168.0000129999999
 20
249.5
 30
0.0
 40
2.0
  0
CIRCLE
  5
105
330
1E
100
AcDbEntity
  8
1
  6
Continuous
 62
     7
100
AcDbCircle
 10
168.0000149999999
 20
239.5
 30
0.0
 40
2.0
  0
LINE
  5
106
330
1E
100
AcDbEntity
  8
1
  6
Continuous
 62
     7
100
AcDbLine
 10
167.000013
 20
249.5
 30
0.0
 11
169.000013
 21
249.5
 31
0.0
  0
LINE
  5
107
330
1E
100
AcDbEntity
  8
1
  6
Continuous
 62
     7
100
AcDbLine
 10
168.0000129999999
 20
250.4999999999999
 30
0.0
 11
168.0000129999999
 21
248.4999999999999
 31
0.0
  0
LINE
  5
108
330
1E
100
AcDbEntity
  8
1
  6
Continuous
 62
     7
100
AcDbLine
 10
167.0000149999999
 20
239.5
 30
0.0
 11
169.0000149999999
 21
239.5
 31
0.0
  0
LINE
  5
109
330
1E
100
AcDbEntity
  8
1
  6
Continuous
 62
     7
100
AcDbLine
 10
168.0000149999999
 20
240.5
 30
0.0
 11
168.0000149999999
 21
238.5
 31
0.0
  0
CIRCLE
  5
10A
330
1E
100
AcDbEntity
  8
1
  6
Continuous
 62
     7
100
AcDbCircle
 10
225.0
 20
140.0
 30
0.0
 40
1.0
  0
CIRCLE
  5
10B
330
1E
100
AcDbEntity
  8
1
  6
Continuous
 62
     7
100
AcDbCircle
 10
184.4999999999999
 20
140.0
 30
0.0
 40
1.0
  0
CIRCLE
  5
10C
330
1E
100
AcDbEntity
  8
1
  6
Continuous
 62
     7
100
AcDbCircle
 10
225.0
 20
140.0
 30
0.0
 40
1.0
  0
CIRCLE
  5
10D
330
1E
100
AcDbEntity
  8
1
  6
Continuous
 62
     7
100
AcDbCircle
 10
184.4999999999999
 20
140.0
 30
0.0
 40
1.0
  0
LINE
  5
10E
330
1E
100
AcDbEntity
  8
1
  6
HIDDEN
 62
     7
100
AcDbLine
 10
179.75
 20
123.0
 30
0.0
 11
179.75
 21
157.0
 31
0.0
  0
LINE
  5
10F
330
1E
100
AcDbEntity
  8
1
  6
HIDDEN
 62
     7
100
AcDbLine
 10
179.75
 20
157.0
 30
0.0
 11
229.7499999999999
 21
157.0
 31
0.0
  0
LINE
  5
110
330
1E
100
AcDbEntity
  8
1
  6
HIDDEN
 62
     7
100
AcDbLine
 10
229.7499999999999
 20
157.0
 30
0.0
 11
229.7499999999999
 21
123.0
 31
0.0
  0
LINE
  5
111
330
1E
100
AcDbEntity
  8
1
  6
HIDDEN
 62
     7
100
AcDbLine
 10
229.7499999999999
 20
123.0
 30
0.0
 11
179.75
 21
123.0
 31
0.0
  0
LINE
  5
112
330
1E
100
AcDbEntity
  8
1
  6
HIDDEN
 62
     7
100
AcDbLine
 10
226.75
 20
125.7
 30
0.0
 11
229.7499999999999
 21
123.0
 31
0.0
  0
LINE
  5
113
330
1E
100
AcDbEntity
  8
1
  6
HIDDEN
 62
     7
100
AcDbLine
 10
226.75
 20
154.3
 30
0.0
 11
229.7499999999999
 21
157.0
 31
0.0
  0
LINE
  5
114
330
1E
100
AcDbEntity
  8
1
  6
HIDDEN
 62
     7
100
AcDbLine
 10
182.75
 20
154.3
 30
0.0
 11
179.75
 21
157.0
 31
0.0
  0
LINE
  5
115
330
1E
100
AcDbEntity
  8
1
  6
HIDDEN
 62
     7
100
AcDbLine
 10
182.75
 20
125.7
 30
0.0
 11
179.75
 21
123.0
 31
0.0
  0
LINE
  5
116
330
1E
100
AcDbEntity
  8
1
  6
HIDDEN
 62
     7
100
AcDbLine
 10
182.75
 20
136.0
 30
0.0
 11
182.75
 21
125.7
 31
0.0
  0
LINE
  5
117
330
1E
100
AcDbEntity
  8
1
  6
HIDDEN
 62
     7
100
AcDbLine
 10
182.75
 20
125.7
 30
0.0
 11
226.75
 21
125.7
 31
0.0
  0
LINE
  5
118
330
1E
100
AcDbEntity
  8
1
  6
HIDDEN
 62
     7
100
AcDbLine
 10
226.75
 20
125.7
 30
0.0
 11
226.75
 21
136.0
 31
0.0
  0
LINE
  5
119
330
1E
100
AcDbEntity
  8
1
  6
HIDDEN
 62
     7
100
AcDbLine
 10
182.75
 20
144.0
 30
0.0
 11
182.75
 21
154.3
 31
0.0
  0
LINE
  5
11A
330
1E
100
AcDbEntity
  8
1
  6
HIDDEN
 62
     7
100
AcDbLine
 10
182.75
 20
154.3
 30
0.0
 11
226.75
 21
154.3
 31
0.0
  0
LINE
  5
11B
330
1E
100
AcDbEntity
  8
1
  6
HIDDEN
 62
     7
100
AcDbLine
 10
226.75
 20
154.3
 30
0.0
 11
226.75
 21
144.0
 31
0.0
  0
ARC
  5
11C
330
1E
100
AcDbEntity
  8
1
  6
HIDDEN
 62
     7
100
AcDbCircle
 10
182.75
 20
140.0
 30
0.0
 40
4.0
100
AcDbArc
 50
270.0
 51
90.0
  0
ARC
  5
11D
330
1E
100
AcDbEntity
  8
1
  6
HIDDEN
 62
     7
100
AcDbCircle
 10
226.75
 20
140.0
 30
0.0
 40
4.0
100
AcDbArc
 50
90.0
 51
270.0
  0
LINE
  5
11E
330
1E
100
AcDbEntity
  8
1
  6
HIDDEN
 62
     7
100
AcDbLine
 10
226.75
 20
136.0
 30
0.0
 11
228.55
 21
136.0
 31
0.0
  0
LINE
  5
11F
330
1E
100
AcDbEntity
  8
1
  6
HIDDEN
 62
     7
100
AcDbLine
 10
228.55
 20
136.0
 30
0.0
 11
228.55
 21
144.0
 31
0.0
  0
LINE
  5
120
330
1E
100
AcDbEntity
  8
1
  6
HIDDEN
 62
     7
100
AcDbLine
 10
228.55
 20
144.0
 30
0.0
 11
226.7500009999999
 21
144.0
 31
0.0
  0
LINE
  5
121
330
1E
100
AcDbEntity
  8
1
  6
HIDDEN
 62
     7
100
AcDbLine
 10
182.75
 20
136.0
 30
0.0
 11
180.9499999999999
 21
136.0
 31
0.0
  0
LINE
  5
122
330
1E
100
AcDbEntity
  8
1
  6
HIDDEN
 62
     7
100
AcDbLine
 10
180.9499999999999
 20
136.0
 30
0.0
 11
180.9499999999999
 21
144.0
 31
0.0
  0
LINE
  5
123
330
1E
100
AcDbEntity
  8
1
  6
HIDDEN
 62
     7
100
AcDbLine
 10
180.9499999999999
 20
144.0
 30
0.0
 11
182.75
 21
144.0
 31
0.0
  0
LINE
  5
124
330
1E
100
AcDbEntity
  8
1
  6
HIDDEN
 62
     7
100
AcDbLine
 10
180.8
 20
127.5
 30
0.0
 11
179.75
 21
127.5
 31
0.0
  0
LINE
  5
125
330
1E
100
AcDbEntity
  8
1
  6
HIDDEN
 62
     7
100
AcDbLine
 10
180.8
 20
132.4999999999999
 30
0.0
 11
179.75
 21
132.4999999999999
 31
0.0
  0
ARC
  5
126
330
1E
100
AcDbEntity
  8
1
  6
HIDDEN
 62
     7
100
AcDbCircle
 10
177.777778
 20
130.0
 30
0.0
 40
3.922222
100
AcDbArc
 50
320.4022469999999
 51
39.597753
  0
LINE
  5
127
330
1E
100
AcDbEntity
  8
1
  6
HIDDEN
 62
     7
100
AcDbLine
 10
228.6999999999999
 20
127.5
 30
0.0
 11
229.7499999999999
 21
127.5
 31
0.0
  0
LINE
  5
128
330
1E
100
AcDbEntity
  8
1
  6
HIDDEN
 62
     7
100
AcDbLine
 10
228.6999999999999
 20
132.4999999999999
 30
0.0
 11
229.7499999999999
 21
132.4999999999999
 31
0.0
  0
ARC
  5
129
330
1E
100
AcDbEntity
  8
1
  6
HIDDEN
 62
     7
100
AcDbCircle
 10
231.722222
 20
130.0
 30
0.0
 40
3.922222
100
AcDbArc
 50
140.4022469999999
 51
219.5977529999999
  0
CIRCLE
  5
12A
330
1E
100
AcDbEntity
  8
1
  6
HIDDEN
 62
     7
100
AcDbCircle
 10
196.75
 20
140.0
 30
0.0
 40
2.7
  0
CIRCLE
  5
12B
330
1E
100
AcDbEntity
  8
1
  6
HIDDEN
 62
     7
100
AcDbCircle
 10
212.7499999999999
 20
140.0
 30
0.0
 40
2.7
  0
LINE
  5
12C
330
1E
100
AcDbEntity
  8
1
  6
Continuous
 62
     7
100
AcDbLine
 10
152.500033
 20
113.0
 30
0.0
 11
153.444284
 21
112.5278709999999
 31
0.0
  0
LINE
  5
12D
330
1E
100
AcDbEntity
  8
1
  6
Continuous
 62
     7
100
AcDbLine
 10
155.6803659999999
 20
112.0
 30
0.0
 11
260.000033
 21
112.0
 31
0.0
  0
ARC
  5
12E
330
1E
100
AcDbEntity
  8
1
  6
Continuous
 62
     7
100
AcDbCircle
 10
155.6803659999999
 20
117.0
 30
0.0
 40
5.0
100
AcDbArc
 50
243.43477
 51
270.0
  0
LINE
  5
12F
330
1E
100
AcDbEntity
  8
1
  6
Continuous
 62
     7
100
AcDbLine
 10
152.5000249999999
 20
166.999969
 30
0.0
 11
153.444276
 21
167.472098
 31
0.0
  0
LINE
  5
130
330
1E
100
AcDbEntity
  8
1
  6
Continuous
 62
     7
100
AcDbLine
 10
155.680357
 20
167.9999699999999
 30
0.0
 11
260.0000249999999
 21
168.0
 31
0.0
  0
ARC
  5
131
330
1E
100
AcDbEntity
  8
1
  6
Continuous
 62
     7
100
AcDbCircle
 10
155.680359
 20
162.9999699999999
 30
0.0
 40
5.0
100
AcDbArc
 50
90.000017
 51
116.565247
  0
LINE
  5
132
330
1E
100
AcDbEntity
  8
1
  6
Continuous
 62
     7
100
AcDbLine
 10
152.5000249999999
 20
166.999969
 30
0.0
 11
152.500033
 21
113.0
 31
0.0
  0
LINE
  5
133
330
1E
100
AcDbEntity
  8
1
  6
Continuous
 62
     7
100
AcDbLine
 10
163.500033
 20
112.0
 30
0.0
 11
163.500025
 21
168.0
 31
0.0
  0
LINE
  5
134
330
1E
100
AcDbEntity
  8
1
  6
Continuous
 62
     7
100
AcDbLine
 10
260.0000249999999
 20
168.0
 30
0.0
 11
260.000033
 21
112.0
 31
0.0
  0
LINE
  5
135
330
1E
100
AcDbEntity
  8
1
  6
Continuous
 62
     7
100
AcDbLine
 10
256.500018
 20
112.0
 30
0.0
 11
256.500018
 21
167.9999989999999
 31
0.0
  0
LINE
  5
136
330
1E
100
AcDbEntity
  8
1
  6
Continuous
 62
     7
100
AcDbLine
 10
150.000026
 20
165.0
 30
0.0
 11
152.5000249999999
 21
166.999969
 31
0.0
  0
LINE
  5
137
330
1E
100
AcDbEntity
  8
1
  6
Continuous
 62
     7
100
AcDbLine
 10
150.0000329999999
 20
115.0
 30
0.0
 11
152.500033
 21
113.0
 31
0.0
  0
ARC
  5
138
330
1E
100
AcDbEntity
  8
1
  6
Continuous
 62
     7
100
AcDbCircle
 10
357.5833629999999
 20
140.00003
 30
0.0
 40
209.083333
100
AcDbArc
 50
173.132748
 51
186.867269
  0
LINE
  5
139
330
1E
100
AcDbEntity
  8
1
  6
Continuous
 62
     7
100
AcDbLine
 10
148.0000269999999
 20
155.4999999999999
 30
0.0
 11
148.000031
 21
124.5
 31
0.0
  0
LINE
  5
13A
330
1E
100
AcDbEntity
  8
1
  6
Continuous
 62
     7
100
AcDbLine
 10
148.0000269999999
 20
155.4999999999999
 30
0.0
 11
148.500027
 21
156.4999999999999
 31
0.0
  0
LINE
  5
13B
330
1E
100
AcDbEntity
  8
1
  6
Continuous
 62
     7
100
AcDbLine
 10
148.000031
 20
124.5
 30
0.0
 11
148.500032
 21
123.5
 31
0.0
  0
LINE
  5
13C
330
1E
100
AcDbEntity
  8
1
  6
Continuous
 62
     7
100
AcDbLine
 10
148.500027
 20
156.4999999999999
 30
0.0
 11
150.000026
 21
165.0
 31
0.0
  0
LINE
  5
13D
330
1E
100
AcDbEntity
  8
1
  6
Continuous
 62
     7
100
AcDbLine
 10
148.500032
 20
123.5
 30
0.0
 11
150.0000329999999
 21
115.0
 31
0.0
  0
LINE
  5
13E
330
1E
100
AcDbEntity
  8
1
  6
HIDDEN
 62
     7
100
AcDbLine
 10
75.5
 20
214.5
 30
0.0
 11
78.2
 21
206.1999999999999
 31
0.0
  0
LINE
  5
13F
330
1E
100
AcDbEntity
  8
1
  6
HIDDEN
 62
     7
100
AcDbLine
 10
78.2
 20
206.1999999999999
 30
0.0
 11
106.8
 21
206.1999999999999
 31
0.0
  0
LINE
  5
140
330
1E
100
AcDbEntity
  8
1
  6
HIDDEN
 62
     7
100
AcDbLine
 10
106.8
 20
206.1999999999999
 30
0.0
 11
109.4999999999999
 21
214.5
 31
0.0
  0
LINE
  5
141
330
1E
100
AcDbEntity
  8
1
  6
HIDDEN
 62
     7
100
AcDbLine
 10
80.0
 20
214.5
 30
0.0
 11
80.0
 21
211.6
 31
0.0
  0
LINE
  5
142
330
1E
100
AcDbEntity
  8
1
  6
HIDDEN
 62
     7
100
AcDbLine
 10
85.0
 20
214.5
 30
0.0
 11
85.0
 21
211.6
 31
0.0
  0
ARC
  5
143
330
1E
100
AcDbEntity
  8
1
  6
HIDDEN
 62
     7
100
AcDbCircle
 10
82.5
 20
211.6
 30
0.0
 40
2.5
100
AcDbArc
 50
180.0
 51
0.0
  0
LINE
  5
144
330
1E
100
AcDbEntity
  8
1
  6
HIDDEN
 62
     7
100
AcDbLine
 10
88.49999999999999
 20
206.1999999999999
 30
0.0
 11
88.49999999999999
 21
211.5
 31
0.0
  0
LINE
  5
145
330
1E
100
AcDbEntity
  8
1
  6
HIDDEN
 62
     7
100
AcDbLine
 10
88.49999999999999
 20
211.5
 30
0.0
 11
96.5
 21
211.5
 31
0.0
  0
LINE
  5
146
330
1E
100
AcDbEntity
  8
1
  6
HIDDEN
 62
     7
100
AcDbLine
 10
96.5
 20
211.5
 30
0.0
 11
96.5
 21
206.1999999999999
 31
0.0
  0
LINE
  5
147
330
1E
100
AcDbEntity
  8
1
  6
Continuous
 62
     7
100
AcDbLine
 10
75.0
 20
268.5
 30
0.0
 11
110.0
 21
268.5
 31
0.0
  0
ARC
  5
148
330
1E
100
AcDbEntity
  8
1
  6
Continuous
 62
     7
100
AcDbCircle
 10
68.5
 20
218.5
 30
0.0
 40
4.0
100
AcDbArc
 50
180.0
 51
270.0
  0
LINE
  5
149
330
1E
100
AcDbEntity
  8
1
  6
Continuous
 62
     7
100
AcDbLine
 10
68.5
 20
214.5
 30
0.0
 11
116.5
 21
214.5
 31
0.0
  0
ARC
  5
14A
330
1E
100
AcDbEntity
  8
1
  6
Continuous
 62
     7
100
AcDbCircle
 10
116.5
 20
218.5
 30
0.0
 40
4.0
100
AcDbArc
 50
270.0
 51
0.0
  0
LINE
  5
14B
330
1E
100
AcDbEntity
  8
1
  6
Continuous
 62
     7
100
AcDbLine
 10
64.5
 20
264.745699
 30
0.0
 11
64.5
 21
218.5
 31
0.0
  0
LINE
  5
14C
330
1E
100
AcDbEntity
  8
1
  6
Continuous
 62
     7
100
AcDbLine
 10
65.225279
 20
265.707223
 30
0.0
 11
75.0
 21
268.5
 31
0.0
  0
ARC
  5
14D
330
1E
100
AcDbEntity
  8
1
  6
Continuous
 62
     7
100
AcDbCircle
 10
65.5
 20
264.745699
 30
0.0
 40
1.0
100
AcDbArc
 50
105.9453959999999
 51
180.0
  0
LINE
  5
14E
330
1E
100
AcDbEntity
  8
1
  6
Continuous
 62
     7
100
AcDbLine
 10
120.5
 20
218.5
 30
0.0
 11
120.5
 21
264.745699
 31
0.0
  0
LINE
  5
14F
330
1E
100
AcDbEntity
  8
1
  6
Continuous
 62
     7
100
AcDbLine
 10
110.0
 20
268.5
 30
0.0
 11
119.7747209999999
 21
265.707223
 31
0.0
  0
ARC
  5
150
330
1E
100
AcDbEntity
  8
1
  6
Continuous
 62
     7
100
AcDbCircle
 10
119.5
 20
264.745699
 30
0.0
 40
1.0
100
AcDbArc
 50
0.0
 51
74.05460399999999
  0
ARC
  5
151
330
1E
100
AcDbEntity
  8
1
  6
Continuous
 62
     7
100
AcDbCircle
 10
92.5
 20
290.290558
 30
0.0
 40
27.947781
100
AcDbArc
 50
231.2320479999999
 51
245.7020529999999
  0
ARC
  5
152
330
1E
100
AcDbEntity
  8
1
  6
Continuous
 62
     7
100
AcDbCircle
 10
92.5
 20
241.5
 30
0.0
 40
26.0
100
AcDbArc
 50
63.60001
 51
116.251214
  0
ARC
  5
153
330
1E
100
AcDbEntity
  8
1
  6
Continuous
 62
     7
100
AcDbCircle
 10
92.5
 20
241.5
 30
0.0
 40
25.3
100
AcDbArc
 50
63.00993700000001
 51
116.9900629999999
  0
ARC
  5
154
330
1E
100
AcDbEntity
  8
1
  6
Continuous
 62
     7
100
AcDbCircle
 10
92.5
 20
290.290558
 30
0.0
 40
28.64777999999999
100
AcDbArc
 50
243.0130629999999
 51
296.9869369999999
  0
LINE
  5
155
330
1E
100
AcDbEntity
  8
1
  6
Continuous
 62
     7
100
AcDbLine
 10
79.5
 20
264.762235
 30
0.0
 11
79.5
 21
265.55034
 31
0.0
  0
LINE
  5
156
330
1E
100
AcDbEntity
  8
1
  6
Continuous
 62
     7
100
AcDbLine
 10
105.4999999999999
 20
265.55034
 30
0.0
 11
105.4999999999999
 21
264.762235
 31
0.0
  0
ARC
  5
157
330
1E
100
AcDbEntity
  8
1
  6
Continuous
 62
     7
100
AcDbCircle
 10
92.5
 20
290.2905589999999
 30
0.0
 40
27.947781
100
AcDbArc
 50
294.2979459999999
 51
308.76795
  0
CIRCLE
  5
158
330
1E
100
AcDbEntity
  8
1
  6
Continuous
 62
     7
100
AcDbCircle
 10
92.5
 20
241.5
 30
0.0
 40
12.5
  0
CIRCLE
  5
159
330
1E
100
AcDbEntity
  8
1
  6
Continuous
 62
     7
100
AcDbCircle
 10
92.5
 20
241.5
 30
0.0
 40
15.09999999999999
  0
LINE
  5
15A
330
1E
100
AcDbEntity
  8
1
  6
Continuous
 62
     7
100
AcDbLine
 10
110.4999999999999
 20
265.5
 30
0.0
 11
117.5
 21
263.5
 31
0.0
  0
LINE
  5
15B
330
1E
100
AcDbEntity
  8
1
  6
Continuous
 62
     7
100
AcDbLine
 10
74.5
 20
265.5
 30
0.0
 11
67.5
 21
263.5
 31
0.0
  0
ARC
  5
15C
330
1E
100
AcDbEntity
  8
1
  6
Continuous
 62
     7
100
AcDbCircle
 10
92.5
 20
279.252247
 30
0.0
 40
22.652247
100
AcDbArc
 50
217.380324
 51
246.418631
  0
ARC
  5
15D
330
1E
100
AcDbEntity
  8
1
  6
Continuous
 62
     7
100
AcDbCircle
 10
92.5
 20
279.252247
 30
0.0
 40
22.652247
100
AcDbArc
 50
293.5813689999999
 51
322.619676
  0
LINE
  5
15E
330
1E
100
AcDbEntity
  8
1
  6
Continuous
 62
     7
100
AcDbLine
 10
75.0
 20
268.5
 30
0.0
 11
74.5
 21
265.5
 31
0.0
  0
LINE
  5
15F
330
1E
100
AcDbEntity
  8
1
  6
Continuous
 62
     7
100
AcDbLine
 10
110.0
 20
268.5
 30
0.0
 11
110.4999999999999
 21
265.5
 31
0.0
  0
LINE
  5
160
330
1E
100
AcDbEntity
  8
1
  6
Continuous
 62
     7
100
AcDbLine
 10
67.5
 20
263.5
 30
0.0
 11
67.52379399999999
 21
261.406269
 31
0.0
  0
LINE
  5
161
330
1E
100
AcDbEntity
  8
1
  6
Continuous
 62
     7
100
AcDbLine
 10
67.52379399999999
 20
261.406269
 30
0.0
 11
67.59513299999999
 21
259.316524
 31
0.0
  0
LINE
  5
162
330
1E
100
AcDbEntity
  8
1
  6
Continuous
 62
     7
100
AcDbLine
 10
67.59513299999999
 20
259.316524
 30
0.0
 11
67.71387800000001
 21
257.234743
 31
0.0
  0
LINE
  5
163
330
1E
100
AcDbEntity
  8
1
  6
Continuous
 62
     7
100
AcDbLine
 10
67.71387800000001
 20
257.234743
 30
0.0
 11
67.879806
 21
255.164887
 31
0.0
  0
LINE
  5
164
330
1E
100
AcDbEntity
  8
1
  6
Continuous
 62
     7
100
AcDbLine
 10
67.879806
 20
255.164887
 30
0.0
 11
68.0926
 21
253.110899
 31
0.0
  0
LINE
  5
165
330
1E
100
AcDbEntity
  8
1
  6
Continuous
 62
     7
100
AcDbLine
 10
68.0926
 20
253.110899
 30
0.0
 11
68.351854
 21
251.0766859999999
 31
0.0
  0
LINE
  5
166
330
1E
100
AcDbEntity
  8
1
  6
Continuous
 62
     7
100
AcDbLine
 10
68.351854
 20
251.0766859999999
 30
0.0
 11
68.657076
 21
249.066122
 31
0.0
  0
LINE
  5
167
330
1E
100
AcDbEntity
  8
1
  6
Continuous
 62
     7
100
AcDbLine
 10
68.657076
 20
249.066122
 30
0.0
 11
69.007684
 21
247.083033
 31
0.0
  0
LINE
  5
168
330
1E
100
AcDbEntity
  8
1
  6
Continuous
 62
     7
100
AcDbLine
 10
69.007684
 20
247.083033
 30
0.0
 11
69.403012
 21
245.131195
 31
0.0
  0
LINE
  5
169
330
1E
100
AcDbEntity
  8
1
  6
Continuous
 62
     7
100
AcDbLine
 10
69.403012
 20
245.131195
 30
0.0
 11
69.84230500000001
 21
243.214323
 31
0.0
  0
LINE
  5
16A
330
1E
100
AcDbEntity
  8
1
  6
Continuous
 62
     7
100
AcDbLine
 10
69.84230500000001
 20
243.214323
 30
0.0
 11
70.32472900000001
 21
241.3360669999999
 31
0.0
  0
LINE
  5
16B
330
1E
100
AcDbEntity
  8
1
  6
Continuous
 62
     7
100
AcDbLine
 10
70.32472900000001
 20
241.3360669999999
 30
0.0
 11
70.84936500000001
 21
239.5
 31
0.0
  0
LINE
  5
16C
330
1E
100
AcDbEntity
  8
1
  6
Continuous
 62
     7
100
AcDbLine
 10
70.84936500000001
 20
239.5
 30
0.0
 11
71.41521400000001
 21
237.709619
 31
0.0
  0
LINE
  5
16D
330
1E
100
AcDbEntity
  8
1
  6
Continuous
 62
     7
100
AcDbLine
 10
71.41521400000001
 20
237.709619
 30
0.0
 11
72.02119899999999
 21
235.968331
 31
0.0
  0
LINE
  5
16E
330
1E
100
AcDbEntity
  8
1
  6
Continuous
 62
     7
100
AcDbLine
 10
72.02119899999999
 20
235.968331
 30
0.0
 11
72.666166
 21
234.2794509999999
 31
0.0
  0
LINE
  5
16F
330
1E
100
AcDbEntity
  8
1
  6
Continuous
 62
     7
100
AcDbLine
 10
72.666166
 20
234.2794509999999
 30
0.0
 11
73.348889
 21
232.646195
 31
0.0
  0
LINE
  5
170
330
1E
100
AcDbEntity
  8
1
  6
Continuous
 62
     7
100
AcDbLine
 10
73.348889
 20
232.646195
 30
0.0
 11
74.068067
 21
231.0716699999999
 31
0.0
  0
LINE
  5
171
330
1E
100
AcDbEntity
  8
1
  6
Continuous
 62
     7
100
AcDbLine
 10
74.068067
 20
231.0716699999999
 30
0.0
 11
74.82233
 21
229.5588749999999
 31
0.0
  0
LINE
  5
172
330
1E
100
AcDbEntity
  8
1
  6
Continuous
 62
     7
100
AcDbLine
 10
74.82233
 20
229.5588749999999
 30
0.0
 11
75.61024499999999
 21
228.1106879999999
 31
0.0
  0
LINE
  5
173
330
1E
100
AcDbEntity
  8
1
  6
Continuous
 62
     7
100
AcDbLine
 10
75.61024499999999
 20
228.1106879999999
 30
0.0
 11
76.43030999999999
 21
226.7298669999999
 31
0.0
  0
LINE
  5
174
330
1E
100
AcDbEntity
  8
1
  6
Continuous
 62
     7
100
AcDbLine
 10
76.43030999999999
 20
226.7298669999999
 30
0.0
 11
77.280964
 21
225.41904
 31
0.0
  0
LINE
  5
175
330
1E
100
AcDbEntity
  8
1
  6
Continuous
 62
     7
100
AcDbLine
 10
77.280964
 20
225.41904
 30
0.0
 11
78.160589
 21
224.1807019999999
 31
0.0
  0
LINE
  5
176
330
1E
100
AcDbEntity
  8
1
  6
Continuous
 62
     7
100
AcDbLine
 10
78.160589
 20
224.1807019999999
 30
0.0
 11
79.06750999999999
 21
223.0172109999999
 31
0.0
  0
LINE
  5
177
330
1E
100
AcDbEntity
  8
1
  6
Continuous
 62
     7
100
AcDbLine
 10
79.06750999999999
 20
223.0172109999999
 30
0.0
 11
80.0
 21
221.930781
 31
0.0
  0
LINE
  5
178
330
1E
100
AcDbEntity
  8
1
  6
Continuous
 62
     7
100
AcDbLine
 10
80.0
 20
221.930781
 30
0.0
 11
80.956285
 21
220.9234799999999
 31
0.0
  0
LINE
  5
179
330
1E
100
AcDbEntity
  8
1
  6
Continuous
 62
     7
100
AcDbLine
 10
80.956285
 20
220.9234799999999
 30
0.0
 11
81.934543
 21
219.997226
 31
0.0
  0
LINE
  5
17A
330
1E
100
AcDbEntity
  8
1
  6
Continuous
 62
     7
100
AcDbLine
 10
81.934543
 20
219.997226
 30
0.0
 11
82.93291399999999
 21
219.1537819999999
 31
0.0
  0
LINE
  5
17B
330
1E
100
AcDbEntity
  8
1
  6
Continuous
 62
     7
100
AcDbLine
 10
82.93291399999999
 20
219.1537819999999
 30
0.0
 11
83.949496
 21
218.394754
 31
0.0
  0
LINE
  5
17C
330
1E
100
AcDbEntity
  8
1
  6
Continuous
 62
     7
100
AcDbLine
 10
83.949496
 20
218.394754
 30
0.0
 11
84.98235499999999
 21
217.721586
 31
0.0
  0
LINE
  5
17D
330
1E
100
AcDbEntity
  8
1
  6
Continuous
 62
     7
100
AcDbLine
 10
84.98235499999999
 20
217.721586
 30
0.0
 11
86.02952399999999
 21
217.13556
 31
0.0
  0
LINE
  5
17E
330
1E
100
AcDbEntity
  8
1
  6
Continuous
 62
     7
100
AcDbLine
 10
86.02952399999999
 20
217.13556
 30
0.0
 11
87.08901
 21
216.6377919999999
 31
0.0
  0
LINE
  5
17F
330
1E
100
AcDbEntity
  8
1
  6
Continuous
 62
     7
100
AcDbLine
 10
87.08901
 20
216.6377919999999
 30
0.0
 11
88.158796
 21
216.2292279999999
 31
0.0
  0
LINE
  5
180
330
1E
100
AcDbEntity
  8
1
  6
Continuous
 62
     7
100
AcDbLine
 10
88.158796
 20
216.2292279999999
 30
0.0
 11
89.236845
 21
215.910647
 31
0.0
  0
LINE
  5
181
330
1E
100
AcDbEntity
  8
1
  6
Continuous
 62
     7
100
AcDbLine
 10
89.236845
 20
215.910647
 30
0.0
 11
90.32110600000001
 21
215.682654
 31
0.0
  0
LINE
  5
182
330
1E
100
AcDbEntity
  8
1
  6
Continuous
 62
     7
100
AcDbLine
 10
90.32110600000001
 20
215.682654
 30
0.0
 11
91.40951499999999
 21
215.545685
 31
0.0
  0
LINE
  5
183
330
1E
100
AcDbEntity
  8
1
  6
Continuous
 62
     7
100
AcDbLine
 10
91.40951499999999
 20
215.545685
 30
0.0
 11
92.5
 21
215.5
 31
0.0
  0
LINE
  5
184
330
1E
100
AcDbEntity
  8
1
  6
Continuous
 62
     7
100
AcDbLine
 10
92.5
 20
215.5
 30
0.0
 11
93.590485
 21
215.545685
 31
0.0
  0
LINE
  5
185
330
1E
100
AcDbEntity
  8
1
  6
Continuous
 62
     7
100
AcDbLine
 10
93.590485
 20
215.545685
 30
0.0
 11
94.678894
 21
215.682654
 31
0.0
  0
LINE
  5
186
330
1E
100
AcDbEntity
  8
1
  6
Continuous
 62
     7
100
AcDbLine
 10
94.678894
 20
215.682654
 30
0.0
 11
95.76315499999999
 21
215.910647
 31
0.0
  0
LINE
  5
187
330
1E
100
AcDbEntity
  8
1
  6
Continuous
 62
     7
100
AcDbLine
 10
95.76315499999999
 20
215.910647
 30
0.0
 11
96.84120400000001
 21
216.2292279999999
 31
0.0
  0
LINE
  5
188
330
1E
100
AcDbEntity
  8
1
  6
Continuous
 62
     7
100
AcDbLine
 10
96.84120400000001
 20
216.2292279999999
 30
0.0
 11
97.91099
 21
216.6377919999999
 31
0.0
  0
LINE
  5
189
330
1E
100
AcDbEntity
  8
1
  6
Continuous
 62
     7
100
AcDbLine
 10
97.91099
 20
216.6377919999999
 30
0.0
 11
98.970476
 21
217.13556
 31
0.0
  0
LINE
  5
18A
330
1E
100
AcDbEntity
  8
1
  6
Continuous
 62
     7
100
AcDbLine
 10
98.970476
 20
217.13556
 30
0.0
 11
100.017645
 21
217.721586
 31
0.0
  0
LINE
  5
18B
330
1E
100
AcDbEntity
  8
1
  6
Continuous
 62
     7
100
AcDbLine
 10
100.017645
 20
217.721586
 30
0.0
 11
101.0505039999999
 21
218.394754
 31
0.0
  0
LINE
  5
18C
330
1E
100
AcDbEntity
  8
1
  6
Continuous
 62
     7
100
AcDbLine
 10
101.0505039999999
 20
218.394754
 30
0.0
 11
102.067086
 21
219.1537819999999
 31
0.0
  0
LINE
  5
18D
330
1E
100
AcDbEntity
  8
1
  6
Continuous
 62
     7
100
AcDbLine
 10
102.067086
 20
219.1537819999999
 30
0.0
 11
103.065457
 21
219.997226
 31
0.0
  0
LINE
  5
18E
330
1E
100
AcDbEntity
  8
1
  6
Continuous
 62
     7
100
AcDbLine
 10
103.065457
 20
219.997226
 30
0.0
 11
104.043715
 21
220.9234799999999
 31
0.0
  0
LINE
  5
18F
330
1E
100
AcDbEntity
  8
1
  6
Continuous
 62
     7
100
AcDbLine
 10
104.043715
 20
220.9234799999999
 30
0.0
 11
105.0
 21
221.930781
 31
0.0
  0
LINE
  5
190
330
1E
100
AcDbEntity
  8
1
  6
Continuous
 62
     7
100
AcDbLine
 10
105.0
 20
221.930781
 30
0.0
 11
105.9324899999999
 21
223.0172109999999
 31
0.0
  0
LINE
  5
191
330
1E
100
AcDbEntity
  8
1
  6
Continuous
 62
     7
100
AcDbLine
 10
105.9324899999999
 20
223.0172109999999
 30
0.0
 11
106.839411
 21
224.1807019999999
 31
0.0
  0
LINE
  5
192
330
1E
100
AcDbEntity
  8
1
  6
Continuous
 62
     7
100
AcDbLine
 10
106.839411
 20
224.1807019999999
 30
0.0
 11
107.719036
 21
225.41904
 31
0.0
  0
LINE
  5
193
330
1E
100
AcDbEntity
  8
1
  6
Continuous
 62
     7
100
AcDbLine
 10
107.719036
 20
225.41904
 30
0.0
 11
108.56969
 21
226.7298669999999
 31
0.0
  0
LINE
  5
194
330
1E
100
AcDbEntity
  8
1
  6
Continuous
 62
     7
100
AcDbLine
 10
108.56969
 20
226.7298669999999
 30
0.0
 11
109.389755
 21
228.1106879999999
 31
0.0
  0
LINE
  5
195
330
1E
100
AcDbEntity
  8
1
  6
Continuous
 62
     7
100
AcDbLine
 10
109.389755
 20
228.1106879999999
 30
0.0
 11
110.17767
 21
229.5588749999999
 31
0.0
  0
LINE
  5
196
330
1E
100
AcDbEntity
  8
1
  6
Continuous
 62
     7
100
AcDbLine
 10
110.17767
 20
229.5588749999999
 30
0.0
 11
110.9319329999999
 21
231.0716699999999
 31
0.0
  0
LINE
  5
197
330
1E
100
AcDbEntity
  8
1
  6
Continuous
 62
     7
100
AcDbLine
 10
110.9319329999999
 20
231.0716699999999
 30
0.0
 11
111.651111
 21
232.646195
 31
0.0
  0
LINE
  5
198
330
1E
100
AcDbEntity
  8
1
  6
Continuous
 62
     7
100
AcDbLine
 10
111.651111
 20
232.646195
 30
0.0
 11
112.333834
 21
234.2794509999999
 31
0.0
  0
LINE
  5
199
330
1E
100
AcDbEntity
  8
1
  6
Continuous
 62
     7
100
AcDbLine
 10
112.333834
 20
234.2794509999999
 30
0.0
 11
112.978801
 21
235.968331
 31
0.0
  0
LINE
  5
19A
330
1E
100
AcDbEntity
  8
1
  6
Continuous
 62
     7
100
AcDbLine
 10
112.978801
 20
235.968331
 30
0.0
 11
113.584786
 21
237.709619
 31
0.0
  0
LINE
  5
19B
330
1E
100
AcDbEntity
  8
1
  6
Continuous
 62
     7
100
AcDbLine
 10
113.584786
 20
237.709619
 30
0.0
 11
114.150635
 21
239.5
 31
0.0
  0
LINE
  5
19C
330
1E
100
AcDbEntity
  8
1
  6
Continuous
 62
     7
100
AcDbLine
 10
114.150635
 20
239.5
 30
0.0
 11
114.6752709999999
 21
241.3360669999999
 31
0.0
  0
LINE
  5
19D
330
1E
100
AcDbEntity
  8
1
  6
Continuous
 62
     7
100
AcDbLine
 10
114.6752709999999
 20
241.3360669999999
 30
0.0
 11
115.1576949999999
 21
243.214323
 31
0.0
  0
LINE
  5
19E
330
1E
100
AcDbEntity
  8
1
  6
Continuous
 62
     7
100
AcDbLine
 10
115.1576949999999
 20
243.214323
 30
0.0
 11
115.5969879999999
 21
245.131195
 31
0.0
  0
LINE
  5
19F
330
1E
100
AcDbEntity
  8
1
  6
Continuous
 62
     7
100
AcDbLine
 10
115.5969879999999
 20
245.131195
 30
0.0
 11
115.9923159999999
 21
247.083033
 31
0.0
  0
LINE
  5
1A0
330
1E
100
AcDbEntity
  8
1
  6
Continuous
 62
     7
100
AcDbLine
 10
115.9923159999999
 20
247.083033
 30
0.0
 11
116.3429239999999
 21
249.066122
 31
0.0
  0
LINE
  5
1A1
330
1E
100
AcDbEntity
  8
1
  6
Continuous
 62
     7
100
AcDbLine
 10
116.3429239999999
 20
249.066122
 30
0.0
 11
116.6481459999999
 21
251.0766859999999
 31
0.0
  0
LINE
  5
1A2
330
1E
100
AcDbEntity
  8
1
  6
Continuous
 62
     7
100
AcDbLine
 10
116.6481459999999
 20
251.0766859999999
 30
0.0
 11
116.9073999999999
 21
253.110899
 31
0.0
  0
LINE
  5
1A3
330
1E
100
AcDbEntity
  8
1
  6
Continuous
 62
     7
100
AcDbLine
 10
116.9073999999999
 20
253.110899
 30
0.0
 11
117.1201939999999
 21
255.164887
 31
0.0
  0
LINE
  5
1A4
330
1E
100
AcDbEntity
  8
1
  6
Continuous
 62
     7
100
AcDbLine
 10
117.1201939999999
 20
255.164887
 30
0.0
 11
117.2861219999999
 21
257.234743
 31
0.0
  0
LINE
  5
1A5
330
1E
100
AcDbEntity
  8
1
  6
Continuous
 62
     7
100
AcDbLine
 10
117.2861219999999
 20
257.234743
 30
0.0
 11
117.4048669999999
 21
259.316524
 31
0.0
  0
LINE
  5
1A6
330
1E
100
AcDbEntity
  8
1
  6
Continuous
 62
     7
100
AcDbLine
 10
117.4048669999999
 20
259.316524
 30
0.0
 11
117.476206
 21
261.406269
 31
0.0
  0
LINE
  5
1A7
330
1E
100
AcDbEntity
  8
1
  6
Continuous
 62
     7
100
AcDbLine
 10
117.476206
 20
261.406269
 30
0.0
 11
117.5
 21
263.5
 31
0.0
  0
LINE
  5
1A8
330
1E
100
AcDbEntity
  8
1
  6
Continuous
 62
     7
100
AcDbLine
 10
67.5
 20
263.5
 30
0.0
 11
67.52379399999999
 21
261.733415
 31
0.0
  0
LINE
  5
1A9
330
1E
100
AcDbEntity
  8
1
  6
Continuous
 62
     7
100
AcDbLine
 10
67.52379399999999
 20
261.733415
 30
0.0
 11
67.59513299999999
 21
259.970192
 31
0.0
  0
LINE
  5
1AA
330
1E
100
AcDbEntity
  8
1
  6
Continuous
 62
     7
100
AcDbLine
 10
67.59513299999999
 20
259.970192
 30
0.0
 11
67.71387800000001
 21
258.213689
 31
0.0
  0
LINE
  5
1AB
330
1E
100
AcDbEntity
  8
1
  6
Continuous
 62
     7
100
AcDbLine
 10
67.71387800000001
 20
258.213689
 30
0.0
 11
67.879806
 21
256.467249
 31
0.0
  0
LINE
  5
1AC
330
1E
100
AcDbEntity
  8
1
  6
Continuous
 62
     7
100
AcDbLine
 10
67.879806
 20
256.467249
 30
0.0
 11
68.0926
 21
254.734196
 31
0.0
  0
LINE
  5
1AD
330
1E
100
AcDbEntity
  8
1
  6
Continuous
 62
     7
100
AcDbLine
 10
68.0926
 20
254.734196
 30
0.0
 11
68.351854
 21
253.017829
 31
0.0
  0
LINE
  5
1AE
330
1E
100
AcDbEntity
  8
1
  6
Continuous
 62
     7
100
AcDbLine
 10
68.351854
 20
253.017829
 30
0.0
 11
68.657076
 21
251.321415
 31
0.0
  0
LINE
  5
1AF
330
1E
100
AcDbEntity
  8
1
  6
Continuous
 62
     7
100
AcDbLine
 10
68.657076
 20
251.321415
 30
0.0
 11
69.007684
 21
249.6481839999999
 31
0.0
  0
LINE
  5
1B0
330
1E
100
AcDbEntity
  8
1
  6
Continuous
 62
     7
100
AcDbLine
 10
69.007684
 20
249.6481839999999
 30
0.0
 11
69.403012
 21
248.001321
 31
0.0
  0
LINE
  5
1B1
330
1E
100
AcDbEntity
  8
1
  6
Continuous
 62
     7
100
AcDbLine
 10
69.403012
 20
248.001321
 30
0.0
 11
69.84230500000001
 21
246.38396
 31
0.0
  0
LINE
  5
1B2
330
1E
100
AcDbEntity
  8
1
  6
Continuous
 62
     7
100
AcDbLine
 10
69.84230500000001
 20
246.38396
 30
0.0
 11
70.32472900000001
 21
244.7991809999999
 31
0.0
  0
LINE
  5
1B3
330
1E
100
AcDbEntity
  8
1
  6
Continuous
 62
     7
100
AcDbLine
 10
70.32472900000001
 20
244.7991809999999
 30
0.0
 11
70.84936500000001
 21
243.25
 31
0.0
  0
LINE
  5
1B4
330
1E
100
AcDbEntity
  8
1
  6
Continuous
 62
     7
100
AcDbLine
 10
70.84936500000001
 20
243.25
 30
0.0
 11
71.41521400000001
 21
241.739366
 31
0.0
  0
LINE
  5
1B5
330
1E
100
AcDbEntity
  8
1
  6
Continuous
 62
     7
100
AcDbLine
 10
71.41521400000001
 20
241.739366
 30
0.0
 11
72.02119899999999
 21
240.2701539999999
 31
0.0
  0
LINE
  5
1B6
330
1E
100
AcDbEntity
  8
1
  6
Continuous
 62
     7
100
AcDbLine
 10
72.02119899999999
 20
240.2701539999999
 30
0.0
 11
72.666166
 21
238.845162
 31
0.0
  0
LINE
  5
1B7
330
1E
100
AcDbEntity
  8
1
  6
Continuous
 62
     7
100
AcDbLine
 10
72.666166
 20
238.845162
 30
0.0
 11
73.348889
 21
237.467102
 31
0.0
  0
LINE
  5
1B8
330
1E
100
AcDbEntity
  8
1
  6
Continuous
 62
     7
100
AcDbLine
 10
73.348889
 20
237.467102
 30
0.0
 11
74.068067
 21
236.138597
 31
0.0
  0
LINE
  5
1B9
330
1E
100
AcDbEntity
  8
1
  6
Continuous
 62
     7
100
AcDbLine
 10
74.068067
 20
236.138597
 30
0.0
 11
74.82233
 21
234.8621749999999
 31
0.0
  0
LINE
  5
1BA
330
1E
100
AcDbEntity
  8
1
  6
Continuous
 62
     7
100
AcDbLine
 10
74.82233
 20
234.8621749999999
 30
0.0
 11
75.61024499999999
 21
233.640268
 31
0.0
  0
LINE
  5
1BB
330
1E
100
AcDbEntity
  8
1
  6
Continuous
 62
     7
100
AcDbLine
 10
75.61024499999999
 20
233.640268
 30
0.0
 11
76.43030999999999
 21
232.4752
 31
0.0
  0
LINE
  5
1BC
330
1E
100
AcDbEntity
  8
1
  6
Continuous
 62
     7
100
AcDbLine
 10
76.43030999999999
 20
232.4752
 30
0.0
 11
77.280964
 21
231.36919
 31
0.0
  0
LINE
  5
1BD
330
1E
100
AcDbEntity
  8
1
  6
Continuous
 62
     7
100
AcDbLine
 10
77.280964
 20
231.36919
 30
0.0
 11
78.160589
 21
230.324342
 31
0.0
  0
LINE
  5
1BE
330
1E
100
AcDbEntity
  8
1
  6
Continuous
 62
     7
100
AcDbLine
 10
78.160589
 20
230.324342
 30
0.0
 11
79.06750999999999
 21
229.342646
 31
0.0
  0
LINE
  5
1BF
330
1E
100
AcDbEntity
  8
1
  6
Continuous
 62
     7
100
AcDbLine
 10
79.06750999999999
 20
229.342646
 30
0.0
 11
80.0
 21
228.425971
 31
0.0
  0
LINE
  5
1C0
330
1E
100
AcDbEntity
  8
1
  6
Continuous
 62
     7
100
AcDbLine
 10
80.0
 20
228.425971
 30
0.0
 11
80.956285
 21
227.5760609999999
 31
0.0
  0
LINE
  5
1C1
330
1E
100
AcDbEntity
  8
1
  6
Continuous
 62
     7
100
AcDbLine
 10
80.956285
 20
227.5760609999999
 30
0.0
 11
81.934543
 21
226.794535
 31
0.0
  0
LINE
  5
1C2
330
1E
100
AcDbEntity
  8
1
  6
Continuous
 62
     7
100
AcDbLine
 10
81.934543
 20
226.794535
 30
0.0
 11
82.93291399999999
 21
226.082879
 31
0.0
  0
LINE
  5
1C3
330
1E
100
AcDbEntity
  8
1
  6
Continuous
 62
     7
100
AcDbLine
 10
82.93291399999999
 20
226.082879
 30
0.0
 11
83.949496
 21
225.442449
 31
0.0
  0
LINE
  5
1C4
330
1E
100
AcDbEntity
  8
1
  6
Continuous
 62
     7
100
AcDbLine
 10
83.949496
 20
225.442449
 30
0.0
 11
84.98235499999999
 21
224.874463
 31
0.0
  0
LINE
  5
1C5
330
1E
100
AcDbEntity
  8
1
  6
Continuous
 62
     7
100
AcDbLine
 10
84.98235499999999
 20
224.874463
 30
0.0
 11
86.02952399999999
 21
224.3800039999999
 31
0.0
  0
LINE
  5
1C6
330
1E
100
AcDbEntity
  8
1
  6
Continuous
 62
     7
100
AcDbLine
 10
86.02952399999999
 20
224.3800039999999
 30
0.0
 11
87.08901
 21
223.9600119999999
 31
0.0
  0
LINE
  5
1C7
330
1E
100
AcDbEntity
  8
1
  6
Continuous
 62
     7
100
AcDbLine
 10
87.08901
 20
223.9600119999999
 30
0.0
 11
88.158796
 21
223.615286
 31
0.0
  0
LINE
  5
1C8
330
1E
100
AcDbEntity
  8
1
  6
Continuous
 62
     7
100
AcDbLine
 10
88.158796
 20
223.615286
 30
0.0
 11
89.236845
 21
223.3464829999999
 31
0.0
  0
LINE
  5
1C9
330
1E
100
AcDbEntity
  8
1
  6
Continuous
 62
     7
100
AcDbLine
 10
89.236845
 20
223.3464829999999
 30
0.0
 11
90.32110600000001
 21
223.1541149999999
 31
0.0
  0
LINE
  5
1CA
330
1E
100
AcDbEntity
  8
1
  6
Continuous
 62
     7
100
AcDbLine
 10
90.32110600000001
 20
223.1541149999999
 30
0.0
 11
91.40951499999999
 21
223.038547
 31
0.0
  0
LINE
  5
1CB
330
1E
100
AcDbEntity
  8
1
  6
Continuous
 62
     7
100
AcDbLine
 10
91.40951499999999
 20
223.038547
 30
0.0
 11
92.5
 21
223.0
 31
0.0
  0
LINE
  5
1CC
330
1E
100
AcDbEntity
  8
1
  6
Continuous
 62
     7
100
AcDbLine
 10
92.5
 20
223.0
 30
0.0
 11
93.590485
 21
223.038547
 31
0.0
  0
LINE
  5
1CD
330
1E
100
AcDbEntity
  8
1
  6
Continuous
 62
     7
100
AcDbLine
 10
93.590485
 20
223.038547
 30
0.0
 11
94.678894
 21
223.1541149999999
 31
0.0
  0
LINE
  5
1CE
330
1E
100
AcDbEntity
  8
1
  6
Continuous
 62
     7
100
AcDbLine
 10
94.678894
 20
223.1541149999999
 30
0.0
 11
95.76315499999999
 21
223.3464829999999
 31
0.0
  0
LINE
  5
1CF
330
1E
100
AcDbEntity
  8
1
  6
Continuous
 62
     7
100
AcDbLine
 10
95.76315499999999
 20
223.3464829999999
 30
0.0
 11
96.84120400000001
 21
223.615286
 31
0.0
  0
LINE
  5
1D0
330
1E
100
AcDbEntity
  8
1
  6
Continuous
 62
     7
100
AcDbLine
 10
96.84120400000001
 20
223.615286
 30
0.0
 11
97.91099
 21
223.9600119999999
 31
0.0
  0
LINE
  5
1D1
330
1E
100
AcDbEntity
  8
1
  6
Continuous
 62
     7
100
AcDbLine
 10
97.91099
 20
223.9600119999999
 30
0.0
 11
98.970476
 21
224.3800039999999
 31
0.0
  0
LINE
  5
1D2
330
1E
100
AcDbEntity
  8
1
  6
Continuous
 62
     7
100
AcDbLine
 10
98.970476
 20
224.3800039999999
 30
0.0
 11
100.017645
 21
224.874463
 31
0.0
  0
LINE
  5
1D3
330
1E
100
AcDbEntity
  8
1
  6
Continuous
 62
     7
100
AcDbLine
 10
100.017645
 20
224.874463
 30
0.0
 11
101.0505039999999
 21
225.442449
 31
0.0
  0
LINE
  5
1D4
330
1E
100
AcDbEntity
  8
1
  6
Continuous
 62
     7
100
AcDbLine
 10
101.0505039999999
 20
225.442449
 30
0.0
 11
102.067086
 21
226.082879
 31
0.0
  0
LINE
  5
1D5
330
1E
100
AcDbEntity
  8
1
  6
Continuous
 62
     7
100
AcDbLine
 10
102.067086
 20
226.082879
 30
0.0
 11
103.065457
 21
226.794535
 31
0.0
  0
LINE
  5
1D6
330
1E
100
AcDbEntity
  8
1
  6
Continuous
 62
     7
100
AcDbLine
 10
103.065457
 20
226.794535
 30
0.0
 11
104.043715
 21
227.5760609999999
 31
0.0
  0
LINE
  5
1D7
330
1E
100
AcDbEntity
  8
1
  6
Continuous
 62
     7
100
AcDbLine
 10
104.043715
 20
227.5760609999999
 30
0.0
 11
105.0
 21
228.425971
 31
0.0
  0
LINE
  5
1D8
330
1E
100
AcDbEntity
  8
1
  6
Continuous
 62
     7
100
AcDbLine
 10
105.0
 20
228.425971
 30
0.0
 11
105.9324899999999
 21
229.342646
 31
0.0
  0
LINE
  5
1D9
330
1E
100
AcDbEntity
  8
1
  6
Continuous
 62
     7
100
AcDbLine
 10
105.9324899999999
 20
229.342646
 30
0.0
 11
106.839411
 21
230.324342
 31
0.0
  0
LINE
  5
1DA
330
1E
100
AcDbEntity
  8
1
  6
Continuous
 62
     7
100
AcDbLine
 10
106.839411
 20
230.324342
 30
0.0
 11
107.719036
 21
231.36919
 31
0.0
  0
LINE
  5
1DB
330
1E
100
AcDbEntity
  8
1
  6
Continuous
 62
     7
100
AcDbLine
 10
107.719036
 20
231.36919
 30
0.0
 11
108.56969
 21
232.4752
 31
0.0
  0
LINE
  5
1DC
330
1E
100
AcDbEntity
  8
1
  6
Continuous
 62
     7
100
AcDbLine
 10
108.56969
 20
232.4752
 30
0.0
 11
109.389755
 21
233.640268
 31
0.0
  0
LINE
  5
1DD
330
1E
100
AcDbEntity
  8
1
  6
Continuous
 62
     7
100
AcDbLine
 10
109.389755
 20
233.640268
 30
0.0
 11
110.17767
 21
234.8621749999999
 31
0.0
  0
LINE
  5
1DE
330
1E
100
AcDbEntity
  8
1
  6
Continuous
 62
     7
100
AcDbLine
 10
110.17767
 20
234.8621749999999
 30
0.0
 11
110.9319329999999
 21
236.138597
 31
0.0
  0
LINE
  5
1DF
330
1E
100
AcDbEntity
  8
1
  6
Continuous
 62
     7
100
AcDbLine
 10
110.9319329999999
 20
236.138597
 30
0.0
 11
111.651111
 21
237.467102
 31
0.0
  0
LINE
  5
1E0
330
1E
100
AcDbEntity
  8
1
  6
Continuous
 62
     7
100
AcDbLine
 10
111.651111
 20
237.467102
 30
0.0
 11
112.333834
 21
238.845162
 31
0.0
  0
LINE
  5
1E1
330
1E
100
AcDbEntity
  8
1
  6
Continuous
 62
     7
100
AcDbLine
 10
112.333834
 20
238.845162
 30
0.0
 11
112.978801
 21
240.2701539999999
 31
0.0
  0
LINE
  5
1E2
330
1E
100
AcDbEntity
  8
1
  6
Continuous
 62
     7
100
AcDbLine
 10
112.978801
 20
240.2701539999999
 30
0.0
 11
113.584786
 21
241.739366
 31
0.0
  0
LINE
  5
1E3
330
1E
100
AcDbEntity
  8
1
  6
Continuous
 62
     7
100
AcDbLine
 10
113.584786
 20
241.739366
 30
0.0
 11
114.150635
 21
243.25
 31
0.0
  0
LINE
  5
1E4
330
1E
100
AcDbEntity
  8
1
  6
Continuous
 62
     7
100
AcDbLine
 10
114.150635
 20
243.25
 30
0.0
 11
114.6752709999999
 21
244.7991809999999
 31
0.0
  0
LINE
  5
1E5
330
1E
100
AcDbEntity
  8
1
  6
Continuous
 62
     7
100
AcDbLine
 10
114.6752709999999
 20
244.7991809999999
 30
0.0
 11
115.1576949999999
 21
246.38396
 31
0.0
  0
LINE
  5
1E6
330
1E
100
AcDbEntity
  8
1
  6
Continuous
 62
     7
100
AcDbLine
 10
115.1576949999999
 20
246.38396
 30
0.0
 11
115.5969879999999
 21
248.001321
 31
0.0
  0
LINE
  5
1E7
330
1E
100
AcDbEntity
  8
1
  6
Continuous
 62
     7
100
AcDbLine
 10
115.5969879999999
 20
248.001321
 30
0.0
 11
115.9923159999999
 21
249.6481839999999
 31
0.0
  0
LINE
  5
1E8
330
1E
100
AcDbEntity
  8
1
  6
Continuous
 62
     7
100
AcDbLine
 10
115.9923159999999
 20
249.6481839999999
 30
0.0
 11
116.3429239999999
 21
251.321415
 31
0.0
  0
LINE
  5
1E9
330
1E
100
AcDbEntity
  8
1
  6
Continuous
 62
     7
100
AcDbLine
 10
116.3429239999999
 20
251.321415
 30
0.0
 11
116.6481459999999
 21
253.017829
 31
0.0
  0
LINE
  5
1EA
330
1E
100
AcDbEntity
  8
1
  6
Continuous
 62
     7
100
AcDbLine
 10
116.6481459999999
 20
253.017829
 30
0.0
 11
116.9073999999999
 21
254.734196
 31
0.0
  0
LINE
  5
1EB
330
1E
100
AcDbEntity
  8
1
  6
Continuous
 62
     7
100
AcDbLine
 10
116.9073999999999
 20
254.734196
 30
0.0
 11
117.1201939999999
 21
256.467249
 31
0.0
  0
LINE
  5
1EC
330
1E
100
AcDbEntity
  8
1
  6
Continuous
 62
     7
100
AcDbLine
 10
117.1201939999999
 20
256.467249
 30
0.0
 11
117.2861219999999
 21
258.213689
 31
0.0
  0
LINE
  5
1ED
330
1E
100
AcDbEntity
  8
1
  6
Continuous
 62
     7
100
AcDbLine
 10
117.2861219999999
 20
258.213689
 30
0.0
 11
117.4048669999999
 21
259.970192
 31
0.0
  0
LINE
  5
1EE
330
1E
100
AcDbEntity
  8
1
  6
Continuous
 62
     7
100
AcDbLine
 10
117.4048669999999
 20
259.970192
 30
0.0
 11
117.476206
 21
261.733415
 31
0.0
  0
LINE
  5
1EF
330
1E
100
AcDbEntity
  8
1
  6
Continuous
 62
     7
100
AcDbLine
 10
117.476206
 20
261.733415
 30
0.0
 11
117.5
 21
263.5
 31
0.0
  0
LINE
  5
1F0
330
1E
100
AcDbEntity
  8
1
  6
Continuous
 62
     7
100
AcDbLine
 10
64.710612
 20
265.359593
 30
0.0
 11
67.5
 21
263.5
 31
0.0
  0
LINE
  5
1F1
330
1E
100
AcDbEntity
  8
1
  6
Continuous
 62
     7
100
AcDbLine
 10
117.5
 20
263.5
 30
0.0
 11
120.2893889999999
 21
265.359592
 31
0.0
  0
LINE
  5
1F2
330
1E
100
AcDbEntity
  8
1
  6
Continuous
 62
     7
100
AcDbLine
 10
92.05845399999999
 20
266.796147
 30
0.0
 11
91.850812
 21
266.2915019999999
 31
0.0
  0
LINE
  5
1F3
330
1E
100
AcDbEntity
  8
1
  6
Continuous
 62
     7
100
AcDbLine
 10
92.941546
 20
266.796147
 30
0.0
 11
93.14918799999999
 21
266.2915019999999
 31
0.0
  0
LINE
  5
1F4
330
1E
100
AcDbEntity
  8
1
  6
Continuous
 62
     7
100
AcDbLine
 10
95.36404199999999
 20
266.637368
 30
0.0
 11
95.09230699999999
 21
266.164143
 31
0.0
  0
LINE
  5
1F5
330
1E
100
AcDbEntity
  8
1
  6
Continuous
 62
     7
100
AcDbLine
 10
96.23958000000001
 20
266.5221009999999
 30
0.0
 11
96.379576
 21
265.9946709999999
 31
0.0
  0
LINE
  5
1F6
330
1E
100
AcDbEntity
  8
1
  6
Continuous
 62
     7
100
AcDbLine
 10
99.473628
 20
265.81992
 30
0.0
 11
99.543583
 21
265.278729
 31
0.0
  0
LINE
  5
1F7
330
1E
100
AcDbEntity
  8
1
  6
Continuous
 62
     7
100
AcDbLine
 10
98.62062600000001
 20
266.0484819999999
 30
0.0
 11
98.289447
 21
265.614774
 31
0.0
  0
LINE
  5
1F8
330
1E
100
AcDbEntity
  8
1
  6
Continuous
 62
     7
100
AcDbLine
 10
101.7724819999999
 20
265.0395649999999
 30
0.0
 11
101.387526
 21
264.652795
 31
0.0
  0
LINE
  5
1F9
330
1E
100
AcDbEntity
  8
1
  6
Continuous
 62
     7
100
AcDbLine
 10
102.5883529999999
 20
264.7016199999999
 30
0.0
 11
102.58707
 21
264.155927
 31
0.0
  0
LINE
  5
1FA
330
1E
100
AcDbEntity
  8
1
  6
Continuous
 62
     7
100
AcDbLine
 10
89.63595600000001
 20
266.637368
 30
0.0
 11
89.907692
 21
266.164143
 31
0.0
  0
LINE
  5
1FB
330
1E
100
AcDbEntity
  8
1
  6
Continuous
 62
     7
100
AcDbLine
 10
88.76041999999999
 20
266.5221009999999
 30
0.0
 11
88.620423
 21
265.9946709999999
 31
0.0
  0
LINE
  5
1FC
330
1E
100
AcDbEntity
  8
1
  6
Continuous
 62
     7
100
AcDbLine
 10
86.379373
 20
266.0484809999999
 30
0.0
 11
86.71055200000001
 21
265.614774
 31
0.0
  0
LINE
  5
1FD
330
1E
100
AcDbEntity
  8
1
  6
Continuous
 62
     7
100
AcDbLine
 10
85.52637199999999
 20
265.81992
 30
0.0
 11
85.45641600000001
 21
265.278729
 31
0.0
  0
LINE
  5
1FE
330
1E
100
AcDbEntity
  8
1
  6
Continuous
 62
     7
100
AcDbLine
 10
83.227522
 20
265.0395669999999
 30
0.0
 11
83.61247799999999
 21
264.652797
 31
0.0
  0
LINE
  5
1FF
330
1E
100
AcDbEntity
  8
1
  6
Continuous
 62
     7
100
AcDbLine
 10
82.41165200000001
 20
264.701622
 30
0.0
 11
82.41293399999999
 21
264.1559299999999
 31
0.0
  0
ARC
  5
200
330
1E
100
AcDbEntity
  8
1
  6
Continuous
 62
     7
100
AcDbCircle
 10
92.5
 20
241.5
 30
0.0
 40
24.8
100
AcDbArc
 50
113.9999909999999
 51
116.012358
  0
ARC
  5
201
330
1E
100
AcDbEntity
  8
1
  6
Continuous
 62
     7
100
AcDbCircle
 10
92.5
 20
241.5
 30
0.0
 40
24.8
100
AcDbArc
 50
106.500007
 51
110.9999909999999
  0
ARC
  5
202
330
1E
100
AcDbEntity
  8
1
  6
Continuous
 62
     7
100
AcDbCircle
 10
92.5
 20
241.5
 30
0.0
 40
24.8
100
AcDbArc
 50
99.000005
 51
103.500007
  0
ARC
  5
203
330
1E
100
AcDbEntity
  8
1
  6
Continuous
 62
     7
100
AcDbCircle
 10
92.5
 20
241.5
 30
0.0
 40
24.8
100
AcDbArc
 50
91.5
 51
96.00000500000001
  0
ARC
  5
204
330
1E
100
AcDbEntity
  8
1
  6
Continuous
 62
     7
100
AcDbCircle
 10
92.5
 20
241.5
 30
0.0
 40
24.8
100
AcDbArc
 50
63.987642
 51
65.999996
  0
ARC
  5
205
330
1E
100
AcDbEntity
  8
1
  6
Continuous
 62
     7
100
AcDbCircle
 10
92.5
 20
241.5
 30
0.0
 40
24.8
100
AcDbArc
 50
76.49999499999999
 51
80.999996
  0
ARC
  5
206
330
1E
100
AcDbEntity
  8
1
  6
Continuous
 62
     7
100
AcDbCircle
 10
92.5
 20
241.5
 30
0.0
 40
24.8
100
AcDbArc
 50
68.999998
 51
73.499993
  0
ARC
  5
207
330
1E
100
AcDbEntity
  8
1
  6
Continuous
 62
     7
100
AcDbCircle
 10
92.5
 20
241.5
 30
0.0
 40
24.8
100
AcDbArc
 50
83.99999800000001
 51
88.49999999999999
  0
LINE
  5
208
330
1E
100
AcDbEntity
  8
1
  6
Continuous
 62
     7
100
AcDbLine
 10
152.5
 20
339.5599879999999
 30
0.0
 11
155.4999999999999
 21
339.559989
 31
0.0
  0
LINE
  5
209
330
1E
100
AcDbEntity
  8
1
  6
Continuous
 62
     7
100
AcDbLine
 10
152.5
 20
337.139988
 30
0.0
 11
155.4999999999999
 21
337.139989
 31
0.0
  0
LINE
  5
20A
330
1E
100
AcDbEntity
  8
1
  6
Continuous
 62
     7
100
AcDbLine
 10
152.500001
 20
336.2599879999999
 30
0.0
 11
155.500001
 21
336.259989
 31
0.0
  0
LINE
  5
20B
330
1E
100
AcDbEntity
  8
1
  6
Continuous
 62
     7
100
AcDbLine
 10
152.500001
 20
333.8799879999999
 30
0.0
 11
155.500001
 21
333.879989
 31
0.0
  0
LINE
  5
20C
330
1E
100
AcDbEntity
  8
1
  6
Continuous
 62
     7
100
AcDbLine
 10
152.500001
 20
333.029988
 30
0.0
 11
155.500001
 21
333.029989
 31
0.0
  0
LINE
  5
20D
330
1E
100
AcDbEntity
  8
1
  6
Continuous
 62
     7
100
AcDbLine
 10
152.500001
 20
330.7299879999999
 30
0.0
 11
155.500001
 21
330.7299889999999
 31
0.0
  0
LINE
  5
20E
330
1E
100
AcDbEntity
  8
1
  6
Continuous
 62
     7
100
AcDbLine
 10
152.500001
 20
329.9099879999999
 30
0.0
 11
155.500001
 21
329.9099889999999
 31
0.0
  0
LINE
  5
20F
330
1E
100
AcDbEntity
  8
1
  6
Continuous
 62
     7
100
AcDbLine
 10
152.5
 20
340.439989
 30
0.0
 11
155.4999999999999
 21
340.439989
 31
0.0
  0
LINE
  5
210
330
1E
100
AcDbEntity
  8
1
  6
Continuous
 62
     7
100
AcDbLine
 10
152.5
 20
342.859989
 30
0.0
 11
155.4999999999999
 21
342.859989
 31
0.0
  0
LINE
  5
211
330
1E
100
AcDbEntity
  8
1
  6
Continuous
 62
     7
100
AcDbLine
 10
152.500001
 20
343.739989
 30
0.0
 11
155.500001
 21
343.739989
 31
0.0
  0
LINE
  5
212
330
1E
100
AcDbEntity
  8
1
  6
Continuous
 62
     7
100
AcDbLine
 10
152.500001
 20
346.119989
 30
0.0
 11
155.500001
 21
346.119989
 31
0.0
  0
LINE
  5
213
330
1E
100
AcDbEntity
  8
1
  6
Continuous
 62
     7
100
AcDbLine
 10
152.500001
 20
346.969989
 30
0.0
 11
155.500001
 21
346.969989
 31
0.0
  0
LINE
  5
214
330
1E
100
AcDbEntity
  8
1
  6
Continuous
 62
     7
100
AcDbLine
 10
152.500001
 20
349.269989
 30
0.0
 11
155.500001
 21
349.269989
 31
0.0
  0
LINE
  5
215
330
1E
100
AcDbEntity
  8
1
  6
Continuous
 62
     7
100
AcDbLine
 10
152.500001
 20
350.0899889999999
 30
0.0
 11
155.500001
 21
350.0899889999999
 31
0.0
  0
CIRCLE
  5
216
330
1E
100
AcDbEntity
  8
1
  6
Continuous
 62
     7
100
AcDbCircle
 10
92.5
 20
241.5
 30
0.0
 40
8.199999999999999
  0
LINE
  5
217
330
1E
100
AcDbEntity
  8
1
  6
Continuous
 62
     7
100
AcDbLine
 10
88.0
 20
246.0
 30
0.0
 11
88.0
 21
237.0
 31
0.0
  0
LINE
  5
218
330
1E
100
AcDbEntity
  8
1
  6
Continuous
 62
     7
100
AcDbLine
 10
88.0
 20
237.0
 30
0.0
 11
97.0
 21
237.0
 31
0.0
  0
LINE
  5
219
330
1E
100
AcDbEntity
  8
1
  6
Continuous
 62
     7
100
AcDbLine
 10
97.0
 20
237.0
 30
0.0
 11
97.0
 21
246.0
 31
0.0
  0
LINE
  5
21A
330
1E
100
AcDbEntity
  8
1
  6
Continuous
 62
     7
100
AcDbLine
 10
97.0
 20
246.0
 30
0.0
 11
88.0
 21
246.0
 31
0.0
  0
LINE
  5
21B
330
1E
100
AcDbEntity
  8
1
  6
HIDDEN
 62
     7
100
AcDbLine
 10
359.5
 20
214.5
 30
0.0
 11
356.8
 21
206.1999999999999
 31
0.0
  0
LINE
  5
21C
330
1E
100
AcDbEntity
  8
1
  6
HIDDEN
 62
     7
100
AcDbLine
 10
356.8
 20
206.1999999999999
 30
0.0
 11
328.2
 21
206.1999999999999
 31
0.0
  0
LINE
  5
21D
330
1E
100
AcDbEntity
  8
1
  6
HIDDEN
 62
     7
100
AcDbLine
 10
328.2
 20
206.1999999999999
 30
0.0
 11
325.4999999999999
 21
214.5
 31
0.0
  0
LINE
  5
21E
330
1E
100
AcDbEntity
  8
1
  6
HIDDEN
 62
     7
100
AcDbLine
 10
355.0
 20
214.5
 30
0.0
 11
355.0
 21
211.6
 31
0.0
  0
LINE
  5
21F
330
1E
100
AcDbEntity
  8
1
  6
HIDDEN
 62
     7
100
AcDbLine
 10
350.0
 20
214.5
 30
0.0
 11
350.0
 21
211.6
 31
0.0
  0
ARC
  5
220
330
1E
100
AcDbEntity
  8
1
  6
HIDDEN
 62
     7
100
AcDbCircle
 10
352.4999999999999
 20
211.6
 30
0.0
 40
2.5
100
AcDbArc
 50
180.0
 51
0.0
  0
LINE
  5
221
330
1E
100
AcDbEntity
  8
1
  6
HIDDEN
 62
     7
100
AcDbLine
 10
346.4999999999999
 20
206.1999999999999
 30
0.0
 11
346.4999999999999
 21
211.5
 31
0.0
  0
LINE
  5
222
330
1E
100
AcDbEntity
  8
1
  6
HIDDEN
 62
     7
100
AcDbLine
 10
346.4999999999999
 20
211.5
 30
0.0
 11
338.5
 21
211.5
 31
0.0
  0
LINE
  5
223
330
1E
100
AcDbEntity
  8
1
  6
HIDDEN
 62
     7
100
AcDbLine
 10
338.5
 20
211.5
 30
0.0
 11
338.5
 21
206.1999999999999
 31
0.0
  0
LINE
  5
224
330
1E
100
AcDbEntity
  8
1
  6
Continuous
 62
     7
100
AcDbLine
 10
325.0
 20
268.5
 30
0.0
 11
360.0
 21
268.5
 31
0.0
  0
ARC
  5
225
330
1E
100
AcDbEntity
  8
1
  6
Continuous
 62
     7
100
AcDbCircle
 10
318.5
 20
218.5
 30
0.0
 40
4.0
100
AcDbArc
 50
180.0
 51
270.0
  0
LINE
  5
226
330
1E
100
AcDbEntity
  8
1
  6
Continuous
 62
     7
100
AcDbLine
 10
318.5
 20
214.5
 30
0.0
 11
366.5
 21
214.5
 31
0.0
  0
ARC
  5
227
330
1E
100
AcDbEntity
  8
1
  6
Continuous
 62
     7
100
AcDbCircle
 10
366.5
 20
218.5
 30
0.0
 40
4.0
100
AcDbArc
 50
270.0
 51
0.0
  0
LINE
  5
228
330
1E
100
AcDbEntity
  8
1
  6
Continuous
 62
     7
100
AcDbLine
 10
314.5
 20
264.745699
 30
0.0
 11
314.5
 21
218.5
 31
0.0
  0
LINE
  5
229
330
1E
100
AcDbEntity
  8
1
  6
Continuous
 62
     7
100
AcDbLine
 10
315.2252789999999
 20
265.707223
 30
0.0
 11
325.0
 21
268.5
 31
0.0
  0
ARC
  5
22A
330
1E
100
AcDbEntity
  8
1
  6
Continuous
 62
     7
100
AcDbCircle
 10
315.5
 20
264.745699
 30
0.0
 40
1.0
100
AcDbArc
 50
105.9453959999999
 51
180.0
  0
LINE
  5
22B
330
1E
100
AcDbEntity
  8
1
  6
Continuous
 62
     7
100
AcDbLine
 10
370.5
 20
218.5
 30
0.0
 11
370.5
 21
264.745699
 31
0.0
  0
LINE
  5
22C
330
1E
100
AcDbEntity
  8
1
  6
Continuous
 62
     7
100
AcDbLine
 10
360.0
 20
268.5
 30
0.0
 11
369.774721
 21
265.707223
 31
0.0
  0
ARC
  5
22D
330
1E
100
AcDbEntity
  8
1
  6
Continuous
 62
     7
100
AcDbCircle
 10
369.5
 20
264.745699
 30
0.0
 40
1.0
100
AcDbArc
 50
0.0
 51
74.05460399999999
  0
ARC
  5
22E
330
1E
100
AcDbEntity
  8
1
  6
Continuous
 62
     7
100
AcDbCircle
 10
318.5
 20
218.5
 30
0.0
 40
1.0
100
AcDbArc
 50
180.0
 51
270.0
  0
LINE
  5
22F
330
1E
100
AcDbEntity
  8
1
  6
Continuous
 62
     7
100
AcDbLine
 10
318.5
 20
217.5
 30
0.0
 11
366.5
 21
217.5
 31
0.0
  0
ARC
  5
230
330
1E
100
AcDbEntity
  8
1
  6
Continuous
 62
     7
100
AcDbCircle
 10
366.5
 20
218.5
 30
0.0
 40
1.0
100
AcDbArc
 50
270.0
 51
0.0
  0
LINE
  5
231
330
1E
100
AcDbEntity
  8
1
  6
Continuous
 62
     7
100
AcDbLine
 10
367.5
 20
218.5
 30
0.0
 11
367.5
 21
263.5
 31
0.0
  0
ARC
  5
232
330
1E
100
AcDbEntity
  8
1
  6
Continuous
 62
     7
100
AcDbCircle
 10
366.5
 20
263.5
 30
0.0
 40
1.0
100
AcDbArc
 50
0.0
 51
90.0
  0
LINE
  5
233
330
1E
100
AcDbEntity
  8
1
  6
Continuous
 62
     7
100
AcDbLine
 10
366.5
 20
264.5
 30
0.0
 11
318.5
 21
264.5
 31
0.0
  0
LINE
  5
234
330
1E
100
AcDbEntity
  8
1
  6
Continuous
 62
     7
100
AcDbLine
 10
317.5
 20
263.5
 30
0.0
 11
317.5
 21
218.5
 31
0.0
  0
ARC
  5
235
330
1E
100
AcDbEntity
  8
1
  6
Continuous
 62
     7
100
AcDbCircle
 10
318.5
 20
263.5
 30
0.0
 40
1.0
100
AcDbArc
 50
90.0
 51
180.0
  0
LINE
  5
236
330
1E
100
AcDbEntity
  8
1
  6
Continuous
 62
     7
100
AcDbLine
 10
331.0
 20
235.0
 30
0.0
 11
331.0
 21
222.5
 31
0.0
  0
LINE
  5
237
330
1E
100
AcDbEntity
  8
1
  6
Continuous
 62
     7
100
AcDbLine
 10
331.0
 20
222.5
 30
0.0
 11
341.5
 21
222.5
 31
0.0
  0
LINE
  5
238
330
1E
100
AcDbEntity
  8
1
  6
Continuous
 62
     7
100
AcDbLine
 10
341.5
 20
222.5
 30
0.0
 11
341.5
 21
235.0
 31
0.0
  0
LINE
  5
239
330
1E
100
AcDbEntity
  8
1
  6
Continuous
 62
     7
100
AcDbLine
 10
341.5
 20
235.0
 30
0.0
 11
331.0
 21
235.0
 31
0.0
  0
LINE
  5
23A
330
1E
100
AcDbEntity
  8
1
  6
Continuous
 62
     7
100
AcDbLine
 10
331.0
 20
232.5
 30
0.0
 11
328.5
 21
232.5
 31
0.0
  0
LINE
  5
23B
330
1E
100
AcDbEntity
  8
1
  6
Continuous
 62
     7
100
AcDbLine
 10
328.5
 20
232.5
 30
0.0
 11
328.5
 21
222.5
 31
0.0
  0
LINE
  5
23C
330
1E
100
AcDbEntity
  8
1
  6
Continuous
 62
     7
100
AcDbLine
 10
328.5
 20
222.5
 30
0.0
 11
331.0
 21
222.5
 31
0.0
  0
LINE
  5
23D
330
1E
100
AcDbEntity
  8
1
  6
Continuous
 62
     7
100
AcDbLine
 10
328.5
 20
227.4999999999999
 30
0.0
 11
331.0
 21
227.4999999999999
 31
0.0
  0
CIRCLE
  5
23E
330
1E
100
AcDbEntity
  8
1
  6
Continuous
 62
     7
100
AcDbCircle
 10
333.4999999999999
 20
224.5
 30
0.0
 40
1.5
  0
CIRCLE
  5
23F
330
1E
100
AcDbEntity
  8
1
  6
Continuous
 62
     7
100
AcDbCircle
 10
333.4999999999999
 20
229.4999999999999
 30
0.0
 40
1.5
  0
LINE
  5
240
330
1E
100
AcDbEntity
  8
1
  6
Continuous
 62
     7
100
AcDbLine
 10
336.0
 20
222.5
 30
0.0
 11
336.0
 21
235.0
 31
0.0
  0
CIRCLE
  5
241
330
1E
100
AcDbEntity
  8
1
  6
Continuous
 62
     7
100
AcDbCircle
 10
350.4999999999999
 20
227.0
 30
0.0
 40
4.799999999999999
  0
CIRCLE
  5
242
330
1E
100
AcDbEntity
  8
1
  6
Continuous
 62
     7
100
AcDbCircle
 10
350.4999999999999
 20
227.0
 30
0.0
 40
2.399999999999999
  0
CIRCLE
  5
243
330
1E
100
AcDbEntity
  8
1
  6
Continuous
 62
     7
100
AcDbCircle
 10
350.4999999999999
 20
227.0
 30
0.0
 40
0.6
  0
LINE
  5
244
330
1E
100
AcDbEntity
  8
1
  6
Continuous
 62
     7
100
AcDbLine
 10
353.3220959999999
 20
230.8827529999999
 30
0.0
 11
353.92947
 21
231.4901259999999
 31
0.0
  0
LINE
  5
245
330
1E
100
AcDbEntity
  8
1
  6
Continuous
 62
     7
100
AcDbLine
 10
353.92947
 20
231.4901259999999
 30
0.0
 11
354.9901299999999
 21
230.429466
 31
0.0
  0
LINE
  5
246
330
1E
100
AcDbEntity
  8
1
  6
Continuous
 62
     7
100
AcDbLine
 10
354.9901299999999
 20
230.429466
 30
0.0
 11
354.382756
 21
229.822093
 31
0.0
  0
LINE
  5
247
330
1E
100
AcDbEntity
  8
1
  6
Continuous
 62
     7
100
AcDbLine
 10
346.617247
 20
224.177904
 30
0.0
 11
346.009872
 21
223.5705299999999
 31
0.0
  0
LINE
  5
248
330
1E
100
AcDbEntity
  8
1
  6
Continuous
 62
     7
100
AcDbLine
 10
346.009872
 20
223.5705299999999
 30
0.0
 11
347.0705319999999
 21
222.509871
 31
0.0
  0
LINE
  5
249
330
1E
100
AcDbEntity
  8
1
  6
Continuous
 62
     7
100
AcDbLine
 10
347.0705319999999
 20
222.509871
 30
0.0
 11
347.677907
 21
223.1172439999999
 31
0.0
  0
CIRCLE
  5
24A
330
1E
100
AcDbEntity
  8
1
  6
Continuous
 62
     7
100
AcDbCircle
 10
342.5
 20
248.4999999999999
 30
0.0
 40
4.099999999999999
  0
CIRCLE
  5
24B
330
1E
100
AcDbEntity
  8
1
  6
Continuous
 62
     7
100
AcDbCircle
 10
342.5
 20
248.4999999999999
 30
0.0
 40
1.7
  0
LINE
  5
24C
330
1E
100
AcDbEntity
  8
1
  6
Continuous
 62
     7
100
AcDbLine
 10
328.0
 20
254.4999999999999
 30
0.0
 11
328.0
 21
244.0999999999999
 31
0.0
  0
LINE
  5
24D
330
1E
100
AcDbEntity
  8
1
  6
Continuous
 62
     7
100
AcDbLine
 10
328.0
 20
244.0999999999999
 30
0.0
 11
332.0
 21
244.0999999999999
 31
0.0
  0
LINE
  5
24E
330
1E
100
AcDbEntity
  8
1
  6
Continuous
 62
     7
100
AcDbLine
 10
332.0
 20
244.0999999999999
 30
0.0
 11
332.0
 21
254.4999999999999
 31
0.0
  0
LINE
  5
24F
330
1E
100
AcDbEntity
  8
1
  6
Continuous
 62
     7
100
AcDbLine
 10
332.0
 20
254.4999999999999
 30
0.0
 11
328.0
 21
254.4999999999999
 31
0.0
  0
LINE
  5
250
330
1E
100
AcDbEntity
  8
1
  6
Continuous
 62
     7
100
AcDbLine
 10
326.5
 20
253.8499999999999
 30
0.0
 11
327.4999999999999
 21
253.8499999999999
 31
0.0
  0
LINE
  5
251
330
1E
100
AcDbEntity
  8
1
  6
Continuous
 62
     7
100
AcDbLine
 10
326.5
 20
252.55
 30
0.0
 11
327.4999999999999
 21
252.55
 31
0.0
  0
LINE
  5
252
330
1E
100
AcDbEntity
  8
1
  6
Continuous
 62
     7
100
AcDbLine
 10
326.5
 20
251.25
 30
0.0
 11
327.4999999999999
 21
251.25
 31
0.0
  0
LINE
  5
253
330
1E
100
AcDbEntity
  8
1
  6
Continuous
 62
     7
100
AcDbLine
 10
326.5
 20
249.9499999999999
 30
0.0
 11
327.4999999999999
 21
249.9499999999999
 31
0.0
  0
LINE
  5
254
330
1E
100
AcDbEntity
  8
1
  6
Continuous
 62
     7
100
AcDbLine
 10
326.5
 20
248.6499999999999
 30
0.0
 11
327.4999999999999
 21
248.6499999999999
 31
0.0
  0
LINE
  5
255
330
1E
100
AcDbEntity
  8
1
  6
Continuous
 62
     7
100
AcDbLine
 10
326.5
 20
247.35
 30
0.0
 11
327.4999999999999
 21
247.35
 31
0.0
  0
LINE
  5
256
330
1E
100
AcDbEntity
  8
1
  6
Continuous
 62
     7
100
AcDbLine
 10
326.5
 20
246.05
 30
0.0
 11
327.4999999999999
 21
246.05
 31
0.0
  0
LINE
  5
257
330
1E
100
AcDbEntity
  8
1
  6
Continuous
 62
     7
100
AcDbLine
 10
326.5
 20
244.75
 30
0.0
 11
327.4999999999999
 21
244.75
 31
0.0
  0
LINE
  5
258
330
1E
100
AcDbEntity
  8
1
  6
Continuous
 62
     7
100
AcDbLine
 10
333.4999999999999
 20
253.8499999999999
 30
0.0
 11
332.5
 21
253.8499999999999
 31
0.0
  0
LINE
  5
259
330
1E
100
AcDbEntity
  8
1
  6
Continuous
 62
     7
100
AcDbLine
 10
333.4999999999999
 20
252.55
 30
0.0
 11
332.5
 21
252.55
 31
0.0
  0
LINE
  5
25A
330
1E
100
AcDbEntity
  8
1
  6
Continuous
 62
     7
100
AcDbLine
 10
333.4999999999999
 20
251.25
 30
0.0
 11
332.5
 21
251.25
 31
0.0
  0
LINE
  5
25B
330
1E
100
AcDbEntity
  8
1
  6
Continuous
 62
     7
100
AcDbLine
 10
333.4999999999999
 20
249.9499999999999
 30
0.0
 11
332.5
 21
249.9499999999999
 31
0.0
  0
LINE
  5
25C
330
1E
100
AcDbEntity
  8
1
  6
Continuous
 62
     7
100
AcDbLine
 10
333.4999999999999
 20
248.6499999999999
 30
0.0
 11
332.5
 21
248.6499999999999
 31
0.0
  0
LINE
  5
25D
330
1E
100
AcDbEntity
  8
1
  6
Continuous
 62
     7
100
AcDbLine
 10
333.4999999999999
 20
247.35
 30
0.0
 11
332.5
 21
247.35
 31
0.0
  0
LINE
  5
25E
330
1E
100
AcDbEntity
  8
1
  6
Continuous
 62
     7
100
AcDbLine
 10
333.4999999999999
 20
246.05
 30
0.0
 11
332.5
 21
246.05
 31
0.0
  0
LINE
  5
25F
330
1E
100
AcDbEntity
  8
1
  6
Continuous
 62
     7
100
AcDbLine
 10
333.4999999999999
 20
244.75
 30
0.0
 11
332.5
 21
244.75
 31
0.0
  0
LINE
  5
260
330
1E
100
AcDbEntity
  8
1
  6
Continuous
 62
     7
100
AcDbLine
 10
325.0
 20
255.25
 30
0.0
 11
325.4999999999999
 21
255.25
 31
0.0
  0
LINE
  5
261
330
1E
100
AcDbEntity
  8
1
  6
Continuous
 62
     7
100
AcDbLine
 10
325.4999999999999
 20
255.25
 30
0.0
 11
326.5
 21
253.8499999999999
 31
0.0
  0
LINE
  5
262
330
1E
100
AcDbEntity
  8
1
  6
Continuous
 62
     7
100
AcDbLine
 10
325.0
 20
253.55
 30
0.0
 11
325.4999999999999
 21
253.55
 31
0.0
  0
LINE
  5
263
330
1E
100
AcDbEntity
  8
1
  6
Continuous
 62
     7
100
AcDbLine
 10
325.4999999999999
 20
253.55
 30
0.0
 11
326.5
 21
252.55
 31
0.0
  0
LINE
  5
264
330
1E
100
AcDbEntity
  8
1
  6
Continuous
 62
     7
100
AcDbLine
 10
325.0
 20
251.8499999999999
 30
0.0
 11
325.4999999999999
 21
251.8499999999999
 31
0.0
  0
LINE
  5
265
330
1E
100
AcDbEntity
  8
1
  6
Continuous
 62
     7
100
AcDbLine
 10
325.4999999999999
 20
251.8499999999999
 30
0.0
 11
326.5
 21
251.25
 31
0.0
  0
LINE
  5
266
330
1E
100
AcDbEntity
  8
1
  6
Continuous
 62
     7
100
AcDbLine
 10
325.0
 20
250.15
 30
0.0
 11
325.4999999999999
 21
250.15
 31
0.0
  0
LINE
  5
267
330
1E
100
AcDbEntity
  8
1
  6
Continuous
 62
     7
100
AcDbLine
 10
325.4999999999999
 20
250.15
 30
0.0
 11
326.5
 21
249.9499999999999
 31
0.0
  0
LINE
  5
268
330
1E
100
AcDbEntity
  8
1
  6
Continuous
 62
     7
100
AcDbLine
 10
325.0
 20
248.45
 30
0.0
 11
325.4999999999999
 21
248.45
 31
0.0
  0
LINE
  5
269
330
1E
100
AcDbEntity
  8
1
  6
Continuous
 62
     7
100
AcDbLine
 10
325.4999999999999
 20
248.45
 30
0.0
 11
326.5
 21
248.6499999999999
 31
0.0
  0
LINE
  5
26A
330
1E
100
AcDbEntity
  8
1
  6
Continuous
 62
     7
100
AcDbLine
 10
325.0
 20
246.75
 30
0.0
 11
325.4999999999999
 21
246.75
 31
0.0
  0
LINE
  5
26B
330
1E
100
AcDbEntity
  8
1
  6
Continuous
 62
     7
100
AcDbLine
 10
325.4999999999999
 20
246.75
 30
0.0
 11
326.5
 21
247.35
 31
0.0
  0
LINE
  5
26C
330
1E
100
AcDbEntity
  8
1
  6
Continuous
 62
     7
100
AcDbLine
 10
325.0
 20
245.05
 30
0.0
 11
325.4999999999999
 21
245.05
 31
0.0
  0
LINE
  5
26D
330
1E
100
AcDbEntity
  8
1
  6
Continuous
 62
     7
100
AcDbLine
 10
325.4999999999999
 20
245.05
 30
0.0
 11
326.5
 21
246.05
 31
0.0
  0
LINE
  5
26E
330
1E
100
AcDbEntity
  8
1
  6
Continuous
 62
     7
100
AcDbLine
 10
325.0
 20
243.3499999999999
 30
0.0
 11
325.4999999999999
 21
243.3499999999999
 31
0.0
  0
LINE
  5
26F
330
1E
100
AcDbEntity
  8
1
  6
Continuous
 62
     7
100
AcDbLine
 10
325.4999999999999
 20
243.3499999999999
 30
0.0
 11
326.5
 21
244.75
 31
0.0
  0
LINE
  5
270
330
1E
100
AcDbEntity
  8
1
  6
Continuous
 62
     7
100
AcDbLine
 10
335.0
 20
255.25
 30
0.0
 11
334.5
 21
255.25
 31
0.0
  0
LINE
  5
271
330
1E
100
AcDbEntity
  8
1
  6
Continuous
 62
     7
100
AcDbLine
 10
334.5
 20
255.25
 30
0.0
 11
333.4999999999999
 21
253.8499999999999
 31
0.0
  0
LINE
  5
272
330
1E
100
AcDbEntity
  8
1
  6
Continuous
 62
     7
100
AcDbLine
 10
335.0
 20
253.55
 30
0.0
 11
334.5
 21
253.55
 31
0.0
  0
LINE
  5
273
330
1E
100
AcDbEntity
  8
1
  6
Continuous
 62
     7
100
AcDbLine
 10
334.5
 20
253.55
 30
0.0
 11
333.4999999999999
 21
252.55
 31
0.0
  0
LINE
  5
274
330
1E
100
AcDbEntity
  8
1
  6
Continuous
 62
     7
100
AcDbLine
 10
335.0
 20
251.8499999999999
 30
0.0
 11
334.5
 21
251.8499999999999
 31
0.0
  0
LINE
  5
275
330
1E
100
AcDbEntity
  8
1
  6
Continuous
 62
     7
100
AcDbLine
 10
334.5
 20
251.8499999999999
 30
0.0
 11
333.4999999999999
 21
251.25
 31
0.0
  0
LINE
  5
276
330
1E
100
AcDbEntity
  8
1
  6
Continuous
 62
     7
100
AcDbLine
 10
335.0
 20
245.05
 30
0.0
 11
334.5
 21
245.05
 31
0.0
  0
LINE
  5
277
330
1E
100
AcDbEntity
  8
1
  6
Continuous
 62
     7
100
AcDbLine
 10
334.5
 20
245.05
 30
0.0
 11
333.4999999999999
 21
246.05
 31
0.0
  0
LINE
  5
278
330
1E
100
AcDbEntity
  8
1
  6
Continuous
 62
     7
100
AcDbLine
 10
335.0
 20
243.3499999999999
 30
0.0
 11
334.5
 21
243.3499999999999
 31
0.0
  0
LINE
  5
279
330
1E
100
AcDbEntity
  8
1
  6
Continuous
 62
     7
100
AcDbLine
 10
334.5
 20
243.3499999999999
 30
0.0
 11
333.4999999999999
 21
244.75
 31
0.0
  0
LINE
  5
27A
330
1E
100
AcDbEntity
  8
1
  6
Continuous
 62
     7
100
AcDbLine
 10
328.5
 20
254.3
 30
0.0
 11
328.5
 21
253.4
 31
0.0
  0
LINE
  5
27B
330
1E
100
AcDbEntity
  8
1
  6
Continuous
 62
     7
100
AcDbLine
 10
328.5
 20
253.4
 30
0.0
 11
331.4999999999999
 21
253.4
 31
0.0
  0
LINE
  5
27C
330
1E
100
AcDbEntity
  8
1
  6
Continuous
 62
     7
100
AcDbLine
 10
331.4999999999999
 20
253.4
 30
0.0
 11
331.4999999999999
 21
254.3
 31
0.0
  0
LINE
  5
27D
330
1E
100
AcDbEntity
  8
1
  6
Continuous
 62
     7
100
AcDbLine
 10
331.4999999999999
 20
254.3
 30
0.0
 11
328.5
 21
254.3
 31
0.0
  0
LINE
  5
27E
330
1E
100
AcDbEntity
  8
1
  6
Continuous
 62
     7
100
AcDbLine
 10
330.5
 20
254.1999999999999
 30
0.0
 11
330.5
 21
253.5
 31
0.0
  0
LINE
  5
27F
330
1E
100
AcDbEntity
  8
1
  6
Continuous
 62
     7
100
AcDbLine
 10
330.5
 20
253.5
 30
0.0
 11
331.0
 21
253.5
 31
0.0
  0
LINE
  5
280
330
1E
100
AcDbEntity
  8
1
  6
Continuous
 62
     7
100
AcDbLine
 10
331.0
 20
253.5
 30
0.0
 11
331.0
 21
254.1999999999999
 31
0.0
  0
LINE
  5
281
330
1E
100
AcDbEntity
  8
1
  6
Continuous
 62
     7
100
AcDbLine
 10
331.0
 20
254.1999999999999
 30
0.0
 11
330.5
 21
254.1999999999999
 31
0.0
  0
LINE
  5
282
330
1E
100
AcDbEntity
  8
1
  6
Continuous
 62
     7
100
AcDbLine
 10
328.5
 20
253.0
 30
0.0
 11
328.5
 21
252.0999999999999
 31
0.0
  0
LINE
  5
283
330
1E
100
AcDbEntity
  8
1
  6
Continuous
 62
     7
100
AcDbLine
 10
328.5
 20
252.0999999999999
 30
0.0
 11
331.4999999999999
 21
252.0999999999999
 31
0.0
  0
LINE
  5
284
330
1E
100
AcDbEntity
  8
1
  6
Continuous
 62
     7
100
AcDbLine
 10
331.4999999999999
 20
252.0999999999999
 30
0.0
 11
331.4999999999999
 21
253.0
 31
0.0
  0
LINE
  5
285
330
1E
100
AcDbEntity
  8
1
  6
Continuous
 62
     7
100
AcDbLine
 10
331.4999999999999
 20
253.0
 30
0.0
 11
328.5
 21
253.0
 31
0.0
  0
LINE
  5
286
330
1E
100
AcDbEntity
  8
1
  6
Continuous
 62
     7
100
AcDbLine
 10
330.5
 20
252.8999999999999
 30
0.0
 11
330.5
 21
252.1999999999999
 31
0.0
  0
LINE
  5
287
330
1E
100
AcDbEntity
  8
1
  6
Continuous
 62
     7
100
AcDbLine
 10
330.5
 20
252.1999999999999
 30
0.0
 11
331.0
 21
252.1999999999999
 31
0.0
  0
LINE
  5
288
330
1E
100
AcDbEntity
  8
1
  6
Continuous
 62
     7
100
AcDbLine
 10
331.0
 20
252.1999999999999
 30
0.0
 11
331.0
 21
252.8999999999999
 31
0.0
  0
LINE
  5
289
330
1E
100
AcDbEntity
  8
1
  6
Continuous
 62
     7
100
AcDbLine
 10
331.0
 20
252.8999999999999
 30
0.0
 11
330.5
 21
252.8999999999999
 31
0.0
  0
LINE
  5
28A
330
1E
100
AcDbEntity
  8
1
  6
Continuous
 62
     7
100
AcDbLine
 10
328.5
 20
251.6999999999999
 30
0.0
 11
328.5
 21
250.8
 31
0.0
  0
LINE
  5
28B
330
1E
100
AcDbEntity
  8
1
  6
Continuous
 62
     7
100
AcDbLine
 10
328.5
 20
250.8
 30
0.0
 11
331.4999999999999
 21
250.8
 31
0.0
  0
LINE
  5
28C
330
1E
100
AcDbEntity
  8
1
  6
Continuous
 62
     7
100
AcDbLine
 10
331.4999999999999
 20
250.8
 30
0.0
 11
331.4999999999999
 21
251.6999999999999
 31
0.0
  0
LINE
  5
28D
330
1E
100
AcDbEntity
  8
1
  6
Continuous
 62
     7
100
AcDbLine
 10
331.4999999999999
 20
251.6999999999999
 30
0.0
 11
328.5
 21
251.6999999999999
 31
0.0
  0
LINE
  5
28E
330
1E
100
AcDbEntity
  8
1
  6
Continuous
 62
     7
100
AcDbLine
 10
330.5
 20
251.6
 30
0.0
 11
330.5
 21
250.8999999999999
 31
0.0
  0
LINE
  5
28F
330
1E
100
AcDbEntity
  8
1
  6
Continuous
 62
     7
100
AcDbLine
 10
330.5
 20
250.8999999999999
 30
0.0
 11
331.0
 21
250.8999999999999
 31
0.0
  0
LINE
  5
290
330
1E
100
AcDbEntity
  8
1
  6
Continuous
 62
     7
100
AcDbLine
 10
331.0
 20
250.8999999999999
 30
0.0
 11
331.0
 21
251.6
 31
0.0
  0
LINE
  5
291
330
1E
100
AcDbEntity
  8
1
  6
Continuous
 62
     7
100
AcDbLine
 10
331.0
 20
251.6
 30
0.0
 11
330.5
 21
251.6
 31
0.0
  0
LINE
  5
292
330
1E
100
AcDbEntity
  8
1
  6
Continuous
 62
     7
100
AcDbLine
 10
328.5
 20
250.4
 30
0.0
 11
328.5
 21
249.5
 31
0.0
  0
LINE
  5
293
330
1E
100
AcDbEntity
  8
1
  6
Continuous
 62
     7
100
AcDbLine
 10
328.5
 20
249.5
 30
0.0
 11
331.4999999999999
 21
249.5
 31
0.0
  0
LINE
  5
294
330
1E
100
AcDbEntity
  8
1
  6
Continuous
 62
     7
100
AcDbLine
 10
331.4999999999999
 20
249.5
 30
0.0
 11
331.4999999999999
 21
250.4
 31
0.0
  0
LINE
  5
295
330
1E
100
AcDbEntity
  8
1
  6
Continuous
 62
     7
100
AcDbLine
 10
331.4999999999999
 20
250.4
 30
0.0
 11
328.5
 21
250.4
 31
0.0
  0
LINE
  5
296
330
1E
100
AcDbEntity
  8
1
  6
Continuous
 62
     7
100
AcDbLine
 10
330.5
 20
250.3
 30
0.0
 11
330.5
 21
249.5999999999999
 31
0.0
  0
LINE
  5
297
330
1E
100
AcDbEntity
  8
1
  6
Continuous
 62
     7
100
AcDbLine
 10
330.5
 20
249.5999999999999
 30
0.0
 11
331.0
 21
249.5999999999999
 31
0.0
  0
LINE
  5
298
330
1E
100
AcDbEntity
  8
1
  6
Continuous
 62
     7
100
AcDbLine
 10
331.0
 20
249.5999999999999
 30
0.0
 11
331.0
 21
250.3
 31
0.0
  0
LINE
  5
299
330
1E
100
AcDbEntity
  8
1
  6
Continuous
 62
     7
100
AcDbLine
 10
331.0
 20
250.3
 30
0.0
 11
330.5
 21
250.3
 31
0.0
  0
LINE
  5
29A
330
1E
100
AcDbEntity
  8
1
  6
Continuous
 62
     7
100
AcDbLine
 10
328.5
 20
249.1
 30
0.0
 11
328.5
 21
248.1999999999999
 31
0.0
  0
LINE
  5
29B
330
1E
100
AcDbEntity
  8
1
  6
Continuous
 62
     7
100
AcDbLine
 10
328.5
 20
248.1999999999999
 30
0.0
 11
331.4999999999999
 21
248.1999999999999
 31
0.0
  0
LINE
  5
29C
330
1E
100
AcDbEntity
  8
1
  6
Continuous
 62
     7
100
AcDbLine
 10
331.4999999999999
 20
248.1999999999999
 30
0.0
 11
331.4999999999999
 21
249.1
 31
0.0
  0
LINE
  5
29D
330
1E
100
AcDbEntity
  8
1
  6
Continuous
 62
     7
100
AcDbLine
 10
331.4999999999999
 20
249.1
 30
0.0
 11
328.5
 21
249.1
 31
0.0
  0
LINE
  5
29E
330
1E
100
AcDbEntity
  8
1
  6
Continuous
 62
     7
100
AcDbLine
 10
330.5
 20
249.0
 30
0.0
 11
330.5
 21
248.3
 31
0.0
  0
LINE
  5
29F
330
1E
100
AcDbEntity
  8
1
  6
Continuous
 62
     7
100
AcDbLine
 10
330.5
 20
248.3
 30
0.0
 11
331.0
 21
248.3
 31
0.0
  0
LINE
  5
2A0
330
1E
100
AcDbEntity
  8
1
  6
Continuous
 62
     7
100
AcDbLine
 10
331.0
 20
248.3
 30
0.0
 11
331.0
 21
249.0
 31
0.0
  0
LINE
  5
2A1
330
1E
100
AcDbEntity
  8
1
  6
Continuous
 62
     7
100
AcDbLine
 10
331.0
 20
249.0
 30
0.0
 11
330.5
 21
249.0
 31
0.0
  0
LINE
  5
2A2
330
1E
100
AcDbEntity
  8
1
  6
Continuous
 62
     7
100
AcDbLine
 10
328.5
 20
247.8
 30
0.0
 11
328.5
 21
246.9
 31
0.0
  0
LINE
  5
2A3
330
1E
100
AcDbEntity
  8
1
  6
Continuous
 62
     7
100
AcDbLine
 10
328.5
 20
246.9
 30
0.0
 11
331.4999999999999
 21
246.9
 31
0.0
  0
LINE
  5
2A4
330
1E
100
AcDbEntity
  8
1
  6
Continuous
 62
     7
100
AcDbLine
 10
331.4999999999999
 20
246.9
 30
0.0
 11
331.4999999999999
 21
247.8
 31
0.0
  0
LINE
  5
2A5
330
1E
100
AcDbEntity
  8
1
  6
Continuous
 62
     7
100
AcDbLine
 10
331.4999999999999
 20
247.8
 30
0.0
 11
328.5
 21
247.8
 31
0.0
  0
LINE
  5
2A6
330
1E
100
AcDbEntity
  8
1
  6
Continuous
 62
     7
100
AcDbLine
 10
330.5
 20
247.6999999999999
 30
0.0
 11
330.5
 21
247.0
 31
0.0
  0
LINE
  5
2A7
330
1E
100
AcDbEntity
  8
1
  6
Continuous
 62
     7
100
AcDbLine
 10
330.5
 20
247.0
 30
0.0
 11
331.0
 21
247.0
 31
0.0
  0
LINE
  5
2A8
330
1E
100
AcDbEntity
  8
1
  6
Continuous
 62
     7
100
AcDbLine
 10
331.0
 20
247.0
 30
0.0
 11
331.0
 21
247.6999999999999
 31
0.0
  0
LINE
  5
2A9
330
1E
100
AcDbEntity
  8
1
  6
Continuous
 62
     7
100
AcDbLine
 10
331.0
 20
247.6999999999999
 30
0.0
 11
330.5
 21
247.6999999999999
 31
0.0
  0
LINE
  5
2AA
330
1E
100
AcDbEntity
  8
1
  6
Continuous
 62
     7
100
AcDbLine
 10
328.5
 20
246.4999999999999
 30
0.0
 11
328.5
 21
245.5999999999999
 31
0.0
  0
LINE
  5
2AB
330
1E
100
AcDbEntity
  8
1
  6
Continuous
 62
     7
100
AcDbLine
 10
328.5
 20
245.5999999999999
 30
0.0
 11
331.4999999999999
 21
245.5999999999999
 31
0.0
  0
LINE
  5
2AC
330
1E
100
AcDbEntity
  8
1
  6
Continuous
 62
     7
100
AcDbLine
 10
331.4999999999999
 20
245.5999999999999
 30
0.0
 11
331.4999999999999
 21
246.4999999999999
 31
0.0
  0
LINE
  5
2AD
330
1E
100
AcDbEntity
  8
1
  6
Continuous
 62
     7
100
AcDbLine
 10
331.4999999999999
 20
246.4999999999999
 30
0.0
 11
328.5
 21
246.4999999999999
 31
0.0
  0
LINE
  5
2AE
330
1E
100
AcDbEntity
  8
1
  6
Continuous
 62
     7
100
AcDbLine
 10
328.5
 20
245.1999999999999
 30
0.0
 11
328.5
 21
244.3
 31
0.0
  0
LINE
  5
2AF
330
1E
100
AcDbEntity
  8
1
  6
Continuous
 62
     7
100
AcDbLine
 10
328.5
 20
244.3
 30
0.0
 11
331.4999999999999
 21
244.3
 31
0.0
  0
LINE
  5
2B0
330
1E
100
AcDbEntity
  8
1
  6
Continuous
 62
     7
100
AcDbLine
 10
331.4999999999999
 20
244.3
 30
0.0
 11
331.4999999999999
 21
245.1999999999999
 31
0.0
  0
LINE
  5
2B1
330
1E
100
AcDbEntity
  8
1
  6
Continuous
 62
     7
100
AcDbLine
 10
331.4999999999999
 20
245.1999999999999
 30
0.0
 11
328.5
 21
245.1999999999999
 31
0.0
  0
LINE
  5
2B2
330
1E
100
AcDbEntity
  8
1
  6
Continuous
 62
     7
100
AcDbLine
 10
330.5
 20
245.1
 30
0.0
 11
330.5
 21
244.3999999999999
 31
0.0
  0
LINE
  5
2B3
330
1E
100
AcDbEntity
  8
1
  6
Continuous
 62
     7
100
AcDbLine
 10
330.5
 20
244.3999999999999
 30
0.0
 11
331.0
 21
244.3999999999999
 31
0.0
  0
LINE
  5
2B4
330
1E
100
AcDbEntity
  8
1
  6
Continuous
 62
     7
100
AcDbLine
 10
331.0
 20
244.3999999999999
 30
0.0
 11
331.0
 21
245.1
 31
0.0
  0
LINE
  5
2B5
330
1E
100
AcDbEntity
  8
1
  6
Continuous
 62
     7
100
AcDbLine
 10
331.0
 20
245.1
 30
0.0
 11
330.5
 21
245.1
 31
0.0
  0
LINE
  5
2B6
330
1E
100
AcDbEntity
  8
1
  6
Continuous
 62
     7
100
AcDbLine
 10
329.4999999999999
 20
246.3999999999999
 30
0.0
 11
329.4999999999999
 21
245.6999999999999
 31
0.0
  0
LINE
  5
2B7
330
1E
100
AcDbEntity
  8
1
  6
Continuous
 62
     7
100
AcDbLine
 10
329.4999999999999
 20
245.6999999999999
 30
0.0
 11
329.0
 21
245.6999999999999
 31
0.0
  0
LINE
  5
2B8
330
1E
100
AcDbEntity
  8
1
  6
Continuous
 62
     7
100
AcDbLine
 10
329.0
 20
245.6999999999999
 30
0.0
 11
329.0
 21
246.3999999999999
 31
0.0
  0
LINE
  5
2B9
330
1E
100
AcDbEntity
  8
1
  6
Continuous
 62
     7
100
AcDbLine
 10
329.0
 20
246.3999999999999
 30
0.0
 11
329.4999999999999
 21
246.3999999999999
 31
0.0
  0
CIRCLE
  5
2BA
330
1E
100
AcDbEntity
  8
1
  6
Continuous
 62
     7
100
AcDbCircle
 10
330.0
 20
258.3
 30
0.0
 40
1.5
  0
LINE
  5
2BB
330
1E
100
AcDbEntity
  8
1
  6
Continuous
 62
     7
100
AcDbLine
 10
331.0
 20
232.5
 30
0.0
 11
341.5
 21
232.5
 31
0.0
  0
LINE
  5
2BC
330
1E
100
AcDbEntity
  8
1
  6
Continuous
 62
     7
100
AcDbLine
 10
331.0
 20
227.4999999999999
 30
0.0
 11
341.5
 21
227.4999999999999
 31
0.0
  0
LINE
  5
2BD
330
1E
100
AcDbEntity
  8
1
  6
Continuous
 62
     7
100
AcDbLine
 10
329.1999999999999
 20
227.4999999999999
 30
0.0
 11
329.1999999999999
 21
231.8
 31
0.0
  0
LINE
  5
2BE
330
1E
100
AcDbEntity
  8
1
  6
Continuous
 62
     7
100
AcDbLine
 10
329.1999999999999
 20
231.8
 30
0.0
 11
330.3
 21
231.8
 31
0.0
  0
LINE
  5
2BF
330
1E
100
AcDbEntity
  8
1
  6
Continuous
 62
     7
100
AcDbLine
 10
330.3
 20
231.8
 30
0.0
 11
330.3
 21
227.4999999999999
 31
0.0
  0
LINE
  5
2C0
330
1E
100
AcDbEntity
  8
1
  6
Continuous
 62
     7
100
AcDbLine
 10
329.1999999999999
 20
222.5
 30
0.0
 11
329.1999999999999
 21
226.8
 31
0.0
  0
LINE
  5
2C1
330
1E
100
AcDbEntity
  8
1
  6
Continuous
 62
     7
100
AcDbLine
 10
329.1999999999999
 20
226.8
 30
0.0
 11
330.3
 21
226.8
 31
0.0
  0
LINE
  5
2C2
330
1E
100
AcDbEntity
  8
1
  6
Continuous
 62
     7
100
AcDbLine
 10
330.3
 20
226.8
 30
0.0
 11
330.3
 21
222.5
 31
0.0
  0
LINE
  5
2C3
330
1E
100
AcDbEntity
  8
1
  6
Continuous
 62
     7
100
AcDbLine
 10
331.8
 20
232.5
 30
0.0
 11
331.8
 21
231.8
 31
0.0
  0
LINE
  5
2C4
330
1E
100
AcDbEntity
  8
1
  6
Continuous
 62
     7
100
AcDbLine
 10
331.8
 20
231.8
 30
0.0
 11
335.1999999999999
 21
231.8
 31
0.0
  0
LINE
  5
2C5
330
1E
100
AcDbEntity
  8
1
  6
Continuous
 62
     7
100
AcDbLine
 10
335.1999999999999
 20
231.8
 30
0.0
 11
335.1999999999999
 21
232.5
 31
0.0
  0
LINE
  5
2C6
330
1E
100
AcDbEntity
  8
1
  6
Continuous
 62
     7
100
AcDbLine
 10
335.1999999999999
 20
232.5
 30
0.0
 11
331.8
 21
232.5
 31
0.0
  0
LINE
  5
2C7
330
1E
100
AcDbEntity
  8
1
  6
Continuous
 62
     7
100
AcDbLine
 10
331.8
 20
227.4999999999999
 30
0.0
 11
331.8
 21
226.8
 31
0.0
  0
LINE
  5
2C8
330
1E
100
AcDbEntity
  8
1
  6
Continuous
 62
     7
100
AcDbLine
 10
331.8
 20
226.8
 30
0.0
 11
335.1999999999999
 21
226.8
 31
0.0
  0
LINE
  5
2C9
330
1E
100
AcDbEntity
  8
1
  6
Continuous
 62
     7
100
AcDbLine
 10
335.1999999999999
 20
226.8
 30
0.0
 11
335.1999999999999
 21
227.4999999999999
 31
0.0
  0
LINE
  5
2CA
330
1E
100
AcDbEntity
  8
1
  6
Continuous
 62
     7
100
AcDbLine
 10
335.1999999999999
 20
227.4999999999999
 30
0.0
 11
331.8
 21
227.4999999999999
 31
0.0
  0
CIRCLE
  5
2CB
330
1E
100
AcDbEntity
  8
1
  6
Continuous
 62
     7
100
AcDbCircle
 10
326.5
 20
239.5
 30
0.0
 40
1.6
  0
CIRCLE
  5
2CC
330
1E
100
AcDbEntity
  8
1
  6
Continuous
 62
     7
100
AcDbCircle
 10
334.5
 20
239.5
 30
0.0
 40
1.6
  0
CIRCLE
  5
2CD
330
1E
100
AcDbEntity
  8
1
  6
Continuous
 62
     7
100
AcDbCircle
 10
354.4999999999999
 20
253.0
 30
0.0
 40
2.5
  0
LINE
  5
2CE
330
1E
100
AcDbEntity
  8
1
  6
Continuous
 62
     7
100
AcDbLine
 10
352.873654
 20
253.919239
 30
0.0
 11
353.5807609999999
 21
254.626346
 31
0.0
  0
LINE
  5
2CF
330
1E
100
AcDbEntity
  8
1
  6
Continuous
 62
     7
100
AcDbLine
 10
353.5807609999999
 20
254.626346
 30
0.0
 11
354.4999999999999
 21
253.7071069999999
 31
0.0
  0
LINE
  5
2D0
330
1E
100
AcDbEntity
  8
1
  6
Continuous
 62
     7
100
AcDbLine
 10
354.4999999999999
 20
253.7071069999999
 30
0.0
 11
355.419239
 21
254.626346
 31
0.0
  0
LINE
  5
2D1
330
1E
100
AcDbEntity
  8
1
  6
Continuous
 62
     7
100
AcDbLine
 10
355.419239
 20
254.626346
 30
0.0
 11
356.126346
 21
253.919239
 31
0.0
  0
LINE
  5
2D2
330
1E
100
AcDbEntity
  8
1
  6
Continuous
 62
     7
100
AcDbLine
 10
356.126346
 20
253.919239
 30
0.0
 11
355.207107
 21
253.0
 31
0.0
  0
LINE
  5
2D3
330
1E
100
AcDbEntity
  8
1
  6
Continuous
 62
     7
100
AcDbLine
 10
355.207107
 20
253.0
 30
0.0
 11
356.126346
 21
252.0807609999999
 31
0.0
  0
LINE
  5
2D4
330
1E
100
AcDbEntity
  8
1
  6
Continuous
 62
     7
100
AcDbLine
 10
356.126346
 20
252.0807609999999
 30
0.0
 11
355.419239
 21
251.373654
 31
0.0
  0
LINE
  5
2D5
330
1E
100
AcDbEntity
  8
1
  6
Continuous
 62
     7
100
AcDbLine
 10
355.419239
 20
251.373654
 30
0.0
 11
354.4999999999999
 21
252.292893
 31
0.0
  0
LINE
  5
2D6
330
1E
100
AcDbEntity
  8
1
  6
Continuous
 62
     7
100
AcDbLine
 10
354.4999999999999
 20
252.292893
 30
0.0
 11
353.5807609999999
 21
251.373654
 31
0.0
  0
LINE
  5
2D7
330
1E
100
AcDbEntity
  8
1
  6
Continuous
 62
     7
100
AcDbLine
 10
353.5807609999999
 20
251.373654
 30
0.0
 11
352.873654
 21
252.0807609999999
 31
0.0
  0
LINE
  5
2D8
330
1E
100
AcDbEntity
  8
1
  6
Continuous
 62
     7
100
AcDbLine
 10
352.873654
 20
252.0807609999999
 30
0.0
 11
353.792893
 21
253.0
 31
0.0
  0
LINE
  5
2D9
330
1E
100
AcDbEntity
  8
1
  6
Continuous
 62
     7
100
AcDbLine
 10
353.792893
 20
253.0
 30
0.0
 11
352.873654
 21
253.919239
 31
0.0
  0
CIRCLE
  5
2DA
330
1E
100
AcDbEntity
  8
1
  6
Continuous
 62
     7
100
AcDbCircle
 10
342.5
 20
248.4999999999999
 30
0.0
 40
3.6
  0
LINE
  5
2DB
330
1E
100
AcDbEntity
  8
1
  6
Continuous
 62
     7
100
AcDbLine
 10
364.5
 20
224.9
 30
0.0
 11
364.5
 21
224.18
 31
0.0
  0
LINE
  5
2DC
330
1E
100
AcDbEntity
  8
1
  6
Continuous
 62
     7
100
AcDbLine
 10
364.5
 20
222.86
 30
0.0
 11
364.5
 21
222.14
 31
0.0
  0
LINE
  5
2DD
330
1E
100
AcDbEntity
  8
1
  6
Continuous
 62
     7
100
AcDbLine
 10
364.5
 20
220.82
 30
0.0
 11
364.5
 21
220.1
 31
0.0
  0
LINE
  5
2DE
330
1E
100
AcDbEntity
  8
1
  6
Continuous
 62
     7
100
AcDbLine
 10
364.5
 20
222.86
 30
0.0
 11
362.8590249999999
 21
222.86
 31
0.0
  0
LINE
  5
2DF
330
1E
100
AcDbEntity
  8
1
  6
Continuous
 62
     7
100
AcDbLine
 10
364.5
 20
222.14
 30
0.0
 11
362.8590249999999
 21
222.14
 31
0.0
  0
ARC
  5
2E0
330
1E
100
AcDbEntity
  8
1
  6
Continuous
 62
     7
100
AcDbCircle
 10
364.5
 20
222.5
 30
0.0
 40
2.399999999999999
100
AcDbArc
 50
90.0
 51
270.0
  0
ARC
  5
2E1
330
1E
100
AcDbEntity
  8
1
  6
Continuous
 62
     7
100
AcDbCircle
 10
364.5
 20
222.5
 30
0.0
 40
1.679999999999999
100
AcDbArc
 50
90.0
 51
167.6263749999999
  0
ARC
  5
2E2
330
1E
100
AcDbEntity
  8
1
  6
Continuous
 62
     7
100
AcDbCircle
 10
364.5
 20
222.5
 30
0.0
 40
1.679999999999999
100
AcDbArc
 50
192.373625
 51
270.0
  0
LINE
  5
2E3
330
1E
100
AcDbEntity
  8
1
  6
Continuous
 62
     7
100
AcDbLine
 10
361.0
 20
224.9
 30
0.0
 11
361.0
 21
224.18
 31
0.0
  0
LINE
  5
2E4
330
1E
100
AcDbEntity
  8
1
  6
Continuous
 62
     7
100
AcDbLine
 10
361.0
 20
220.82
 30
0.0
 11
361.0
 21
220.1
 31
0.0
  0
ARC
  5
2E5
330
1E
100
AcDbEntity
  8
1
  6
Continuous
 62
     7
100
AcDbCircle
 10
361.0
 20
222.5
 30
0.0
 40
2.399999999999999
100
AcDbArc
 50
90.0
 51
270.0
  0
ARC
  5
2E6
330
1E
100
AcDbEntity
  8
1
  6
Continuous
 62
     7
100
AcDbCircle
 10
361.0
 20
222.5
 30
0.0
 40
1.679999999999999
100
AcDbArc
 50
90.0
 51
270.0
  0
LINE
  5
2E7
330
1E
100
AcDbEntity
  8
1
  6
Continuous
 62
     7
100
AcDbLine
 10
360.1597549999999
 20
220.251892
 30
0.0
 11
361.0
 21
220.251892
 31
0.0
  0
LINE
  5
2E8
330
1E
100
AcDbEntity
  8
1
  6
Continuous
 62
     7
100
AcDbLine
 10
359.670818
 20
220.5016819999999
 30
0.0
 11
361.0
 21
220.5016819999999
 31
0.0
  0
LINE
  5
2E9
330
1E
100
AcDbEntity
  8
1
  6
Continuous
 62
     7
100
AcDbLine
 10
359.3560259999999
 20
220.751472
 30
0.0
 11
361.0
 21
220.751472
 31
0.0
  0
LINE
  5
2EA
330
1E
100
AcDbEntity
  8
1
  6
Continuous
 62
     7
100
AcDbLine
 10
359.1254909999999
 20
221.001262
 30
0.0
 11
360.2409329999999
 21
221.001262
 31
0.0
  0
LINE
  5
2EB
330
1E
100
AcDbEntity
  8
1
  6
Continuous
 62
     7
100
AcDbLine
 10
358.950579
 20
221.2510509999999
 30
0.0
 11
359.876378
 21
221.2510509999999
 31
0.0
  0
LINE
  5
2EC
330
1E
100
AcDbEntity
  8
1
  6
Continuous
 62
     7
100
AcDbLine
 10
358.817872
 20
221.500841
 30
0.0
 11
359.649414
 21
221.500841
 31
0.0
  0
LINE
  5
2ED
330
1E
100
AcDbEntity
  8
1
  6
Continuous
 62
     7
100
AcDbLine
 10
358.7199899999999
 20
221.750631
 30
0.0
 11
359.496389
 21
221.750631
 31
0.0
  0
LINE
  5
2EE
330
1E
100
AcDbEntity
  8
1
  6
Continuous
 62
     7
100
AcDbLine
 10
358.652572
 20
222.0004209999999
 30
0.0
 11
359.395999
 21
222.0004209999999
 31
0.0
  0
LINE
  5
2EF
330
1E
100
AcDbEntity
  8
1
  6
Continuous
 62
     7
100
AcDbLine
 10
358.6130339999999
 20
222.25021
 30
0.0
 11
359.338674
 21
222.25021
 31
0.0
  0
LINE
  5
2F0
330
1E
100
AcDbEntity
  8
1
  6
Continuous
 62
     7
100
AcDbLine
 10
358.6
 20
222.5
 30
0.0
 11
359.3199999999999
 21
222.5
 31
0.0
  0
LINE
  5
2F1
330
1E
100
AcDbEntity
  8
1
  6
Continuous
 62
     7
100
AcDbLine
 10
358.6130339999999
 20
222.7497899999999
 30
0.0
 11
359.338674
 21
222.7497899999999
 31
0.0
  0
LINE
  5
2F2
330
1E
100
AcDbEntity
  8
1
  6
Continuous
 62
     7
100
AcDbLine
 10
358.652572
 20
222.999579
 30
0.0
 11
359.395999
 21
222.999579
 31
0.0
  0
LINE
  5
2F3
330
1E
100
AcDbEntity
  8
1
  6
Continuous
 62
     7
100
AcDbLine
 10
358.7199899999999
 20
223.249369
 30
0.0
 11
359.496389
 21
223.249369
 31
0.0
  0
LINE
  5
2F4
330
1E
100
AcDbEntity
  8
1
  6
Continuous
 62
     7
100
AcDbLine
 10
358.817872
 20
223.4991589999999
 30
0.0
 11
359.649414
 21
223.4991589999999
 31
0.0
  0
LINE
  5
2F5
330
1E
100
AcDbEntity
  8
1
  6
Continuous
 62
     7
100
AcDbLine
 10
358.950579
 20
223.748949
 30
0.0
 11
359.876378
 21
223.748949
 31
0.0
  0
LINE
  5
2F6
330
1E
100
AcDbEntity
  8
1
  6
Continuous
 62
     7
100
AcDbLine
 10
359.1254909999999
 20
223.998738
 30
0.0
 11
360.2409329999999
 21
223.998738
 31
0.0
  0
LINE
  5
2F7
330
1E
100
AcDbEntity
  8
1
  6
Continuous
 62
     7
100
AcDbLine
 10
359.3560259999999
 20
224.2485279999999
 30
0.0
 11
361.0
 21
224.2485279999999
 31
0.0
  0
LINE
  5
2F8
330
1E
100
AcDbEntity
  8
1
  6
Continuous
 62
     7
100
AcDbLine
 10
359.670818
 20
224.498318
 30
0.0
 11
361.0
 21
224.498318
 31
0.0
  0
LINE
  5
2F9
330
1E
100
AcDbEntity
  8
1
  6
Continuous
 62
     7
100
AcDbLine
 10
360.1597549999999
 20
224.748108
 30
0.0
 11
361.0
 21
224.748108
 31
0.0
  0
LINE
  5
2FA
330
1E
100
AcDbEntity
  8
1
  6
Continuous
 62
     7
100
AcDbLine
 10
363.6597549999999
 20
220.251892
 30
0.0
 11
364.5
 21
220.251892
 31
0.0
  0
LINE
  5
2FB
330
1E
100
AcDbEntity
  8
1
  6
Continuous
 62
     7
100
AcDbLine
 10
363.1708179999999
 20
220.5016819999999
 30
0.0
 11
364.5
 21
220.5016819999999
 31
0.0
  0
LINE
  5
2FC
330
1E
100
AcDbEntity
  8
1
  6
Continuous
 62
     7
100
AcDbLine
 10
362.8560259999999
 20
220.751472
 30
0.0
 11
364.5
 21
220.751472
 31
0.0
  0
LINE
  5
2FD
330
1E
100
AcDbEntity
  8
1
  6
Continuous
 62
     7
100
AcDbLine
 10
362.625491
 20
221.001262
 30
0.0
 11
363.740933
 21
221.001262
 31
0.0
  0
LINE
  5
2FE
330
1E
100
AcDbEntity
  8
1
  6
Continuous
 62
     7
100
AcDbLine
 10
362.450579
 20
221.2510509999999
 30
0.0
 11
363.3763779999999
 21
221.2510509999999
 31
0.0
  0
LINE
  5
2FF
330
1E
100
AcDbEntity
  8
1
  6
Continuous
 62
     7
100
AcDbLine
 10
362.317872
 20
221.500841
 30
0.0
 11
363.149414
 21
221.500841
 31
0.0
  0
LINE
  5
300
330
1E
100
AcDbEntity
  8
1
  6
Continuous
 62
     7
100
AcDbLine
 10
362.21999
 20
221.750631
 30
0.0
 11
362.996389
 21
221.750631
 31
0.0
  0
LINE
  5
301
330
1E
100
AcDbEntity
  8
1
  6
Continuous
 62
     7
100
AcDbLine
 10
362.152572
 20
222.0004209999999
 30
0.0
 11
362.895999
 21
222.0004209999999
 31
0.0
  0
LINE
  5
302
330
1E
100
AcDbEntity
  8
1
  6
Continuous
 62
     7
100
AcDbLine
 10
362.1130339999999
 20
222.25021
 30
0.0
 11
364.5
 21
222.25021
 31
0.0
  0
LINE
  5
303
330
1E
100
AcDbEntity
  8
1
  6
Continuous
 62
     7
100
AcDbLine
 10
362.1
 20
222.5
 30
0.0
 11
364.5
 21
222.5
 31
0.0
  0
LINE
  5
304
330
1E
100
AcDbEntity
  8
1
  6
Continuous
 62
     7
100
AcDbLine
 10
362.1130339999999
 20
222.7497899999999
 30
0.0
 11
364.5
 21
222.7497899999999
 31
0.0
  0
LINE
  5
305
330
1E
100
AcDbEntity
  8
1
  6
Continuous
 62
     7
100
AcDbLine
 10
362.152572
 20
222.999579
 30
0.0
 11
362.895999
 21
222.999579
 31
0.0
  0
LINE
  5
306
330
1E
100
AcDbEntity
  8
1
  6
Continuous
 62
     7
100
AcDbLine
 10
362.21999
 20
223.249369
 30
0.0
 11
362.996389
 21
223.249369
 31
0.0
  0
LINE
  5
307
330
1E
100
AcDbEntity
  8
1
  6
Continuous
 62
     7
100
AcDbLine
 10
362.317872
 20
223.4991589999999
 30
0.0
 11
363.149414
 21
223.4991589999999
 31
0.0
  0
LINE
  5
308
330
1E
100
AcDbEntity
  8
1
  6
Continuous
 62
     7
100
AcDbLine
 10
362.450579
 20
223.748949
 30
0.0
 11
363.3763779999999
 21
223.748949
 31
0.0
  0
LINE
  5
309
330
1E
100
AcDbEntity
  8
1
  6
Continuous
 62
     7
100
AcDbLine
 10
362.625491
 20
223.998738
 30
0.0
 11
363.740933
 21
223.998738
 31
0.0
  0
LINE
  5
30A
330
1E
100
AcDbEntity
  8
1
  6
Continuous
 62
     7
100
AcDbLine
 10
362.8560259999999
 20
224.2485279999999
 30
0.0
 11
364.5
 21
224.2485279999999
 31
0.0
  0
LINE
  5
30B
330
1E
100
AcDbEntity
  8
1
  6
Continuous
 62
     7
100
AcDbLine
 10
363.1708179999999
 20
224.498318
 30
0.0
 11
364.5
 21
224.498318
 31
0.0
  0
LINE
  5
30C
330
1E
100
AcDbEntity
  8
1
  6
Continuous
 62
     7
100
AcDbLine
 10
363.6597549999999
 20
224.748108
 30
0.0
 11
364.5
 21
224.748108
 31
0.0
  0
LINE
  5
30D
330
1E
100
AcDbEntity
  8
1
  6
Continuous
 62
     7
100
AcDbLine
 10
321.7
 20
238.807185
 30
0.0
 11
323.3
 21
238.807181
 31
0.0
  0
LINE
  5
30E
330
1E
100
AcDbEntity
  8
1
  6
Continuous
 62
     7
100
AcDbLine
 10
323.3
 20
238.807181
 30
0.0
 11
322.5
 21
240.192821
 31
0.0
  0
LINE
  5
30F
330
1E
100
AcDbEntity
  8
1
  6
Continuous
 62
     7
100
AcDbLine
 10
322.5
 20
240.192821
 30
0.0
 11
321.7
 21
238.807185
 31
0.0
  0
LINE
  5
310
330
1E
100
AcDbEntity
  8
1
  6
Continuous
 62
     7
100
AcDbLine
 10
331.3
 20
240.1928149999999
 30
0.0
 11
329.7
 21
240.192819
 31
0.0
  0
LINE
  5
311
330
1E
100
AcDbEntity
  8
1
  6
Continuous
 62
     7
100
AcDbLine
 10
329.7
 20
240.192819
 30
0.0
 11
330.5
 21
238.807179
 31
0.0
  0
LINE
  5
312
330
1E
100
AcDbEntity
  8
1
  6
Continuous
 62
     7
100
AcDbLine
 10
330.5
 20
238.807179
 30
0.0
 11
331.3
 21
240.1928149999999
 31
0.0
  0
LINE
  5
313
330
1E
100
AcDbEntity
  8
1
  6
Continuous
 62
     7
100
AcDbLine
 10
321.811566
 20
239.000422
 30
0.0
 11
323.1884319999999
 21
239.000422
 31
0.0
  0
LINE
  5
314
330
1E
100
AcDbEntity
  8
1
  6
Continuous
 62
     7
100
AcDbLine
 10
321.9557819999999
 20
239.2502109999999
 30
0.0
 11
323.0442159999999
 21
239.2502109999999
 31
0.0
  0
LINE
  5
315
330
1E
100
AcDbEntity
  8
1
  6
Continuous
 62
     7
100
AcDbLine
 10
322.099999
 20
239.5000009999999
 30
0.0
 11
322.8999999999999
 21
239.5000009999999
 31
0.0
  0
LINE
  5
316
330
1E
100
AcDbEntity
  8
1
  6
Continuous
 62
     7
100
AcDbLine
 10
322.244215
 20
239.749791
 30
0.0
 11
322.755784
 21
239.749791
 31
0.0
  0
LINE
  5
317
330
1E
100
AcDbEntity
  8
1
  6
Continuous
 62
     7
100
AcDbLine
 10
322.3884319999999
 20
239.999581
 30
0.0
 11
322.611568
 21
239.999581
 31
0.0
  0
LINE
  5
318
330
1E
100
AcDbEntity
  8
1
  6
Continuous
 62
     7
100
AcDbLine
 10
330.3884319999999
 20
239.0004189999999
 30
0.0
 11
330.611568
 21
239.0004189999999
 31
0.0
  0
LINE
  5
319
330
1E
100
AcDbEntity
  8
1
  6
Continuous
 62
     7
100
AcDbLine
 10
330.244216
 20
239.2502089999999
 30
0.0
 11
330.755785
 21
239.2502089999999
 31
0.0
  0
LINE
  5
31A
330
1E
100
AcDbEntity
  8
1
  6
Continuous
 62
     7
100
AcDbLine
 10
330.1
 20
239.499999
 30
0.0
 11
330.9000009999999
 21
239.499999
 31
0.0
  0
LINE
  5
31B
330
1E
100
AcDbEntity
  8
1
  6
Continuous
 62
     7
100
AcDbLine
 10
329.9557839999999
 20
239.749789
 30
0.0
 11
331.0442179999999
 21
239.749789
 31
0.0
  0
LINE
  5
31C
330
1E
100
AcDbEntity
  8
1
  6
Continuous
 62
     7
100
AcDbLine
 10
329.811568
 20
239.9995779999999
 30
0.0
 11
331.1884339999999
 21
239.9995779999999
 31
0.0
  0
TEXT
  5
31D
330
1E
100
AcDbEntity
  8
1
  6
Continuous
 62
     7
100
AcDbText
 10
317.8
 20
254.108722
 30
0.0
 40
1.3
  1
IRCUT
 41
0.75
  7
KANJI
100
AcDbText
  0
TEXT
  5
31E
330
1E
100
AcDbEntity
  8
1
  6
Continuous
 62
     7
100
AcDbText
 10
320.8
 20
252.408722
 30
0.0
 40
1.3
  1
AES
 41
0.75
  7
KANJI
100
AcDbText
  0
TEXT
  5
31F
330
1E
100
AcDbEntity
  8
1
  6
Continuous
 62
     7
100
AcDbText
 10
320.8
 20
250.708722
 30
0.0
 40
1.3
  1
AGC
 41
0.75
  7
KANJI
100
AcDbText
  0
TEXT
  5
320
330
1E
100
AcDbEntity
  8
1
  6
Continuous
 62
     7
100
AcDbText
 10
319.3
 20
249.008722
 30
0.0
 40
1.3
  1
AWB1
 41
0.75
  7
KANJI
100
AcDbText
  0
TEXT
  5
321
330
1E
100
AcDbEntity
  8
1
  6
Continuous
 62
     7
100
AcDbText
 10
319.3
 20
247.308722
 30
0.0
 40
1.3
  1
AWB2
 41
0.75
  7
KANJI
100
AcDbText
  0
TEXT
  5
322
330
1E
100
AcDbEntity
  8
1
  6
Continuous
 62
     7
100
AcDbText
 10
319.3
 20
245.608722
 30
0.0
 40
1.3
  1
AWB3
 41
0.75
  7
KANJI
100
AcDbText
  0
TEXT
  5
323
330
1E
100
AcDbEntity
  8
1
  6
Continuous
 62
     7
100
AcDbText
 10
322.3
 20
243.908722
 30
0.0
 40
1.3
  1
DC
 41
0.75
  7
KANJI
100
AcDbText
  0
TEXT
  5
324
330
1E
100
AcDbEntity
  8
1
  6
Continuous
 62
     7
100
AcDbText
 10
320.8
 20
242.208722
 30
0.0
 40
1.3
  1
FLC
 41
0.75
  7
KANJI
100
AcDbText
  0
TEXT
  5
325
330
1E
100
AcDbEntity
  8
1
  6
Continuous
 62
     7
100
AcDbText
 10
335.4999999999999
 20
254.2186419999999
 30
0.0
 40
1.3
  1
ON
 41
0.72
  7
KANJI
100
AcDbText
  0
TEXT
  5
326
330
1E
100
AcDbEntity
  8
1
  6
Continuous
 62
     7
100
AcDbText
 10
335.4999999999999
 20
252.518642
 30
0.0
 40
1.3
  1
ON
 41
0.72
  7
KANJI
100
AcDbText
  0
TEXT
  5
327
330
1E
100
AcDbEntity
  8
1
  6
Continuous
 62
     7
100
AcDbText
 10
335.4999999999999
 20
250.8186419999999
 30
0.0
 40
1.3
  1
ON
 41
0.72
  7
KANJI
100
AcDbText
  0
TEXT
  5
328
330
1E
100
AcDbEntity
  8
1
  6
Continuous
 62
     7
100
AcDbText
 10
335.4999999999999
 20
242.3186419999999
 30
0.0
 40
1.3
  1
ON
 41
0.72
  7
KANJI
100
AcDbText
  0
TEXT
  5
329
330
1E
100
AcDbEntity
  8
1
  6
Continuous
 62
     7
100
AcDbText
 10
335.4999999999999
 20
244.0186419999999
 30
0.0
 40
1.3
  1
VS
 41
0.72
  7
KANJI
100
AcDbText
  0
TEXT
  5
32A
330
1E
100
AcDbEntity
  8
1
  6
Continuous
 62
     7
100
AcDbText
 10
339.5148720294744
 20
238.4686419999999
 30
0.0
 40
1.3
  1
PHASE
 41
0.6
  7
KANJI
100
AcDbText
  0
TEXT
  5
32B
330
1E
100
AcDbEntity
  8
1
  6
Continuous
 62
     7
100
AcDbText
 10
337.1
 20
238.4686419999999
 30
0.0
 40
1.3
  1
LL
 41
0.6
  7
KANJI
100
AcDbText
  0
TEXT
  5
32C
330
1E
100
AcDbEntity
  8
1
  6
Continuous
 62
     7
100
AcDbText
 10
338.7768639999999
 20
238.4686419999999
 30
0.0
 40
2.0
  1
.
 41
1.199999999999999
  7
KANJI
100
AcDbText
  0
TEXT
  5
32D
330
1E
100
AcDbEntity
  8
1
  6
Continuous
 62
     7
100
AcDbText
 10
357.6150784931032
 20
225.9686419999999
 30
0.0
 40
1.3
  1
IDEO
 41
0.6
  7
KANJI
100
AcDbText
  0
TEXT
  5
32E
330
1E
100
AcDbEntity
  8
1
  6
Continuous
 62
     7
100
AcDbText
 10
356.4999999999999
 20
225.9686419999999
 30
0.0
 40
1.3
  1
V
 41
0.6
  7
KANJI
100
AcDbText
  0
TEXT
  5
32F
330
1E
100
AcDbEntity
  8
1
  6
Continuous
 62
     7
100
AcDbText
 10
349.4466149597089
 20
247.4686419999999
 30
0.0
 40
1.3
  1
IO
 41
0.6
  7
KANJI
100
AcDbText
  0
TEXT
  5
330
330
1E
100
AcDbEntity
  8
1
  6
Continuous
 62
     7
100
AcDbText
 10
347.048975
 20
247.4686419999999
 30
0.0
 40
1.3
  1
AUD
 41
0.6
  7
KANJI
100
AcDbText
  0
TEXT
  5
331
330
1E
100
AcDbEntity
  8
1
  6
Continuous
 62
     7
100
AcDbText
 10
357.288464
 20
252.85
 30
0.0
 40
1.3
  1
IR
 41
0.6
  7
KANJI
100
AcDbText
  0
TEXT
  5
332
330
1E
100
AcDbEntity
  8
1
  6
Continuous
 62
     7
100
AcDbText
 10
358.6312437609856
 20
252.85
 30
0.0
 40
1.3
  1
IS
 41
0.6
  7
KANJI
100
AcDbText
  0
TEXT
  5
333
330
1E
100
AcDbEntity
  8
1
  6
Continuous
 62
     7
100
AcDbText
 10
357.5720839999999
 20
250.7869779999999
 30
0.0
 40
1.3
  1
LEVEL
 41
0.6
  7
KANJI
100
AcDbText
  0
TEXT
  5
334
330
1E
100
AcDbEntity
  8
1
  6
Continuous
 62
     7
100
AcDbText
 10
328.5978861443659
 20
259.9275526264006
 30
0.0
 40
1.3
  1
POWER
 41
0.6
  7
KANJI
100
AcDbText
  0
LINE
  5
335
330
1E
100
AcDbEntity
  8
1
  6
Continuous
 62
     7
100
AcDbLine
 10
516.499996
 20
214.5
 30
0.0
 11
516.5000039999999
 21
268.5
 31
0.0
  0
LINE
  5
336
330
1E
100
AcDbEntity
  8
1
  6
Continuous
 62
     7
100
AcDbLine
 10
527.499996
 20
215.5
 30
0.0
 11
526.555746
 21
215.027871
 31
0.0
  0
LINE
  5
337
330
1E
100
AcDbEntity
  8
1
  6
Continuous
 62
     7
100
AcDbLine
 10
524.3196639999999
 20
214.5
 30
0.0
 11
419.999996
 21
214.5
 31
0.0
  0
ARC
  5
338
330
1E
100
AcDbEntity
  8
1
  6
Continuous
 62
     7
100
AcDbCircle
 10
524.3196639999999
 20
219.4999999999999
 30
0.0
 40
5.0
100
AcDbArc
 50
270.0
 51
296.5652299999999
  0
LINE
  5
339
330
1E
100
AcDbEntity
  8
1
  6
Continuous
 62
     7
100
AcDbLine
 10
530.0000029999999
 20
263.5
 30
0.0
 11
527.499996
 21
215.5
 31
0.0
  0
LINE
  5
33A
330
1E
100
AcDbEntity
  8
1
  6
Continuous
 62
     7
100
AcDbLine
 10
530.0000029999999
 20
263.5
 30
0.0
 11
530.0000039999999
 21
265.5
 31
0.0
  0
LINE
  5
33B
330
1E
100
AcDbEntity
  8
1
  6
Continuous
 62
     7
100
AcDbLine
 10
530.0000039999999
 20
265.5
 30
0.0
 11
526.7596359999999
 21
267.660249
 31
0.0
  0
LINE
  5
33C
330
1E
100
AcDbEntity
  8
1
  6
Continuous
 62
     7
100
AcDbLine
 10
523.986131
 20
268.5
 30
0.0
 11
420.0000039999999
 21
268.5
 31
0.0
  0
ARC
  5
33D
330
1E
100
AcDbEntity
  8
1
  6
Continuous
 62
     7
100
AcDbCircle
 10
523.986131
 20
263.5
 30
0.0
 40
5.0
100
AcDbArc
 50
56.30988399999999
 51
90.0
  0
LINE
  5
33E
330
1E
100
AcDbEntity
  8
1
  6
Continuous
 62
     7
100
AcDbLine
 10
531.499997
 20
219.4999999999999
 30
0.0
 11
530.0000029999999
 21
263.5
 31
0.0
  0
ARC
  5
33F
330
1E
100
AcDbEntity
  8
1
  6
Continuous
 62
     7
100
AcDbCircle
 10
524.6267190000001
 20
222.3732779999999
 30
0.0
 40
7.449675999999999
100
AcDbArc
 50
292.68668
 51
337.3133119999999
  0
LINE
  5
340
330
1E
100
AcDbEntity
  8
1
  6
Continuous
 62
     7
100
AcDbLine
 10
532.000002
 20
257.0
 30
0.0
 11
531.999998
 21
226.0
 31
0.0
  0
LINE
  5
341
330
1E
100
AcDbEntity
  8
1
  6
Continuous
 62
     7
100
AcDbLine
 10
532.000002
 20
257.0
 30
0.0
 11
531.500002
 21
258.0
 31
0.0
  0
LINE
  5
342
330
1E
100
AcDbEntity
  8
1
  6
Continuous
 62
     7
100
AcDbLine
 10
531.999998
 20
226.0000009999999
 30
0.0
 11
531.324466
 21
224.6489379999999
 31
0.0
  0
LINE
  5
343
330
1E
100
AcDbEntity
  8
1
  6
Continuous
 62
     7
100
AcDbLine
 10
531.500002
 20
258.0
 30
0.0
 11
530.0000039999999
 21
265.5
 31
0.0
  0
LINE
  5
344
330
1E
100
AcDbEntity
  8
1
  6
Continuous
 62
     7
100
AcDbLine
 10
420.0000039999999
 20
268.5
 30
0.0
 11
419.999996
 21
214.5
 31
0.0
  0
LINE
  5
345
330
1E
100
AcDbEntity
  8
1
  6
Continuous
 62
     7
100
AcDbLine
 10
423.500004
 20
268.5
 30
0.0
 11
423.500004
 21
265.5
 31
0.0
  0
LINE
  5
346
330
1E
100
AcDbEntity
  8
1
  6
Continuous
 62
     7
100
AcDbLine
 10
423.500004
 20
265.5
 30
0.0
 11
424.5000019999999
 21
252.4999999999999
 31
0.0
  0
LINE
  5
347
330
1E
100
AcDbEntity
  8
1
  6
Continuous
 62
     7
100
AcDbLine
 10
424.5000019999999
 20
252.4999999999999
 30
0.0
 11
424.499999
 21
237.5
 31
0.0
  0
LINE
  5
348
330
1E
100
AcDbEntity
  8
1
  6
Continuous
 62
     7
100
AcDbLine
 10
424.499999
 20
237.5
 30
0.0
 11
423.499996
 21
214.5
 31
0.0
  0
LINE
  5
349
330
1E
100
AcDbEntity
  8
1
  6
HIDDEN
 62
     7
100
AcDbLine
 10
500.2500139999999
 20
268.5
 30
0.0
 11
497.250014
 21
276.8
 31
0.0
  0
LINE
  5
34A
330
1E
100
AcDbEntity
  8
1
  6
HIDDEN
 62
     7
100
AcDbLine
 10
497.250014
 20
276.8
 30
0.0
 11
453.2500139999999
 21
276.8
 31
0.0
  0
LINE
  5
34B
330
1E
100
AcDbEntity
  8
1
  6
HIDDEN
 62
     7
100
AcDbLine
 10
453.2500139999999
 20
276.8
 30
0.0
 11
450.2500139999999
 21
268.5
 31
0.0
  0
LINE
  5
34C
330
1E
100
AcDbEntity
  8
1
  6
HIDDEN
 62
     7
100
AcDbLine
 10
500.250006
 20
214.4999869999999
 30
0.0
 11
497.2500039999999
 21
206.199988
 31
0.0
  0
LINE
  5
34D
330
1E
100
AcDbEntity
  8
1
  6
HIDDEN
 62
     7
100
AcDbLine
 10
497.2500039999999
 20
206.199988
 30
0.0
 11
453.250004
 21
206.200001
 31
0.0
  0
LINE
  5
34E
330
1E
100
AcDbEntity
  8
1
  6
HIDDEN
 62
     7
100
AcDbLine
 10
453.250004
 20
206.200001
 30
0.0
 11
450.250006
 21
214.5000009999999
 31
0.0
  0
LINE
  5
34F
330
1E
100
AcDbEntity
  8
1
  6
Continuous
 62
     7
100
AcDbLine
 10
456.000003
 20
261.8
 30
0.0
 11
456.000003
 21
252.8
 31
0.0
  0
LINE
  5
350
330
1E
100
AcDbEntity
  8
1
  6
Continuous
 62
     7
100
AcDbLine
 10
456.000003
 20
252.8
 30
0.0
 11
435.0000019999999
 21
252.8
 31
0.0
  0
LINE
  5
351
330
1E
100
AcDbEntity
  8
1
  6
Continuous
 62
     7
100
AcDbLine
 10
435.0000019999999
 20
252.8
 30
0.0
 11
435.0000019999999
 21
261.8
 31
0.0
  0
LINE
  5
352
330
1E
100
AcDbEntity
  8
1
  6
Continuous
 62
     7
100
AcDbLine
 10
435.0000019999999
 20
261.8
 30
0.0
 11
456.000003
 21
261.8
 31
0.0
  0
CIRCLE
  5
353
330
1E
100
AcDbEntity
  8
1
  6
Continuous
 62
     7
100
AcDbCircle
 10
428.000001
 20
249.5
 30
0.0
 40
2.0
  0
CIRCLE
  5
354
330
1E
100
AcDbEntity
  8
1
  6
Continuous
 62
     7
100
AcDbCircle
 10
428.0
 20
239.5
 30
0.0
 40
2.0
  0
LINE
  5
355
330
1E
100
AcDbEntity
  8
1
  6
Continuous
 62
     7
100
AcDbLine
 10
429.0000009999999
 20
249.5
 30
0.0
 11
427.000001
 21
249.5
 31
0.0
  0
LINE
  5
356
330
1E
100
AcDbEntity
  8
1
  6
Continuous
 62
     7
100
AcDbLine
 10
428.000001
 20
250.4999999999999
 30
0.0
 11
428.000001
 21
248.4999999999999
 31
0.0
  0
LINE
  5
357
330
1E
100
AcDbEntity
  8
1
  6
Continuous
 62
     7
100
AcDbLine
 10
429.0
 20
239.5
 30
0.0
 11
427.0
 21
239.5
 31
0.0
  0
LINE
  5
358
330
1E
100
AcDbEntity
  8
1
  6
Continuous
 62
     7
100
AcDbLine
 10
428.0
 20
240.5
 30
0.0
 11
428.0
 21
238.5
 31
0.0
  0
CIRCLE
  5
359
330
1E
100
AcDbEntity
  8
1
  6
Continuous
 62
     7
100
AcDbCircle
 10
512.000001
 20
249.5
 30
0.0
 40
2.0
  0
CIRCLE
  5
35A
330
1E
100
AcDbEntity
  8
1
  6
Continuous
 62
     7
100
AcDbCircle
 10
512.0
 20
239.5
 30
0.0
 40
2.0
  0
LINE
  5
35B
330
1E
100
AcDbEntity
  8
1
  6
Continuous
 62
     7
100
AcDbLine
 10
513.0000009999999
 20
249.5
 30
0.0
 11
511.000001
 21
249.5
 31
0.0
  0
LINE
  5
35C
330
1E
100
AcDbEntity
  8
1
  6
Continuous
 62
     7
100
AcDbLine
 10
512.000001
 20
250.4999999999999
 30
0.0
 11
512.000001
 21
248.4999999999999
 31
0.0
  0
LINE
  5
35D
330
1E
100
AcDbEntity
  8
1
  6
Continuous
 62
     7
100
AcDbLine
 10
513.0
 20
239.5
 30
0.0
 11
511.0
 21
239.5
 31
0.0
  0
LINE
  5
35E
330
1E
100
AcDbEntity
  8
1
  6
Continuous
 62
     7
100
AcDbLine
 10
512.0
 20
240.5
 30
0.0
 11
512.0
 21
238.5
 31
0.0
  0
LINE
  5
35F
330
1E
100
AcDbEntity
  8
1
  6
Continuous
 62
     7
100
AcDbLine
 10
493.5000019999999
 20
252.4999999999999
 30
0.0
 11
491.5000009999999
 21
250.4999999999999
 31
0.0
  0
LINE
  5
360
330
1E
100
AcDbEntity
  8
1
  6
Continuous
 62
     7
100
AcDbLine
 10
491.5000009999999
 20
250.4999999999999
 30
0.0
 11
491.5
 21
241.5
 31
0.0
  0
LINE
  5
361
330
1E
100
AcDbEntity
  8
1
  6
Continuous
 62
     7
100
AcDbLine
 10
491.5
 20
241.5
 30
0.0
 11
493.5
 21
239.5
 31
0.0
  0
LINE
  5
362
330
1E
100
AcDbEntity
  8
1
  6
Continuous
 62
     7
100
AcDbLine
 10
493.5
 20
239.5
 30
0.0
 11
499.5
 21
239.5
 31
0.0
  0
LINE
  5
363
330
1E
100
AcDbEntity
  8
1
  6
Continuous
 62
     7
100
AcDbLine
 10
499.5
 20
239.5
 30
0.0
 11
501.4999999999999
 21
241.5
 31
0.0
  0
LINE
  5
364
330
1E
100
AcDbEntity
  8
1
  6
Continuous
 62
     7
100
AcDbLine
 10
501.4999999999999
 20
241.5
 30
0.0
 11
501.500001
 21
250.4999999999999
 31
0.0
  0
LINE
  5
365
330
1E
100
AcDbEntity
  8
1
  6
Continuous
 62
     7
100
AcDbLine
 10
501.500001
 20
250.4999999999999
 30
0.0
 11
499.5000019999999
 21
252.4999999999999
 31
0.0
  0
LINE
  5
366
330
1E
100
AcDbEntity
  8
1
  6
Continuous
 62
     7
100
AcDbLine
 10
499.5000019999999
 20
252.4999999999999
 30
0.0
 11
493.5000019999999
 21
252.4999999999999
 31
0.0
  0
LINE
  5
367
330
1E
100
AcDbEntity
  8
1
  6
Continuous
 62
     7
100
AcDbLine
 10
494.200001
 20
251.0
 30
0.0
 11
492.7000009999999
 21
249.5
 31
0.0
  0
LINE
  5
368
330
1E
100
AcDbEntity
  8
1
  6
Continuous
 62
     7
100
AcDbLine
 10
492.7000009999999
 20
249.5
 30
0.0
 11
492.7000009999999
 21
242.5
 31
0.0
  0
LINE
  5
369
330
1E
100
AcDbEntity
  8
1
  6
Continuous
 62
     7
100
AcDbLine
 10
492.7000009999999
 20
242.5
 30
0.0
 11
494.200001
 21
241.0
 31
0.0
  0
LINE
  5
36A
330
1E
100
AcDbEntity
  8
1
  6
Continuous
 62
     7
100
AcDbLine
 10
494.200001
 20
241.0
 30
0.0
 11
498.8000009999999
 21
240.999999
 31
0.0
  0
LINE
  5
36B
330
1E
100
AcDbEntity
  8
1
  6
Continuous
 62
     7
100
AcDbLine
 10
498.8000009999999
 20
240.999999
 30
0.0
 11
500.300001
 21
242.499999
 31
0.0
  0
LINE
  5
36C
330
1E
100
AcDbEntity
  8
1
  6
Continuous
 62
     7
100
AcDbLine
 10
500.300001
 20
242.499999
 30
0.0
 11
500.300001
 21
249.499999
 31
0.0
  0
LINE
  5
36D
330
1E
100
AcDbEntity
  8
1
  6
Continuous
 62
     7
100
AcDbLine
 10
500.300001
 20
249.499999
 30
0.0
 11
498.8000009999999
 21
250.999999
 31
0.0
  0
LINE
  5
36E
330
1E
100
AcDbEntity
  8
1
  6
Continuous
 62
     7
100
AcDbLine
 10
498.8000009999999
 20
250.999999
 30
0.0
 11
494.200001
 21
251.0
 31
0.0
  0
LINE
  5
36F
330
1E
100
AcDbEntity
  8
1
  6
Continuous
 62
     7
100
AcDbLine
 10
494.700001
 20
249.5999999999999
 30
0.0
 11
493.500001
 21
248.3999999999999
 31
0.0
  0
LINE
  5
370
330
1E
100
AcDbEntity
  8
1
  6
Continuous
 62
     7
100
AcDbLine
 10
493.500001
 20
248.3999999999999
 30
0.0
 11
493.500001
 21
246.9
 31
0.0
  0
LINE
  5
371
330
1E
100
AcDbEntity
  8
1
  6
Continuous
 62
     7
100
AcDbLine
 10
493.500001
 20
246.9
 30
0.0
 11
493.1000009999999
 21
246.9
 31
0.0
  0
LINE
  5
372
330
1E
100
AcDbEntity
  8
1
  6
Continuous
 62
     7
100
AcDbLine
 10
493.1000009999999
 20
246.9
 30
0.0
 11
493.1000009999999
 21
245.1
 31
0.0
  0
LINE
  5
373
330
1E
100
AcDbEntity
  8
1
  6
Continuous
 62
     7
100
AcDbLine
 10
493.1000009999999
 20
245.1
 30
0.0
 11
493.500001
 21
245.1
 31
0.0
  0
LINE
  5
374
330
1E
100
AcDbEntity
  8
1
  6
Continuous
 62
     7
100
AcDbLine
 10
493.500001
 20
245.1
 30
0.0
 11
493.500001
 21
243.5999999999999
 31
0.0
  0
LINE
  5
375
330
1E
100
AcDbEntity
  8
1
  6
Continuous
 62
     7
100
AcDbLine
 10
493.500001
 20
243.5999999999999
 30
0.0
 11
494.700001
 21
242.3999999999999
 31
0.0
  0
LINE
  5
376
330
1E
100
AcDbEntity
  8
1
  6
Continuous
 62
     7
100
AcDbLine
 10
494.700001
 20
242.3999999999999
 30
0.0
 11
498.3000009999999
 21
242.3999989999999
 31
0.0
  0
LINE
  5
377
330
1E
100
AcDbEntity
  8
1
  6
Continuous
 62
     7
100
AcDbLine
 10
498.3000009999999
 20
242.3999989999999
 30
0.0
 11
499.500001
 21
243.599999
 31
0.0
  0
LINE
  5
378
330
1E
100
AcDbEntity
  8
1
  6
Continuous
 62
     7
100
AcDbLine
 10
499.500001
 20
243.599999
 30
0.0
 11
499.500001
 21
248.399999
 31
0.0
  0
LINE
  5
379
330
1E
100
AcDbEntity
  8
1
  6
Continuous
 62
     7
100
AcDbLine
 10
499.500001
 20
248.399999
 30
0.0
 11
498.3000009999999
 21
249.599999
 31
0.0
  0
LINE
  5
37A
330
1E
100
AcDbEntity
  8
1
  6
Continuous
 62
     7
100
AcDbLine
 10
498.3000009999999
 20
249.599999
 30
0.0
 11
494.700001
 21
249.5999999999999
 31
0.0
  0
LINE
  5
37B
330
1E
100
AcDbEntity
  8
1
  6
Continuous
 62
     7
100
AcDbLine
 10
494.200001
 20
251.0
 30
0.0
 11
493.5000019999999
 21
252.4999999999999
 31
0.0
  0
LINE
  5
37C
330
1E
100
AcDbEntity
  8
1
  6
Continuous
 62
     7
100
AcDbLine
 10
492.7000009999999
 20
249.5
 30
0.0
 11
491.5000009999999
 21
250.4999999999999
 31
0.0
  0
LINE
  5
37D
330
1E
100
AcDbEntity
  8
1
  6
Continuous
 62
     7
100
AcDbLine
 10
492.7000009999999
 20
242.5
 30
0.0
 11
491.5
 21
241.5
 31
0.0
  0
LINE
  5
37E
330
1E
100
AcDbEntity
  8
1
  6
Continuous
 62
     7
100
AcDbLine
 10
494.200001
 20
241.0
 30
0.0
 11
493.5
 21
239.5
 31
0.0
  0
LINE
  5
37F
330
1E
100
AcDbEntity
  8
1
  6
Continuous
 62
     7
100
AcDbLine
 10
498.8000009999999
 20
240.999999
 30
0.0
 11
499.5
 21
239.5
 31
0.0
  0
LINE
  5
380
330
1E
100
AcDbEntity
  8
1
  6
Continuous
 62
     7
100
AcDbLine
 10
500.300001
 20
242.499999
 30
0.0
 11
501.4999999999999
 21
241.5
 31
0.0
  0
LINE
  5
381
330
1E
100
AcDbEntity
  8
1
  6
Continuous
 62
     7
100
AcDbLine
 10
500.300001
 20
249.499999
 30
0.0
 11
501.500001
 21
250.4999999999999
 31
0.0
  0
LINE
  5
382
330
1E
100
AcDbEntity
  8
1
  6
Continuous
 62
     7
100
AcDbLine
 10
498.8000009999999
 20
250.999999
 30
0.0
 11
499.5000019999999
 21
252.4999999999999
 31
0.0
  0
LINE
  5
383
330
1E
100
AcDbEntity
  8
1
  6
Continuous
 62
     7
100
AcDbLine
 10
494.3000009999999
 20
248.0
 30
0.0
 11
495.000001
 21
248.7
 31
0.0
  0
LINE
  5
384
330
1E
100
AcDbEntity
  8
1
  6
Continuous
 62
     7
100
AcDbLine
 10
495.000001
 20
248.7
 30
0.0
 11
498.000001
 21
248.7
 31
0.0
  0
LINE
  5
385
330
1E
100
AcDbEntity
  8
1
  6
Continuous
 62
     7
100
AcDbLine
 10
498.000001
 20
248.7
 30
0.0
 11
498.700001
 21
248.0
 31
0.0
  0
LINE
  5
386
330
1E
100
AcDbEntity
  8
1
  6
Continuous
 62
     7
100
AcDbLine
 10
498.700001
 20
248.0
 30
0.0
 11
498.700001
 21
243.999999
 31
0.0
  0
LINE
  5
387
330
1E
100
AcDbEntity
  8
1
  6
Continuous
 62
     7
100
AcDbLine
 10
498.700001
 20
243.999999
 30
0.0
 11
498.000001
 21
243.299999
 31
0.0
  0
LINE
  5
388
330
1E
100
AcDbEntity
  8
1
  6
Continuous
 62
     7
100
AcDbLine
 10
498.000001
 20
243.299999
 30
0.0
 11
495.000001
 21
243.299999
 31
0.0
  0
LINE
  5
389
330
1E
100
AcDbEntity
  8
1
  6
Continuous
 62
     7
100
AcDbLine
 10
494.3000009999999
 20
248.0
 30
0.0
 11
494.3000009999999
 21
243.999999
 31
0.0
  0
LINE
  5
38A
330
1E
100
AcDbEntity
  8
1
  6
Continuous
 62
     7
100
AcDbLine
 10
495.000001
 20
243.299999
 30
0.0
 11
494.3000009999999
 21
243.999999
 31
0.0
  0
LINE
  5
38B
330
1E
100
AcDbEntity
  8
1
  6
Continuous
 62
     7
100
AcDbLine
 10
497.200001
 20
247.599999
 30
0.0
 11
497.200001
 21
246.799999
 31
0.0
  0
LINE
  5
38C
330
1E
100
AcDbEntity
  8
1
  6
Continuous
 62
     7
100
AcDbLine
 10
497.200001
 20
246.799999
 30
0.0
 11
498.000001
 21
246.799999
 31
0.0
  0
LINE
  5
38D
330
1E
100
AcDbEntity
  8
1
  6
Continuous
 62
     7
100
AcDbLine
 10
498.000001
 20
246.799999
 30
0.0
 11
498.000001
 21
247.599999
 31
0.0
  0
LINE
  5
38E
330
1E
100
AcDbEntity
  8
1
  6
Continuous
 62
     7
100
AcDbLine
 10
498.000001
 20
247.599999
 30
0.0
 11
497.200001
 21
247.599999
 31
0.0
  0
LINE
  5
38F
330
1E
100
AcDbEntity
  8
1
  6
Continuous
 62
     7
100
AcDbLine
 10
497.200001
 20
245.199999
 30
0.0
 11
497.200001
 21
244.399999
 31
0.0
  0
LINE
  5
390
330
1E
100
AcDbEntity
  8
1
  6
Continuous
 62
     7
100
AcDbLine
 10
497.200001
 20
244.399999
 30
0.0
 11
498.000001
 21
244.399999
 31
0.0
  0
LINE
  5
391
330
1E
100
AcDbEntity
  8
1
  6
Continuous
 62
     7
100
AcDbLine
 10
498.000001
 20
244.399999
 30
0.0
 11
498.000001
 21
245.199999
 31
0.0
  0
LINE
  5
392
330
1E
100
AcDbEntity
  8
1
  6
Continuous
 62
     7
100
AcDbLine
 10
498.000001
 20
245.199999
 30
0.0
 11
497.200001
 21
245.199999
 31
0.0
  0
LINE
  5
393
330
1E
100
AcDbEntity
  8
1
  6
Continuous
 62
     7
100
AcDbLine
 10
495.000001
 20
245.1999999999999
 30
0.0
 11
495.000001
 21
244.3999999999999
 31
0.0
  0
LINE
  5
394
330
1E
100
AcDbEntity
  8
1
  6
Continuous
 62
     7
100
AcDbLine
 10
495.000001
 20
244.3999999999999
 30
0.0
 11
495.8000009999999
 21
244.3999999999999
 31
0.0
  0
LINE
  5
395
330
1E
100
AcDbEntity
  8
1
  6
Continuous
 62
     7
100
AcDbLine
 10
495.8000009999999
 20
244.3999999999999
 30
0.0
 11
495.8000009999999
 21
245.1999999999999
 31
0.0
  0
LINE
  5
396
330
1E
100
AcDbEntity
  8
1
  6
Continuous
 62
     7
100
AcDbLine
 10
495.8000009999999
 20
245.1999999999999
 30
0.0
 11
495.000001
 21
245.1999999999999
 31
0.0
  0
LINE
  5
397
330
1E
100
AcDbEntity
  8
1
  6
Continuous
 62
     7
100
AcDbLine
 10
495.000001
 20
247.5999999999999
 30
0.0
 11
495.000001
 21
246.7999999999999
 31
0.0
  0
LINE
  5
398
330
1E
100
AcDbEntity
  8
1
  6
Continuous
 62
     7
100
AcDbLine
 10
495.000001
 20
246.7999999999999
 30
0.0
 11
495.8000009999999
 21
246.7999999999999
 31
0.0
  0
LINE
  5
399
330
1E
100
AcDbEntity
  8
1
  6
Continuous
 62
     7
100
AcDbLine
 10
495.8000009999999
 20
246.7999999999999
 30
0.0
 11
495.8000009999999
 21
247.5999999999999
 31
0.0
  0
LINE
  5
39A
330
1E
100
AcDbEntity
  8
1
  6
Continuous
 62
     7
100
AcDbLine
 10
495.8000009999999
 20
247.5999999999999
 30
0.0
 11
495.000001
 21
247.5999999999999
 31
0.0
  0
LINE
  5
39B
330
1E
100
AcDbEntity
  8
1
  6
Continuous
 62
     7
100
AcDbLine
 10
501.4999999999999
 20
244.4999999999999
 30
0.0
 11
516.5
 21
244.4999999999999
 31
0.0
  0
LINE
  5
39C
330
1E
100
AcDbEntity
  8
1
  6
Continuous
 62
     7
100
AcDbLine
 10
516.5
 20
243.5
 30
0.0
 11
501.4999999999999
 21
243.5
 31
0.0
  0
LINE
  5
39D
330
1E
100
AcDbEntity
  8
1
  6
Continuous
 62
     7
100
AcDbLine
 10
491.5
 20
244.4999999999999
 30
0.0
 11
424.5
 21
244.4999999999999
 31
0.0
  0
LINE
  5
39E
330
1E
100
AcDbEntity
  8
1
  6
Continuous
 62
     7
100
AcDbLine
 10
424.5
 20
243.5
 30
0.0
 11
491.5
 21
243.5
 31
0.0
  0
TEXT
  5
39F
330
1E
100
AcDbEntity
  8
1
  6
Continuous
 62
     7
100
AcDbText
 10
224.5
 20
246.1999999999999
 30
0.0
 40
5.0
  1
DAY
 41
0.4
  7
KANJI
100
AcDbText
  0
TEXT
  5
3A0
330
1E
100
AcDbEntity
  8
1
  6
Continuous
 62
     7
100
AcDbText
 10
234.0
 20
246.1999999999999
 30
0.0
 40
5.0
  1
NIGHT
 41
0.4
  7
KANJI
100
AcDbText
  0
ARC
  5
3A1
330
1E
100
AcDbEntity
  8
1
  6
Continuous
 62
     7
100
AcDbCircle
 10
232.0
 20
247.49375
 30
0.0
 40
1.80625
100
AcDbArc
 50
33.855026
 51
146.1449739999999
  0
ARC
  5
3A2
330
1E
100
AcDbEntity
  8
1
  6
Continuous
 62
     7
100
AcDbCircle
 10
232.0
 20
249.5062499999999
 30
0.0
 40
1.80625
100
AcDbArc
 50
213.855026
 51
326.1449739999999
  0
TEXT
  5
3A3
330
1E
100
AcDbEntity
  8
1
  6
Continuous
 62
     7
100
AcDbText
 10
435.49999
 20
246.1999999999999
 30
0.0
 40
5.0
  1
DAY
 41
0.4
  7
KANJI
100
AcDbText
  0
TEXT
  5
3A4
330
1E
100
AcDbEntity
  8
1
  6
Continuous
 62
     7
100
AcDbText
 10
444.99999
 20
246.1999999999999
 30
0.0
 40
5.0
  1
NIGHT
 41
0.4
  7
KANJI
100
AcDbText
  0
ARC
  5
3A5
330
1E
100
AcDbEntity
  8
1
  6
Continuous
 62
     7
100
AcDbCircle
 10
442.99999
 20
247.49375
 30
0.0
 40
1.80625
100
AcDbArc
 50
33.855026
 51
146.1449739999999
  0
ARC
  5
3A6
330
1E
100
AcDbEntity
  8
1
  6
Continuous
 62
     7
100
AcDbCircle
 10
442.99999
 20
249.5062499999999
 30
0.0
 40
1.80625
100
AcDbArc
 50
213.855026
 51
326.1449739999999
  0
LINE
  5
3A7
330
1E
100
AcDbEntity
  8
1
  6
Continuous
 62
     7
100
AcDbLine
 10
260.900014
 20
237.9
 30
0.0
 11
260.000015
 21
237.9
 31
0.0
  0
ARC
  5
3A8
330
1E
100
AcDbEntity
  8
1
  6
Continuous
 62
     7
100
AcDbCircle
 10
260.900014
 20
238.3999999999999
 30
0.0
 40
0.5
100
AcDbArc
 50
270.0
 51
0.0
  0
LINE
  5
3A9
330
1E
100
AcDbEntity
  8
1
  6
Continuous
 62
     7
100
AcDbLine
 10
261.4000139999999
 20
240.6
 30
0.0
 11
261.4000139999999
 21
238.3999999999999
 31
0.0
  0
LINE
  5
3AA
330
1E
100
AcDbEntity
  8
1
  6
Continuous
 62
     7
100
AcDbLine
 10
260.000014
 20
241.1
 30
0.0
 11
260.900014
 21
241.1
 31
0.0
  0
ARC
  5
3AB
330
1E
100
AcDbEntity
  8
1
  6
Continuous
 62
     7
100
AcDbCircle
 10
260.900014
 20
240.6
 30
0.0
 40
0.5
100
AcDbArc
 50
0.0
 51
90.0
  0
LINE
  5
3AC
330
1E
100
AcDbEntity
  8
1
  6
Continuous
 62
     7
100
AcDbLine
 10
260.000015
 20
235.0
 30
0.0
 11
265.600015
 21
235.0
 31
0.0
  0
LINE
  5
3AD
330
1E
100
AcDbEntity
  8
1
  6
Continuous
 62
     7
100
AcDbLine
 10
265.600015
 20
235.0
 30
0.0
 11
265.600015
 21
222.5
 31
0.0
  0
LINE
  5
3AE
330
1E
100
AcDbEntity
  8
1
  6
Continuous
 62
     7
100
AcDbLine
 10
265.600015
 20
222.5
 30
0.0
 11
260.000017
 21
222.5
 31
0.0
  0
LINE
  5
3AF
330
1E
100
AcDbEntity
  8
1
  6
Continuous
 62
     7
100
AcDbLine
 10
260.000016
 20
232.5
 30
0.0
 11
265.600015
 21
232.5
 31
0.0
  0
LINE
  5
3B0
330
1E
100
AcDbEntity
  8
1
  6
Continuous
 62
     7
100
AcDbLine
 10
260.000016
 20
227.4999999999999
 30
0.0
 11
265.600015
 21
227.4999999999999
 31
0.0
  0
LINE
  5
3B1
330
1E
100
AcDbEntity
  8
1
  6
Continuous
 62
     7
100
AcDbLine
 10
262.600016
 20
232.5
 30
0.0
 11
262.600016
 21
228.5
 31
0.0
  0
LINE
  5
3B2
330
1E
100
AcDbEntity
  8
1
  6
Continuous
 62
     7
100
AcDbLine
 10
262.600016
 20
228.5
 30
0.0
 11
264.100016
 21
228.5
 31
0.0
  0
LINE
  5
3B3
330
1E
100
AcDbEntity
  8
1
  6
Continuous
 62
     7
100
AcDbLine
 10
264.100016
 20
228.5
 30
0.0
 11
264.100016
 21
232.5
 31
0.0
  0
LINE
  5
3B4
330
1E
100
AcDbEntity
  8
1
  6
Continuous
 62
     7
100
AcDbLine
 10
262.600016
 20
227.4999999999999
 30
0.0
 11
262.600016
 21
223.4999999999999
 31
0.0
  0
LINE
  5
3B5
330
1E
100
AcDbEntity
  8
1
  6
Continuous
 62
     7
100
AcDbLine
 10
262.600016
 20
223.4999999999999
 30
0.0
 11
264.100016
 21
223.4999999999999
 31
0.0
  0
LINE
  5
3B6
330
1E
100
AcDbEntity
  8
1
  6
Continuous
 62
     7
100
AcDbLine
 10
264.100016
 20
223.4999999999999
 30
0.0
 11
264.100016
 21
227.4999999999999
 31
0.0
  0
TEXT
  5
3B7
330
1E
100
AcDbEntity
  8
1
  6
Continuous
 62
     7
100
AcDbText
 10
330.4319954054972
 20
219.1686419999999
 30
0.0
 40
1.3
  1
AC24V/DC12V
 41
0.6
  7
KANJI
100
AcDbText
  0
ARC
  5
3B8
330
1E
100
AcDbEntity
  8
1
  6
Continuous
 62
     7
100
AcDbCircle
 10
260.096887
 20
258.3
 30
0.0
 40
1.503125
100
AcDbArc
 50
266.304788
 51
93.69522900000001
  0
LINE
  5
3B9
330
1E
100
AcDbEntity
  8
1
  6
Continuous
 62
     7
100
AcDbLine
 10
260.0000129999999
 20
252.5999999999999
 30
0.0
 11
266.5000129999999
 21
252.5999999999999
 31
0.0
  0
ARC
  5
3BA
330
1E
100
AcDbEntity
  8
1
  6
Continuous
 62
     7
100
AcDbCircle
 10
266.5000129999999
 20
250.5999999999999
 30
0.0
 40
2.0
100
AcDbArc
 50
0.000008
 51
90.0
  0
LINE
  5
3BB
330
1E
100
AcDbEntity
  8
1
  6
Continuous
 62
     7
100
AcDbLine
 10
268.5000129999999
 20
250.5999999999999
 30
0.0
 11
268.500014
 21
246.3999999999999
 31
0.0
  0
LINE
  5
3BC
330
1E
100
AcDbEntity
  8
1
  6
Continuous
 62
     7
100
AcDbLine
 10
266.500014
 20
244.3999999999999
 30
0.0
 11
260.000014
 21
244.3999999999999
 31
0.0
  0
ARC
  5
3BD
330
1E
100
AcDbEntity
  8
1
  6
Continuous
 62
     7
100
AcDbCircle
 10
266.500014
 20
246.3999999999999
 30
0.0
 40
2.0
100
AcDbArc
 50
270.0
 51
0.000008
  0
LINE
  5
3BE
330
1E
100
AcDbEntity
  8
1
  6
Continuous
 62
     7
100
AcDbLine
 10
265.600015
 20
231.8
 30
0.0
 11
272.700016
 21
231.8
 31
0.0
  0
LINE
  5
3BF
330
1E
100
AcDbEntity
  8
1
  6
Continuous
 62
     7
100
AcDbLine
 10
272.700016
 20
231.8
 30
0.0
 11
272.700016
 21
222.1999999999999
 31
0.0
  0
LINE
  5
3C0
330
1E
100
AcDbEntity
  8
1
  6
Continuous
 62
     7
100
AcDbLine
 10
272.700016
 20
222.1999999999999
 30
0.0
 11
260.000017
 21
222.1999999999999
 31
0.0
  0
LINE
  5
3C1
330
1E
100
AcDbEntity
  8
1
  6
Continuous
 62
     7
100
AcDbLine
 10
269.4500169999999
 20
223.0402
 30
0.0
 11
269.4500169999999
 21
223.0402009999999
 31
0.0
  0
LINE
  5
3C2
330
1E
100
AcDbEntity
  8
1
  6
Continuous
 62
     7
100
AcDbLine
 10
269.4500169999999
 20
223.0402009999999
 30
0.0
 11
269.4493029999999
 21
223.0633329999999
 31
0.0
  0
LINE
  5
3C3
330
1E
100
AcDbEntity
  8
1
  6
Continuous
 62
     7
100
AcDbLine
 10
269.4493029999999
 20
223.0633329999999
 30
0.0
 11
269.4471629999999
 21
223.086422
 31
0.0
  0
LINE
  5
3C4
330
1E
100
AcDbEntity
  8
1
  6
Continuous
 62
     7
100
AcDbLine
 10
269.4471629999999
 20
223.086422
 30
0.0
 11
269.4436009999999
 21
223.109422
 31
0.0
  0
LINE
  5
3C5
330
1E
100
AcDbEntity
  8
1
  6
Continuous
 62
     7
100
AcDbLine
 10
269.4436009999999
 20
223.109422
 30
0.0
 11
269.438623
 21
223.132291
 31
0.0
  0
LINE
  5
3C6
330
1E
100
AcDbEntity
  8
1
  6
Continuous
 62
     7
100
AcDbLine
 10
269.438623
 20
223.132291
 30
0.0
 11
269.432239
 21
223.1549849999999
 31
0.0
  0
LINE
  5
3C7
330
1E
100
AcDbEntity
  8
1
  6
Continuous
 62
     7
100
AcDbLine
 10
269.432239
 20
223.1549849999999
 30
0.0
 11
269.424461
 21
223.17746
 31
0.0
  0
LINE
  5
3C8
330
1E
100
AcDbEntity
  8
1
  6
Continuous
 62
     7
100
AcDbLine
 10
269.424461
 20
223.17746
 30
0.0
 11
269.415305
 21
223.199674
 31
0.0
  0
LINE
  5
3C9
330
1E
100
AcDbEntity
  8
1
  6
Continuous
 62
     7
100
AcDbLine
 10
269.415305
 20
223.199674
 30
0.0
 11
269.4047869999999
 21
223.2215839999999
 31
0.0
  0
LINE
  5
3CA
330
1E
100
AcDbEntity
  8
1
  6
Continuous
 62
     7
100
AcDbLine
 10
269.4047869999999
 20
223.2215839999999
 30
0.0
 11
269.3929269999999
 21
223.243149
 31
0.0
  0
LINE
  5
3CB
330
1E
100
AcDbEntity
  8
1
  6
Continuous
 62
     7
100
AcDbLine
 10
269.3929269999999
 20
223.243149
 30
0.0
 11
269.379748
 21
223.264327
 31
0.0
  0
LINE
  5
3CC
330
1E
100
AcDbEntity
  8
1
  6
Continuous
 62
     7
100
AcDbLine
 10
269.379748
 20
223.264327
 30
0.0
 11
269.365275
 21
223.285079
 31
0.0
  0
LINE
  5
3CD
330
1E
100
AcDbEntity
  8
1
  6
Continuous
 62
     7
100
AcDbLine
 10
269.365275
 20
223.285079
 30
0.0
 11
269.349536
 21
223.305365
 31
0.0
  0
LINE
  5
3CE
330
1E
100
AcDbEntity
  8
1
  6
Continuous
 62
     7
100
AcDbLine
 10
269.349536
 20
223.305365
 30
0.0
 11
269.332561
 21
223.3251459999999
 31
0.0
  0
LINE
  5
3CF
330
1E
100
AcDbEntity
  8
1
  6
Continuous
 62
     7
100
AcDbLine
 10
269.332561
 20
223.3251459999999
 30
0.0
 11
269.314381
 21
223.344385
 31
0.0
  0
LINE
  5
3D0
330
1E
100
AcDbEntity
  8
1
  6
Continuous
 62
     7
100
AcDbLine
 10
269.314381
 20
223.344385
 30
0.0
 11
269.295032
 21
223.363045
 31
0.0
  0
LINE
  5
3D1
330
1E
100
AcDbEntity
  8
1
  6
Continuous
 62
     7
100
AcDbLine
 10
269.295032
 20
223.363045
 30
0.0
 11
269.27455
 21
223.3810899999999
 31
0.0
  0
LINE
  5
3D2
330
1E
100
AcDbEntity
  8
1
  6
Continuous
 62
     7
100
AcDbLine
 10
269.27455
 20
223.3810899999999
 30
0.0
 11
269.2529749999999
 21
223.398486
 31
0.0
  0
LINE
  5
3D3
330
1E
100
AcDbEntity
  8
1
  6
Continuous
 62
     7
100
AcDbLine
 10
269.2529749999999
 20
223.398486
 30
0.0
 11
269.230347
 21
223.4151999999999
 31
0.0
  0
LINE
  5
3D4
330
1E
100
AcDbEntity
  8
1
  6
Continuous
 62
     7
100
AcDbLine
 10
269.230347
 20
223.4151999999999
 30
0.0
 11
269.20671
 21
223.4312
 31
0.0
  0
LINE
  5
3D5
330
1E
100
AcDbEntity
  8
1
  6
Continuous
 62
     7
100
AcDbLine
 10
269.20671
 20
223.4312
 30
0.0
 11
269.182108
 21
223.4464569999999
 31
0.0
  0
LINE
  5
3D6
330
1E
100
AcDbEntity
  8
1
  6
Continuous
 62
     7
100
AcDbLine
 10
269.182108
 20
223.4464569999999
 30
0.0
 11
269.156588
 21
223.460939
 31
0.0
  0
LINE
  5
3D7
330
1E
100
AcDbEntity
  8
1
  6
Continuous
 62
     7
100
AcDbLine
 10
269.156588
 20
223.460939
 30
0.0
 11
269.1301989999999
 21
223.4746209999999
 31
0.0
  0
LINE
  5
3D8
330
1E
100
AcDbEntity
  8
1
  6
Continuous
 62
     7
100
AcDbLine
 10
269.1301989999999
 20
223.4746209999999
 30
0.0
 11
269.1029919999999
 21
223.4874759999999
 31
0.0
  0
LINE
  5
3D9
330
1E
100
AcDbEntity
  8
1
  6
Continuous
 62
     7
100
AcDbLine
 10
269.1029919999999
 20
223.4874759999999
 30
0.0
 11
269.075017
 21
223.499479
 31
0.0
  0
LINE
  5
3DA
330
1E
100
AcDbEntity
  8
1
  6
Continuous
 62
     7
100
AcDbLine
 10
269.075017
 20
223.499479
 30
0.0
 11
269.046329
 21
223.5106089999999
 31
0.0
  0
LINE
  5
3DB
330
1E
100
AcDbEntity
  8
1
  6
Continuous
 62
     7
100
AcDbLine
 10
269.046329
 20
223.5106089999999
 30
0.0
 11
269.0169809999999
 21
223.5208419999999
 31
0.0
  0
LINE
  5
3DC
330
1E
100
AcDbEntity
  8
1
  6
Continuous
 62
     7
100
AcDbLine
 10
269.0169809999999
 20
223.5208419999999
 30
0.0
 11
268.9870299999999
 21
223.530161
 31
0.0
  0
LINE
  5
3DD
330
1E
100
AcDbEntity
  8
1
  6
Continuous
 62
     7
100
AcDbLine
 10
268.9870299999999
 20
223.530161
 30
0.0
 11
268.9565319999999
 21
223.538547
 31
0.0
  0
LINE
  5
3DE
330
1E
100
AcDbEntity
  8
1
  6
Continuous
 62
     7
100
AcDbLine
 10
268.9565319999999
 20
223.538547
 30
0.0
 11
268.925546
 21
223.545985
 31
0.0
  0
LINE
  5
3DF
330
1E
100
AcDbEntity
  8
1
  6
Continuous
 62
     7
100
AcDbLine
 10
268.925546
 20
223.545985
 30
0.0
 11
268.894131
 21
223.552459
 31
0.0
  0
LINE
  5
3E0
330
1E
100
AcDbEntity
  8
1
  6
Continuous
 62
     7
100
AcDbLine
 10
268.894131
 20
223.552459
 30
0.0
 11
268.862347
 21
223.5579589999999
 31
0.0
  0
LINE
  5
3E1
330
1E
100
AcDbEntity
  8
1
  6
Continuous
 62
     7
100
AcDbLine
 10
268.862347
 20
223.5579589999999
 30
0.0
 11
268.8302529999999
 21
223.562473
 31
0.0
  0
LINE
  5
3E2
330
1E
100
AcDbEntity
  8
1
  6
Continuous
 62
     7
100
AcDbLine
 10
268.8302529999999
 20
223.562473
 30
0.0
 11
268.797912
 21
223.565993
 31
0.0
  0
LINE
  5
3E3
330
1E
100
AcDbEntity
  8
1
  6
Continuous
 62
     7
100
AcDbLine
 10
268.797912
 20
223.565993
 30
0.0
 11
268.7653839999999
 21
223.5685119999999
 31
0.0
  0
LINE
  5
3E4
330
1E
100
AcDbEntity
  8
1
  6
Continuous
 62
     7
100
AcDbLine
 10
268.7653839999999
 20
223.5685119999999
 30
0.0
 11
268.732732
 21
223.5700249999999
 31
0.0
  0
LINE
  5
3E5
330
1E
100
AcDbEntity
  8
1
  6
Continuous
 62
     7
100
AcDbLine
 10
268.732732
 20
223.5700249999999
 30
0.0
 11
268.700017
 21
223.5705299999999
 31
0.0
  0
LINE
  5
3E6
330
1E
100
AcDbEntity
  8
1
  6
Continuous
 62
     7
100
AcDbLine
 10
268.700017
 20
223.5705299999999
 30
0.0
 11
268.667303
 21
223.5700249999999
 31
0.0
  0
LINE
  5
3E7
330
1E
100
AcDbEntity
  8
1
  6
Continuous
 62
     7
100
AcDbLine
 10
268.667303
 20
223.5700249999999
 30
0.0
 11
268.63465
 21
223.5685119999999
 31
0.0
  0
LINE
  5
3E8
330
1E
100
AcDbEntity
  8
1
  6
Continuous
 62
     7
100
AcDbLine
 10
268.63465
 20
223.5685119999999
 30
0.0
 11
268.602122
 21
223.565993
 31
0.0
  0
LINE
  5
3E9
330
1E
100
AcDbEntity
  8
1
  6
Continuous
 62
     7
100
AcDbLine
 10
268.602122
 20
223.565993
 30
0.0
 11
268.5697809999999
 21
223.562473
 31
0.0
  0
LINE
  5
3EA
330
1E
100
AcDbEntity
  8
1
  6
Continuous
 62
     7
100
AcDbLine
 10
268.5697809999999
 20
223.562473
 30
0.0
 11
268.537687
 21
223.5579589999999
 31
0.0
  0
LINE
  5
3EB
330
1E
100
AcDbEntity
  8
1
  6
Continuous
 62
     7
100
AcDbLine
 10
268.537687
 20
223.5579589999999
 30
0.0
 11
268.505903
 21
223.552459
 31
0.0
  0
LINE
  5
3EC
330
1E
100
AcDbEntity
  8
1
  6
Continuous
 62
     7
100
AcDbLine
 10
268.505903
 20
223.552459
 30
0.0
 11
268.474488
 21
223.545985
 31
0.0
  0
LINE
  5
3ED
330
1E
100
AcDbEntity
  8
1
  6
Continuous
 62
     7
100
AcDbLine
 10
268.474488
 20
223.545985
 30
0.0
 11
268.443502
 21
223.538547
 31
0.0
  0
LINE
  5
3EE
330
1E
100
AcDbEntity
  8
1
  6
Continuous
 62
     7
100
AcDbLine
 10
268.443502
 20
223.538547
 30
0.0
 11
268.4130049999999
 21
223.530161
 31
0.0
  0
LINE
  5
3EF
330
1E
100
AcDbEntity
  8
1
  6
Continuous
 62
     7
100
AcDbLine
 10
268.4130049999999
 20
223.530161
 30
0.0
 11
268.3830529999999
 21
223.5208419999999
 31
0.0
  0
LINE
  5
3F0
330
1E
100
AcDbEntity
  8
1
  6
Continuous
 62
     7
100
AcDbLine
 10
268.3830529999999
 20
223.5208419999999
 30
0.0
 11
268.3537059999999
 21
223.510608
 31
0.0
  0
LINE
  5
3F1
330
1E
100
AcDbEntity
  8
1
  6
Continuous
 62
     7
100
AcDbLine
 10
268.3537059999999
 20
223.510608
 30
0.0
 11
268.3250169999999
 21
223.499479
 31
0.0
  0
LINE
  5
3F2
330
1E
100
AcDbEntity
  8
1
  6
Continuous
 62
     7
100
AcDbLine
 10
268.3250169999999
 20
223.499479
 30
0.0
 11
268.2970419999999
 21
223.4874759999999
 31
0.0
  0
LINE
  5
3F3
330
1E
100
AcDbEntity
  8
1
  6
Continuous
 62
     7
100
AcDbLine
 10
268.2970419999999
 20
223.4874759999999
 30
0.0
 11
268.2698349999999
 21
223.4746209999999
 31
0.0
  0
LINE
  5
3F4
330
1E
100
AcDbEntity
  8
1
  6
Continuous
 62
     7
100
AcDbLine
 10
268.2698349999999
 20
223.4746209999999
 30
0.0
 11
268.243446
 21
223.460939
 31
0.0
  0
LINE
  5
3F5
330
1E
100
AcDbEntity
  8
1
  6
Continuous
 62
     7
100
AcDbLine
 10
268.243446
 20
223.460939
 30
0.0
 11
268.2179259999999
 21
223.446456
 31
0.0
  0
LINE
  5
3F6
330
1E
100
AcDbEntity
  8
1
  6
Continuous
 62
     7
100
AcDbLine
 10
268.2179259999999
 20
223.446456
 30
0.0
 11
268.193324
 21
223.4312
 31
0.0
  0
LINE
  5
3F7
330
1E
100
AcDbEntity
  8
1
  6
Continuous
 62
     7
100
AcDbLine
 10
268.193324
 20
223.4312
 30
0.0
 11
268.169687
 21
223.4151999999999
 31
0.0
  0
LINE
  5
3F8
330
1E
100
AcDbEntity
  8
1
  6
Continuous
 62
     7
100
AcDbLine
 10
268.169687
 20
223.4151999999999
 30
0.0
 11
268.1470589999999
 21
223.398486
 31
0.0
  0
LINE
  5
3F9
330
1E
100
AcDbEntity
  8
1
  6
Continuous
 62
     7
100
AcDbLine
 10
268.1470589999999
 20
223.398486
 30
0.0
 11
268.1254839999999
 21
223.3810899999999
 31
0.0
  0
LINE
  5
3FA
330
1E
100
AcDbEntity
  8
1
  6
Continuous
 62
     7
100
AcDbLine
 10
268.1254839999999
 20
223.3810899999999
 30
0.0
 11
268.105002
 21
223.363045
 31
0.0
  0
LINE
  5
3FB
330
1E
100
AcDbEntity
  8
1
  6
Continuous
 62
     7
100
AcDbLine
 10
268.105002
 20
223.363045
 30
0.0
 11
268.0856529999999
 21
223.344385
 31
0.0
  0
LINE
  5
3FC
330
1E
100
AcDbEntity
  8
1
  6
Continuous
 62
     7
100
AcDbLine
 10
268.0856529999999
 20
223.344385
 30
0.0
 11
268.067473
 21
223.3251459999999
 31
0.0
  0
LINE
  5
3FD
330
1E
100
AcDbEntity
  8
1
  6
Continuous
 62
     7
100
AcDbLine
 10
268.067473
 20
223.3251459999999
 30
0.0
 11
268.050498
 21
223.305365
 31
0.0
  0
LINE
  5
3FE
330
1E
100
AcDbEntity
  8
1
  6
Continuous
 62
     7
100
AcDbLine
 10
268.050498
 20
223.305365
 30
0.0
 11
268.034759
 21
223.285079
 31
0.0
  0
LINE
  5
3FF
330
1E
100
AcDbEntity
  8
1
  6
Continuous
 62
     7
100
AcDbLine
 10
268.034759
 20
223.285079
 30
0.0
 11
268.020286
 21
223.264327
 31
0.0
  0
LINE
  5
400
330
1E
100
AcDbEntity
  8
1
  6
Continuous
 62
     7
100
AcDbLine
 10
268.020286
 20
223.264327
 30
0.0
 11
268.0071069999999
 21
223.243149
 31
0.0
  0
LINE
  5
401
330
1E
100
AcDbEntity
  8
1
  6
Continuous
 62
     7
100
AcDbLine
 10
268.0071069999999
 20
223.243149
 30
0.0
 11
267.995248
 21
223.2215839999999
 31
0.0
  0
LINE
  5
402
330
1E
100
AcDbEntity
  8
1
  6
Continuous
 62
     7
100
AcDbLine
 10
267.995248
 20
223.2215839999999
 30
0.0
 11
267.984729
 21
223.199673
 31
0.0
  0
LINE
  5
403
330
1E
100
AcDbEntity
  8
1
  6
Continuous
 62
     7
100
AcDbLine
 10
267.984729
 20
223.199673
 30
0.0
 11
267.975573
 21
223.17746
 31
0.0
  0
LINE
  5
404
330
1E
100
AcDbEntity
  8
1
  6
Continuous
 62
     7
100
AcDbLine
 10
267.975573
 20
223.17746
 30
0.0
 11
267.967795
 21
223.1549849999999
 31
0.0
  0
LINE
  5
405
330
1E
100
AcDbEntity
  8
1
  6
Continuous
 62
     7
100
AcDbLine
 10
267.967795
 20
223.1549849999999
 30
0.0
 11
267.961411
 21
223.132291
 31
0.0
  0
LINE
  5
406
330
1E
100
AcDbEntity
  8
1
  6
Continuous
 62
     7
100
AcDbLine
 10
267.961411
 20
223.132291
 30
0.0
 11
267.956433
 21
223.109422
 31
0.0
  0
LINE
  5
407
330
1E
100
AcDbEntity
  8
1
  6
Continuous
 62
     7
100
AcDbLine
 10
267.956433
 20
223.109422
 30
0.0
 11
267.952871
 21
223.086422
 31
0.0
  0
LINE
  5
408
330
1E
100
AcDbEntity
  8
1
  6
Continuous
 62
     7
100
AcDbLine
 10
267.952871
 20
223.086422
 30
0.0
 11
267.950731
 21
223.0633329999999
 31
0.0
  0
LINE
  5
409
330
1E
100
AcDbEntity
  8
1
  6
Continuous
 62
     7
100
AcDbLine
 10
267.950731
 20
223.0633329999999
 30
0.0
 11
267.950017
 21
223.0402
 31
0.0
  0
LINE
  5
40A
330
1E
100
AcDbEntity
  8
1
  6
Continuous
 62
     7
100
AcDbLine
 10
267.950017
 20
223.0402
 30
0.0
 11
267.950731
 21
223.017068
 31
0.0
  0
LINE
  5
40B
330
1E
100
AcDbEntity
  8
1
  6
Continuous
 62
     7
100
AcDbLine
 10
267.950731
 20
223.017068
 30
0.0
 11
267.952871
 21
222.9939789999999
 31
0.0
  0
LINE
  5
40C
330
1E
100
AcDbEntity
  8
1
  6
Continuous
 62
     7
100
AcDbLine
 10
267.952871
 20
222.9939789999999
 30
0.0
 11
267.956433
 21
222.9709779999999
 31
0.0
  0
LINE
  5
40D
330
1E
100
AcDbEntity
  8
1
  6
Continuous
 62
     7
100
AcDbLine
 10
267.956433
 20
222.9709779999999
 30
0.0
 11
267.961411
 21
222.9481089999999
 31
0.0
  0
LINE
  5
40E
330
1E
100
AcDbEntity
  8
1
  6
Continuous
 62
     7
100
AcDbLine
 10
267.961411
 20
222.9481089999999
 30
0.0
 11
267.967795
 21
222.9254159999999
 31
0.0
  0
LINE
  5
40F
330
1E
100
AcDbEntity
  8
1
  6
Continuous
 62
     7
100
AcDbLine
 10
267.967795
 20
222.9254159999999
 30
0.0
 11
267.975573
 21
222.902941
 31
0.0
  0
LINE
  5
410
330
1E
100
AcDbEntity
  8
1
  6
Continuous
 62
     7
100
AcDbLine
 10
267.975573
 20
222.902941
 30
0.0
 11
267.984729
 21
222.880727
 31
0.0
  0
LINE
  5
411
330
1E
100
AcDbEntity
  8
1
  6
Continuous
 62
     7
100
AcDbLine
 10
267.984729
 20
222.880727
 30
0.0
 11
267.9952469999999
 21
222.858817
 31
0.0
  0
LINE
  5
412
330
1E
100
AcDbEntity
  8
1
  6
Continuous
 62
     7
100
AcDbLine
 10
267.9952469999999
 20
222.858817
 30
0.0
 11
268.0071069999999
 21
222.837252
 31
0.0
  0
LINE
  5
413
330
1E
100
AcDbEntity
  8
1
  6
Continuous
 62
     7
100
AcDbLine
 10
268.0071069999999
 20
222.837252
 30
0.0
 11
268.020286
 21
222.8160729999999
 31
0.0
  0
LINE
  5
414
330
1E
100
AcDbEntity
  8
1
  6
Continuous
 62
     7
100
AcDbLine
 10
268.020286
 20
222.8160729999999
 30
0.0
 11
268.034759
 21
222.7953209999999
 31
0.0
  0
LINE
  5
415
330
1E
100
AcDbEntity
  8
1
  6
Continuous
 62
     7
100
AcDbLine
 10
268.034759
 20
222.7953209999999
 30
0.0
 11
268.050498
 21
222.7750349999999
 31
0.0
  0
LINE
  5
416
330
1E
100
AcDbEntity
  8
1
  6
Continuous
 62
     7
100
AcDbLine
 10
268.050498
 20
222.7750349999999
 30
0.0
 11
268.067473
 21
222.755254
 31
0.0
  0
LINE
  5
417
330
1E
100
AcDbEntity
  8
1
  6
Continuous
 62
     7
100
AcDbLine
 10
268.067473
 20
222.755254
 30
0.0
 11
268.0856529999999
 21
222.7360159999999
 31
0.0
  0
LINE
  5
418
330
1E
100
AcDbEntity
  8
1
  6
Continuous
 62
     7
100
AcDbLine
 10
268.0856529999999
 20
222.7360159999999
 30
0.0
 11
268.105002
 21
222.717356
 31
0.0
  0
LINE
  5
419
330
1E
100
AcDbEntity
  8
1
  6
Continuous
 62
     7
100
AcDbLine
 10
268.105002
 20
222.717356
 30
0.0
 11
268.1254839999999
 21
222.6993109999999
 31
0.0
  0
LINE
  5
41A
330
1E
100
AcDbEntity
  8
1
  6
Continuous
 62
     7
100
AcDbLine
 10
268.1254839999999
 20
222.6993109999999
 30
0.0
 11
268.1470589999999
 21
222.681915
 31
0.0
  0
LINE
  5
41B
330
1E
100
AcDbEntity
  8
1
  6
Continuous
 62
     7
100
AcDbLine
 10
268.1470589999999
 20
222.681915
 30
0.0
 11
268.169687
 21
222.6652009999999
 31
0.0
  0
LINE
  5
41C
330
1E
100
AcDbEntity
  8
1
  6
Continuous
 62
     7
100
AcDbLine
 10
268.169687
 20
222.6652009999999
 30
0.0
 11
268.193324
 21
222.6491999999999
 31
0.0
  0
LINE
  5
41D
330
1E
100
AcDbEntity
  8
1
  6
Continuous
 62
     7
100
AcDbLine
 10
268.193324
 20
222.6491999999999
 30
0.0
 11
268.2179259999999
 21
222.6339439999999
 31
0.0
  0
LINE
  5
41E
330
1E
100
AcDbEntity
  8
1
  6
Continuous
 62
     7
100
AcDbLine
 10
268.2179259999999
 20
222.6339439999999
 30
0.0
 11
268.243446
 21
222.6194609999999
 31
0.0
  0
LINE
  5
41F
330
1E
100
AcDbEntity
  8
1
  6
Continuous
 62
     7
100
AcDbLine
 10
268.243446
 20
222.6194609999999
 30
0.0
 11
268.2698349999999
 21
222.6057799999999
 31
0.0
  0
LINE
  5
420
330
1E
100
AcDbEntity
  8
1
  6
Continuous
 62
     7
100
AcDbLine
 10
268.2698349999999
 20
222.6057799999999
 30
0.0
 11
268.2970419999999
 21
222.592925
 31
0.0
  0
LINE
  5
421
330
1E
100
AcDbEntity
  8
1
  6
Continuous
 62
     7
100
AcDbLine
 10
268.2970419999999
 20
222.592925
 30
0.0
 11
268.3250169999999
 21
222.5809209999999
 31
0.0
  0
LINE
  5
422
330
1E
100
AcDbEntity
  8
1
  6
Continuous
 62
     7
100
AcDbLine
 10
268.3250169999999
 20
222.5809209999999
 30
0.0
 11
268.3537059999999
 21
222.5697919999999
 31
0.0
  0
LINE
  5
423
330
1E
100
AcDbEntity
  8
1
  6
Continuous
 62
     7
100
AcDbLine
 10
268.3537059999999
 20
222.5697919999999
 30
0.0
 11
268.3830529999999
 21
222.559558
 31
0.0
  0
LINE
  5
424
330
1E
100
AcDbEntity
  8
1
  6
Continuous
 62
     7
100
AcDbLine
 10
268.3830529999999
 20
222.559558
 30
0.0
 11
268.4130039999999
 21
222.5502389999999
 31
0.0
  0
LINE
  5
425
330
1E
100
AcDbEntity
  8
1
  6
Continuous
 62
     7
100
AcDbLine
 10
268.4130039999999
 20
222.5502389999999
 30
0.0
 11
268.443502
 21
222.5418529999999
 31
0.0
  0
LINE
  5
426
330
1E
100
AcDbEntity
  8
1
  6
Continuous
 62
     7
100
AcDbLine
 10
268.443502
 20
222.5418529999999
 30
0.0
 11
268.474488
 21
222.534416
 31
0.0
  0
LINE
  5
427
330
1E
100
AcDbEntity
  8
1
  6
Continuous
 62
     7
100
AcDbLine
 10
268.474488
 20
222.534416
 30
0.0
 11
268.505903
 21
222.527941
 31
0.0
  0
LINE
  5
428
330
1E
100
AcDbEntity
  8
1
  6
Continuous
 62
     7
100
AcDbLine
 10
268.505903
 20
222.527941
 30
0.0
 11
268.537687
 21
222.522441
 31
0.0
  0
LINE
  5
429
330
1E
100
AcDbEntity
  8
1
  6
Continuous
 62
     7
100
AcDbLine
 10
268.537687
 20
222.522441
 30
0.0
 11
268.5697809999999
 21
222.517927
 31
0.0
  0
LINE
  5
42A
330
1E
100
AcDbEntity
  8
1
  6
Continuous
 62
     7
100
AcDbLine
 10
268.5697809999999
 20
222.517927
 30
0.0
 11
268.602122
 21
222.514408
 31
0.0
  0
LINE
  5
42B
330
1E
100
AcDbEntity
  8
1
  6
Continuous
 62
     7
100
AcDbLine
 10
268.602122
 20
222.514408
 30
0.0
 11
268.63465
 21
222.511889
 31
0.0
  0
LINE
  5
42C
330
1E
100
AcDbEntity
  8
1
  6
Continuous
 62
     7
100
AcDbLine
 10
268.63465
 20
222.511889
 30
0.0
 11
268.667303
 21
222.510375
 31
0.0
  0
LINE
  5
42D
330
1E
100
AcDbEntity
  8
1
  6
Continuous
 62
     7
100
AcDbLine
 10
268.667303
 20
222.510375
 30
0.0
 11
268.700017
 21
222.509871
 31
0.0
  0
LINE
  5
42E
330
1E
100
AcDbEntity
  8
1
  6
Continuous
 62
     7
100
AcDbLine
 10
268.700017
 20
222.509871
 30
0.0
 11
268.732732
 21
222.510375
 31
0.0
  0
LINE
  5
42F
330
1E
100
AcDbEntity
  8
1
  6
Continuous
 62
     7
100
AcDbLine
 10
268.732732
 20
222.510375
 30
0.0
 11
268.7653839999999
 21
222.511889
 31
0.0
  0
LINE
  5
430
330
1E
100
AcDbEntity
  8
1
  6
Continuous
 62
     7
100
AcDbLine
 10
268.7653839999999
 20
222.511889
 30
0.0
 11
268.797912
 21
222.514408
 31
0.0
  0
LINE
  5
431
330
1E
100
AcDbEntity
  8
1
  6
Continuous
 62
     7
100
AcDbLine
 10
268.797912
 20
222.514408
 30
0.0
 11
268.8302529999999
 21
222.5179279999999
 31
0.0
  0
LINE
  5
432
330
1E
100
AcDbEntity
  8
1
  6
Continuous
 62
     7
100
AcDbLine
 10
268.8302529999999
 20
222.5179279999999
 30
0.0
 11
268.862347
 21
222.5224419999999
 31
0.0
  0
LINE
  5
433
330
1E
100
AcDbEntity
  8
1
  6
Continuous
 62
     7
100
AcDbLine
 10
268.862347
 20
222.5224419999999
 30
0.0
 11
268.894131
 21
222.527941
 31
0.0
  0
LINE
  5
434
330
1E
100
AcDbEntity
  8
1
  6
Continuous
 62
     7
100
AcDbLine
 10
268.894131
 20
222.527941
 30
0.0
 11
268.925546
 21
222.534416
 31
0.0
  0
LINE
  5
435
330
1E
100
AcDbEntity
  8
1
  6
Continuous
 62
     7
100
AcDbLine
 10
268.925546
 20
222.534416
 30
0.0
 11
268.9565319999999
 21
222.5418529999999
 31
0.0
  0
LINE
  5
436
330
1E
100
AcDbEntity
  8
1
  6
Continuous
 62
     7
100
AcDbLine
 10
268.9565319999999
 20
222.5418529999999
 30
0.0
 11
268.9870299999999
 21
222.5502399999999
 31
0.0
  0
LINE
  5
437
330
1E
100
AcDbEntity
  8
1
  6
Continuous
 62
     7
100
AcDbLine
 10
268.9870299999999
 20
222.5502399999999
 30
0.0
 11
269.0169809999999
 21
222.559558
 31
0.0
  0
LINE
  5
438
330
1E
100
AcDbEntity
  8
1
  6
Continuous
 62
     7
100
AcDbLine
 10
269.0169809999999
 20
222.559558
 30
0.0
 11
269.046329
 21
222.5697919999999
 31
0.0
  0
LINE
  5
439
330
1E
100
AcDbEntity
  8
1
  6
Continuous
 62
     7
100
AcDbLine
 10
269.046329
 20
222.5697919999999
 30
0.0
 11
269.075017
 21
222.5809209999999
 31
0.0
  0
LINE
  5
43A
330
1E
100
AcDbEntity
  8
1
  6
Continuous
 62
     7
100
AcDbLine
 10
269.075017
 20
222.5809209999999
 30
0.0
 11
269.1029919999999
 21
222.592925
 31
0.0
  0
LINE
  5
43B
330
1E
100
AcDbEntity
  8
1
  6
Continuous
 62
     7
100
AcDbLine
 10
269.1029919999999
 20
222.592925
 30
0.0
 11
269.1301989999999
 21
222.6057799999999
 31
0.0
  0
LINE
  5
43C
330
1E
100
AcDbEntity
  8
1
  6
Continuous
 62
     7
100
AcDbLine
 10
269.1301989999999
 20
222.6057799999999
 30
0.0
 11
269.156588
 21
222.619462
 31
0.0
  0
LINE
  5
43D
330
1E
100
AcDbEntity
  8
1
  6
Continuous
 62
     7
100
AcDbLine
 10
269.156588
 20
222.619462
 30
0.0
 11
269.182108
 21
222.6339439999999
 31
0.0
  0
LINE
  5
43E
330
1E
100
AcDbEntity
  8
1
  6
Continuous
 62
     7
100
AcDbLine
 10
269.182108
 20
222.6339439999999
 30
0.0
 11
269.20671
 21
222.6491999999999
 31
0.0
  0
LINE
  5
43F
330
1E
100
AcDbEntity
  8
1
  6
Continuous
 62
     7
100
AcDbLine
 10
269.20671
 20
222.6491999999999
 30
0.0
 11
269.230347
 21
222.6652009999999
 31
0.0
  0
LINE
  5
440
330
1E
100
AcDbEntity
  8
1
  6
Continuous
 62
     7
100
AcDbLine
 10
269.230347
 20
222.6652009999999
 30
0.0
 11
269.2529749999999
 21
222.681915
 31
0.0
  0
LINE
  5
441
330
1E
100
AcDbEntity
  8
1
  6
Continuous
 62
     7
100
AcDbLine
 10
269.2529749999999
 20
222.681915
 30
0.0
 11
269.2745509999999
 21
222.6993109999999
 31
0.0
  0
LINE
  5
442
330
1E
100
AcDbEntity
  8
1
  6
Continuous
 62
     7
100
AcDbLine
 10
269.2745509999999
 20
222.6993109999999
 30
0.0
 11
269.295032
 21
222.717356
 31
0.0
  0
LINE
  5
443
330
1E
100
AcDbEntity
  8
1
  6
Continuous
 62
     7
100
AcDbLine
 10
269.295032
 20
222.717356
 30
0.0
 11
269.314381
 21
222.7360159999999
 31
0.0
  0
LINE
  5
444
330
1E
100
AcDbEntity
  8
1
  6
Continuous
 62
     7
100
AcDbLine
 10
269.314381
 20
222.7360159999999
 30
0.0
 11
269.332561
 21
222.755254
 31
0.0
  0
LINE
  5
445
330
1E
100
AcDbEntity
  8
1
  6
Continuous
 62
     7
100
AcDbLine
 10
269.332561
 20
222.755254
 30
0.0
 11
269.349536
 21
222.7750359999999
 31
0.0
  0
LINE
  5
446
330
1E
100
AcDbEntity
  8
1
  6
Continuous
 62
     7
100
AcDbLine
 10
269.349536
 20
222.7750359999999
 30
0.0
 11
269.365275
 21
222.7953209999999
 31
0.0
  0
LINE
  5
447
330
1E
100
AcDbEntity
  8
1
  6
Continuous
 62
     7
100
AcDbLine
 10
269.365275
 20
222.7953209999999
 30
0.0
 11
269.379748
 21
222.8160729999999
 31
0.0
  0
LINE
  5
448
330
1E
100
AcDbEntity
  8
1
  6
Continuous
 62
     7
100
AcDbLine
 10
269.379748
 20
222.8160729999999
 30
0.0
 11
269.3929269999999
 21
222.837252
 31
0.0
  0
LINE
  5
449
330
1E
100
AcDbEntity
  8
1
  6
Continuous
 62
     7
100
AcDbLine
 10
269.3929269999999
 20
222.837252
 30
0.0
 11
269.4047869999999
 21
222.858817
 31
0.0
  0
LINE
  5
44A
330
1E
100
AcDbEntity
  8
1
  6
Continuous
 62
     7
100
AcDbLine
 10
269.4047869999999
 20
222.858817
 30
0.0
 11
269.415305
 21
222.880727
 31
0.0
  0
LINE
  5
44B
330
1E
100
AcDbEntity
  8
1
  6
Continuous
 62
     7
100
AcDbLine
 10
269.415305
 20
222.880727
 30
0.0
 11
269.424462
 21
222.902941
 31
0.0
  0
LINE
  5
44C
330
1E
100
AcDbEntity
  8
1
  6
Continuous
 62
     7
100
AcDbLine
 10
269.424462
 20
222.902941
 30
0.0
 11
269.432239
 21
222.9254159999999
 31
0.0
  0
LINE
  5
44D
330
1E
100
AcDbEntity
  8
1
  6
Continuous
 62
     7
100
AcDbLine
 10
269.432239
 20
222.9254159999999
 30
0.0
 11
269.438623
 21
222.94811
 31
0.0
  0
LINE
  5
44E
330
1E
100
AcDbEntity
  8
1
  6
Continuous
 62
     7
100
AcDbLine
 10
269.438623
 20
222.94811
 30
0.0
 11
269.4436009999999
 21
222.970979
 31
0.0
  0
LINE
  5
44F
330
1E
100
AcDbEntity
  8
1
  6
Continuous
 62
     7
100
AcDbLine
 10
269.4436009999999
 20
222.970979
 30
0.0
 11
269.4471629999999
 21
222.9939789999999
 31
0.0
  0
LINE
  5
450
330
1E
100
AcDbEntity
  8
1
  6
Continuous
 62
     7
100
AcDbLine
 10
269.4471629999999
 20
222.9939789999999
 30
0.0
 11
269.4493029999999
 21
223.017068
 31
0.0
  0
LINE
  5
451
330
1E
100
AcDbEntity
  8
1
  6
Continuous
 62
     7
100
AcDbLine
 10
269.4493029999999
 20
223.017068
 30
0.0
 11
269.4500169999999
 21
223.0402009999999
 31
0.0
  0
LINE
  5
452
330
1E
100
AcDbEntity
  8
1
  6
Continuous
 62
     7
100
AcDbLine
 10
269.4500169999999
 20
223.6475749999999
 30
0.0
 11
269.4493029999999
 21
223.670707
 31
0.0
  0
LINE
  5
453
330
1E
100
AcDbEntity
  8
1
  6
Continuous
 62
     7
100
AcDbLine
 10
269.4493029999999
 20
223.670707
 30
0.0
 11
269.4471629999999
 21
223.693796
 31
0.0
  0
LINE
  5
454
330
1E
100
AcDbEntity
  8
1
  6
Continuous
 62
     7
100
AcDbLine
 10
269.4471629999999
 20
223.693796
 30
0.0
 11
269.4436009999999
 21
223.7167959999999
 31
0.0
  0
LINE
  5
455
330
1E
100
AcDbEntity
  8
1
  6
Continuous
 62
     7
100
AcDbLine
 10
269.4436009999999
 20
223.7167959999999
 30
0.0
 11
269.438623
 21
223.7396649999999
 31
0.0
  0
LINE
  5
456
330
1E
100
AcDbEntity
  8
1
  6
Continuous
 62
     7
100
AcDbLine
 10
269.438623
 20
223.7396649999999
 30
0.0
 11
269.432239
 21
223.7623589999999
 31
0.0
  0
LINE
  5
457
330
1E
100
AcDbEntity
  8
1
  6
Continuous
 62
     7
100
AcDbLine
 10
269.432239
 20
223.7623589999999
 30
0.0
 11
269.424461
 21
223.7848339999999
 31
0.0
  0
LINE
  5
458
330
1E
100
AcDbEntity
  8
1
  6
Continuous
 62
     7
100
AcDbLine
 10
269.424461
 20
223.7848339999999
 30
0.0
 11
269.415305
 21
223.807048
 31
0.0
  0
LINE
  5
459
330
1E
100
AcDbEntity
  8
1
  6
Continuous
 62
     7
100
AcDbLine
 10
269.415305
 20
223.807048
 30
0.0
 11
269.4047869999999
 21
223.828958
 31
0.0
  0
LINE
  5
45A
330
1E
100
AcDbEntity
  8
1
  6
Continuous
 62
     7
100
AcDbLine
 10
269.4047869999999
 20
223.828958
 30
0.0
 11
269.3929269999999
 21
223.850523
 31
0.0
  0
LINE
  5
45B
330
1E
100
AcDbEntity
  8
1
  6
Continuous
 62
     7
100
AcDbLine
 10
269.3929269999999
 20
223.850523
 30
0.0
 11
269.379748
 21
223.871702
 31
0.0
  0
LINE
  5
45C
330
1E
100
AcDbEntity
  8
1
  6
Continuous
 62
     7
100
AcDbLine
 10
269.379748
 20
223.871702
 30
0.0
 11
269.365275
 21
223.892454
 31
0.0
  0
LINE
  5
45D
330
1E
100
AcDbEntity
  8
1
  6
Continuous
 62
     7
100
AcDbLine
 10
269.365275
 20
223.892454
 30
0.0
 11
269.349536
 21
223.912739
 31
0.0
  0
LINE
  5
45E
330
1E
100
AcDbEntity
  8
1
  6
Continuous
 62
     7
100
AcDbLine
 10
269.349536
 20
223.912739
 30
0.0
 11
269.332561
 21
223.93252
 31
0.0
  0
LINE
  5
45F
330
1E
100
AcDbEntity
  8
1
  6
Continuous
 62
     7
100
AcDbLine
 10
269.332561
 20
223.93252
 30
0.0
 11
269.314381
 21
223.9517589999999
 31
0.0
  0
LINE
  5
460
330
1E
100
AcDbEntity
  8
1
  6
Continuous
 62
     7
100
AcDbLine
 10
269.314381
 20
223.9517589999999
 30
0.0
 11
269.295032
 21
223.9704189999999
 31
0.0
  0
LINE
  5
461
330
1E
100
AcDbEntity
  8
1
  6
Continuous
 62
     7
100
AcDbLine
 10
269.295032
 20
223.9704189999999
 30
0.0
 11
269.27455
 21
223.988464
 31
0.0
  0
LINE
  5
462
330
1E
100
AcDbEntity
  8
1
  6
Continuous
 62
     7
100
AcDbLine
 10
269.27455
 20
223.988464
 30
0.0
 11
269.2529749999999
 21
224.00586
 31
0.0
  0
LINE
  5
463
330
1E
100
AcDbEntity
  8
1
  6
Continuous
 62
     7
100
AcDbLine
 10
269.2529749999999
 20
224.00586
 30
0.0
 11
269.230347
 21
224.022574
 31
0.0
  0
LINE
  5
464
330
1E
100
AcDbEntity
  8
1
  6
Continuous
 62
     7
100
AcDbLine
 10
269.230347
 20
224.022574
 30
0.0
 11
269.20671
 21
224.038575
 31
0.0
  0
LINE
  5
465
330
1E
100
AcDbEntity
  8
1
  6
Continuous
 62
     7
100
AcDbLine
 10
269.20671
 20
224.038575
 30
0.0
 11
269.182108
 21
224.053831
 31
0.0
  0
LINE
  5
466
330
1E
100
AcDbEntity
  8
1
  6
Continuous
 62
     7
100
AcDbLine
 10
269.182108
 20
224.053831
 30
0.0
 11
269.156588
 21
224.0683129999999
 31
0.0
  0
LINE
  5
467
330
1E
100
AcDbEntity
  8
1
  6
Continuous
 62
     7
100
AcDbLine
 10
269.156588
 20
224.0683129999999
 30
0.0
 11
269.1301989999999
 21
224.081995
 31
0.0
  0
LINE
  5
468
330
1E
100
AcDbEntity
  8
1
  6
Continuous
 62
     7
100
AcDbLine
 10
269.1301989999999
 20
224.081995
 30
0.0
 11
269.1029919999999
 21
224.09485
 31
0.0
  0
LINE
  5
469
330
1E
100
AcDbEntity
  8
1
  6
Continuous
 62
     7
100
AcDbLine
 10
269.1029919999999
 20
224.09485
 30
0.0
 11
269.075017
 21
224.1068529999999
 31
0.0
  0
LINE
  5
46A
330
1E
100
AcDbEntity
  8
1
  6
Continuous
 62
     7
100
AcDbLine
 10
269.075017
 20
224.1068529999999
 30
0.0
 11
269.046329
 21
224.117983
 31
0.0
  0
LINE
  5
46B
330
1E
100
AcDbEntity
  8
1
  6
Continuous
 62
     7
100
AcDbLine
 10
269.046329
 20
224.117983
 30
0.0
 11
269.0169809999999
 21
224.128216
 31
0.0
  0
LINE
  5
46C
330
1E
100
AcDbEntity
  8
1
  6
Continuous
 62
     7
100
AcDbLine
 10
269.0169809999999
 20
224.128216
 30
0.0
 11
268.9870299999999
 21
224.137535
 31
0.0
  0
LINE
  5
46D
330
1E
100
AcDbEntity
  8
1
  6
Continuous
 62
     7
100
AcDbLine
 10
268.9870299999999
 20
224.137535
 30
0.0
 11
268.9565319999999
 21
224.1459209999999
 31
0.0
  0
LINE
  5
46E
330
1E
100
AcDbEntity
  8
1
  6
Continuous
 62
     7
100
AcDbLine
 10
268.9565319999999
 20
224.1459209999999
 30
0.0
 11
268.925546
 21
224.1533589999999
 31
0.0
  0
LINE
  5
46F
330
1E
100
AcDbEntity
  8
1
  6
Continuous
 62
     7
100
AcDbLine
 10
268.925546
 20
224.1533589999999
 30
0.0
 11
268.894131
 21
224.1598339999999
 31
0.0
  0
LINE
  5
470
330
1E
100
AcDbEntity
  8
1
  6
Continuous
 62
     7
100
AcDbLine
 10
268.894131
 20
224.1598339999999
 30
0.0
 11
268.862347
 21
224.165333
 31
0.0
  0
LINE
  5
471
330
1E
100
AcDbEntity
  8
1
  6
Continuous
 62
     7
100
AcDbLine
 10
268.862347
 20
224.165333
 30
0.0
 11
268.8302529999999
 21
224.169847
 31
0.0
  0
LINE
  5
472
330
1E
100
AcDbEntity
  8
1
  6
Continuous
 62
     7
100
AcDbLine
 10
268.8302529999999
 20
224.169847
 30
0.0
 11
268.797912
 21
224.1733669999999
 31
0.0
  0
LINE
  5
473
330
1E
100
AcDbEntity
  8
1
  6
Continuous
 62
     7
100
AcDbLine
 10
268.797912
 20
224.1733669999999
 30
0.0
 11
268.7653839999999
 21
224.175886
 31
0.0
  0
LINE
  5
474
330
1E
100
AcDbEntity
  8
1
  6
Continuous
 62
     7
100
AcDbLine
 10
268.7653839999999
 20
224.175886
 30
0.0
 11
268.732732
 21
224.1773989999999
 31
0.0
  0
LINE
  5
475
330
1E
100
AcDbEntity
  8
1
  6
Continuous
 62
     7
100
AcDbLine
 10
268.732732
 20
224.1773989999999
 30
0.0
 11
268.700017
 21
224.177904
 31
0.0
  0
LINE
  5
476
330
1E
100
AcDbEntity
  8
1
  6
Continuous
 62
     7
100
AcDbLine
 10
268.700017
 20
224.177904
 30
0.0
 11
268.667303
 21
224.1773989999999
 31
0.0
  0
LINE
  5
477
330
1E
100
AcDbEntity
  8
1
  6
Continuous
 62
     7
100
AcDbLine
 10
268.667303
 20
224.1773989999999
 30
0.0
 11
268.63465
 21
224.175886
 31
0.0
  0
LINE
  5
478
330
1E
100
AcDbEntity
  8
1
  6
Continuous
 62
     7
100
AcDbLine
 10
268.63465
 20
224.175886
 30
0.0
 11
268.602122
 21
224.1733669999999
 31
0.0
  0
LINE
  5
479
330
1E
100
AcDbEntity
  8
1
  6
Continuous
 62
     7
100
AcDbLine
 10
268.602122
 20
224.1733669999999
 30
0.0
 11
268.5697809999999
 21
224.169847
 31
0.0
  0
LINE
  5
47A
330
1E
100
AcDbEntity
  8
1
  6
Continuous
 62
     7
100
AcDbLine
 10
268.5697809999999
 20
224.169847
 30
0.0
 11
268.537687
 21
224.165333
 31
0.0
  0
LINE
  5
47B
330
1E
100
AcDbEntity
  8
1
  6
Continuous
 62
     7
100
AcDbLine
 10
268.537687
 20
224.165333
 30
0.0
 11
268.505903
 21
224.159833
 31
0.0
  0
LINE
  5
47C
330
1E
100
AcDbEntity
  8
1
  6
Continuous
 62
     7
100
AcDbLine
 10
268.505903
 20
224.159833
 30
0.0
 11
268.474488
 21
224.1533589999999
 31
0.0
  0
LINE
  5
47D
330
1E
100
AcDbEntity
  8
1
  6
Continuous
 62
     7
100
AcDbLine
 10
268.474488
 20
224.1533589999999
 30
0.0
 11
268.443502
 21
224.1459209999999
 31
0.0
  0
LINE
  5
47E
330
1E
100
AcDbEntity
  8
1
  6
Continuous
 62
     7
100
AcDbLine
 10
268.443502
 20
224.1459209999999
 30
0.0
 11
268.4130039999999
 21
224.137535
 31
0.0
  0
LINE
  5
47F
330
1E
100
AcDbEntity
  8
1
  6
Continuous
 62
     7
100
AcDbLine
 10
268.4130039999999
 20
224.137535
 30
0.0
 11
268.3830529999999
 21
224.128216
 31
0.0
  0
LINE
  5
480
330
1E
100
AcDbEntity
  8
1
  6
Continuous
 62
     7
100
AcDbLine
 10
268.3830529999999
 20
224.128216
 30
0.0
 11
268.3537059999999
 21
224.1179819999999
 31
0.0
  0
LINE
  5
481
330
1E
100
AcDbEntity
  8
1
  6
Continuous
 62
     7
100
AcDbLine
 10
268.3537059999999
 20
224.1179819999999
 30
0.0
 11
268.3250169999999
 21
224.1068529999999
 31
0.0
  0
LINE
  5
482
330
1E
100
AcDbEntity
  8
1
  6
Continuous
 62
     7
100
AcDbLine
 10
268.3250169999999
 20
224.1068529999999
 30
0.0
 11
268.2970419999999
 21
224.09485
 31
0.0
  0
LINE
  5
483
330
1E
100
AcDbEntity
  8
1
  6
Continuous
 62
     7
100
AcDbLine
 10
268.2970419999999
 20
224.09485
 30
0.0
 11
268.2698349999999
 21
224.081995
 31
0.0
  0
LINE
  5
484
330
1E
100
AcDbEntity
  8
1
  6
Continuous
 62
     7
100
AcDbLine
 10
268.2698349999999
 20
224.081995
 30
0.0
 11
268.243446
 21
224.0683129999999
 31
0.0
  0
LINE
  5
485
330
1E
100
AcDbEntity
  8
1
  6
Continuous
 62
     7
100
AcDbLine
 10
268.243446
 20
224.0683129999999
 30
0.0
 11
268.2179259999999
 21
224.0538299999999
 31
0.0
  0
LINE
  5
486
330
1E
100
AcDbEntity
  8
1
  6
Continuous
 62
     7
100
AcDbLine
 10
268.2179259999999
 20
224.0538299999999
 30
0.0
 11
268.193324
 21
224.038574
 31
0.0
  0
LINE
  5
487
330
1E
100
AcDbEntity
  8
1
  6
Continuous
 62
     7
100
AcDbLine
 10
268.193324
 20
224.038574
 30
0.0
 11
268.169687
 21
224.022574
 31
0.0
  0
LINE
  5
488
330
1E
100
AcDbEntity
  8
1
  6
Continuous
 62
     7
100
AcDbLine
 10
268.169687
 20
224.022574
 30
0.0
 11
268.1470589999999
 21
224.00586
 31
0.0
  0
LINE
  5
489
330
1E
100
AcDbEntity
  8
1
  6
Continuous
 62
     7
100
AcDbLine
 10
268.1470589999999
 20
224.00586
 30
0.0
 11
268.1254839999999
 21
223.988464
 31
0.0
  0
LINE
  5
48A
330
1E
100
AcDbEntity
  8
1
  6
Continuous
 62
     7
100
AcDbLine
 10
268.1254839999999
 20
223.988464
 30
0.0
 11
268.105002
 21
223.9704189999999
 31
0.0
  0
LINE
  5
48B
330
1E
100
AcDbEntity
  8
1
  6
Continuous
 62
     7
100
AcDbLine
 10
268.105002
 20
223.9704189999999
 30
0.0
 11
268.0856529999999
 21
223.9517589999999
 31
0.0
  0
LINE
  5
48C
330
1E
100
AcDbEntity
  8
1
  6
Continuous
 62
     7
100
AcDbLine
 10
268.0856529999999
 20
223.9517589999999
 30
0.0
 11
268.067473
 21
223.93252
 31
0.0
  0
LINE
  5
48D
330
1E
100
AcDbEntity
  8
1
  6
Continuous
 62
     7
100
AcDbLine
 10
268.067473
 20
223.93252
 30
0.0
 11
268.050498
 21
223.912739
 31
0.0
  0
LINE
  5
48E
330
1E
100
AcDbEntity
  8
1
  6
Continuous
 62
     7
100
AcDbLine
 10
268.050498
 20
223.912739
 30
0.0
 11
268.034759
 21
223.8924529999999
 31
0.0
  0
LINE
  5
48F
330
1E
100
AcDbEntity
  8
1
  6
Continuous
 62
     7
100
AcDbLine
 10
268.034759
 20
223.8924529999999
 30
0.0
 11
268.020286
 21
223.8717009999999
 31
0.0
  0
LINE
  5
490
330
1E
100
AcDbEntity
  8
1
  6
Continuous
 62
     7
100
AcDbLine
 10
268.020286
 20
223.8717009999999
 30
0.0
 11
268.0071069999999
 21
223.850523
 31
0.0
  0
LINE
  5
491
330
1E
100
AcDbEntity
  8
1
  6
Continuous
 62
     7
100
AcDbLine
 10
268.0071069999999
 20
223.850523
 30
0.0
 11
267.995248
 21
223.828958
 31
0.0
  0
LINE
  5
492
330
1E
100
AcDbEntity
  8
1
  6
Continuous
 62
     7
100
AcDbLine
 10
267.995248
 20
223.828958
 30
0.0
 11
267.984729
 21
223.807048
 31
0.0
  0
LINE
  5
493
330
1E
100
AcDbEntity
  8
1
  6
Continuous
 62
     7
100
AcDbLine
 10
267.984729
 20
223.807048
 30
0.0
 11
267.975573
 21
223.7848339999999
 31
0.0
  0
LINE
  5
494
330
1E
100
AcDbEntity
  8
1
  6
Continuous
 62
     7
100
AcDbLine
 10
267.975573
 20
223.7848339999999
 30
0.0
 11
267.967795
 21
223.7623589999999
 31
0.0
  0
LINE
  5
495
330
1E
100
AcDbEntity
  8
1
  6
Continuous
 62
     7
100
AcDbLine
 10
267.967795
 20
223.7623589999999
 30
0.0
 11
267.961411
 21
223.7396649999999
 31
0.0
  0
LINE
  5
496
330
1E
100
AcDbEntity
  8
1
  6
Continuous
 62
     7
100
AcDbLine
 10
267.961411
 20
223.7396649999999
 30
0.0
 11
267.956433
 21
223.7167959999999
 31
0.0
  0
LINE
  5
497
330
1E
100
AcDbEntity
  8
1
  6
Continuous
 62
     7
100
AcDbLine
 10
267.956433
 20
223.7167959999999
 30
0.0
 11
267.952871
 21
223.693796
 31
0.0
  0
LINE
  5
498
330
1E
100
AcDbEntity
  8
1
  6
Continuous
 62
     7
100
AcDbLine
 10
267.952871
 20
223.693796
 30
0.0
 11
267.950731
 21
223.670707
 31
0.0
  0
LINE
  5
499
330
1E
100
AcDbEntity
  8
1
  6
Continuous
 62
     7
100
AcDbLine
 10
267.950731
 20
223.670707
 30
0.0
 11
267.950017
 21
223.647574
 31
0.0
  0
LINE
  5
49A
330
1E
100
AcDbEntity
  8
1
  6
Continuous
 62
     7
100
AcDbLine
 10
267.950017
 20
223.040203
 30
0.0
 11
267.950017
 21
223.647574
 31
0.0
  0
LINE
  5
49B
330
1E
100
AcDbEntity
  8
1
  6
Continuous
 62
     7
100
AcDbLine
 10
269.4500169999999
 20
223.040203
 30
0.0
 11
269.4500169999999
 21
223.64758
 31
0.0
  0
LINE
  5
49C
330
1E
100
AcDbEntity
  8
1
  6
Continuous
 62
     7
100
AcDbLine
 10
407.299999
 20
222.1999999999999
 30
0.0
 11
407.299999
 21
231.8
 31
0.0
  0
LINE
  5
49D
330
1E
100
AcDbEntity
  8
1
  6
Continuous
 62
     7
100
AcDbLine
 10
407.299999
 20
231.8
 30
0.0
 11
419.9999969999999
 21
231.8
 31
0.0
  0
LINE
  5
49E
330
1E
100
AcDbEntity
  8
1
  6
Continuous
 62
     7
100
AcDbLine
 10
410.549997
 20
230.9598
 30
0.0
 11
410.549997
 21
230.959799
 31
0.0
  0
LINE
  5
49F
330
1E
100
AcDbEntity
  8
1
  6
Continuous
 62
     7
100
AcDbLine
 10
410.549997
 20
230.959799
 30
0.0
 11
410.5507109999999
 21
230.936667
 31
0.0
  0
LINE
  5
4A0
330
1E
100
AcDbEntity
  8
1
  6
Continuous
 62
     7
100
AcDbLine
 10
410.5507109999999
 20
230.936667
 30
0.0
 11
410.552851
 21
230.9135779999999
 31
0.0
  0
LINE
  5
4A1
330
1E
100
AcDbEntity
  8
1
  6
Continuous
 62
     7
100
AcDbLine
 10
410.552851
 20
230.9135779999999
 30
0.0
 11
410.556414
 21
230.8905779999999
 31
0.0
  0
LINE
  5
4A2
330
1E
100
AcDbEntity
  8
1
  6
Continuous
 62
     7
100
AcDbLine
 10
410.556414
 20
230.8905779999999
 30
0.0
 11
410.561391
 21
230.8677089999999
 31
0.0
  0
LINE
  5
4A3
330
1E
100
AcDbEntity
  8
1
  6
Continuous
 62
     7
100
AcDbLine
 10
410.561391
 20
230.8677089999999
 30
0.0
 11
410.5677749999999
 21
230.845015
 31
0.0
  0
LINE
  5
4A4
330
1E
100
AcDbEntity
  8
1
  6
Continuous
 62
     7
100
AcDbLine
 10
410.5677749999999
 20
230.845015
 30
0.0
 11
410.5755529999999
 21
230.8225399999999
 31
0.0
  0
LINE
  5
4A5
330
1E
100
AcDbEntity
  8
1
  6
Continuous
 62
     7
100
AcDbLine
 10
410.5755529999999
 20
230.8225399999999
 30
0.0
 11
410.58471
 21
230.800326
 31
0.0
  0
LINE
  5
4A6
330
1E
100
AcDbEntity
  8
1
  6
Continuous
 62
     7
100
AcDbLine
 10
410.58471
 20
230.800326
 30
0.0
 11
410.5952279999999
 21
230.778416
 31
0.0
  0
LINE
  5
4A7
330
1E
100
AcDbEntity
  8
1
  6
Continuous
 62
     7
100
AcDbLine
 10
410.5952279999999
 20
230.778416
 30
0.0
 11
410.6070879999999
 21
230.7568509999999
 31
0.0
  0
LINE
  5
4A8
330
1E
100
AcDbEntity
  8
1
  6
Continuous
 62
     7
100
AcDbLine
 10
410.6070879999999
 20
230.7568509999999
 30
0.0
 11
410.620266
 21
230.7356729999999
 31
0.0
  0
LINE
  5
4A9
330
1E
100
AcDbEntity
  8
1
  6
Continuous
 62
     7
100
AcDbLine
 10
410.620266
 20
230.7356729999999
 30
0.0
 11
410.634739
 21
230.7149209999999
 31
0.0
  0
LINE
  5
4AA
330
1E
100
AcDbEntity
  8
1
  6
Continuous
 62
     7
100
AcDbLine
 10
410.634739
 20
230.7149209999999
 30
0.0
 11
410.6504779999999
 21
230.694635
 31
0.0
  0
LINE
  5
4AB
330
1E
100
AcDbEntity
  8
1
  6
Continuous
 62
     7
100
AcDbLine
 10
410.6504779999999
 20
230.694635
 30
0.0
 11
410.667454
 21
230.674854
 31
0.0
  0
LINE
  5
4AC
330
1E
100
AcDbEntity
  8
1
  6
Continuous
 62
     7
100
AcDbLine
 10
410.667454
 20
230.674854
 30
0.0
 11
410.685633
 21
230.655615
 31
0.0
  0
LINE
  5
4AD
330
1E
100
AcDbEntity
  8
1
  6
Continuous
 62
     7
100
AcDbLine
 10
410.685633
 20
230.655615
 30
0.0
 11
410.7049819999999
 21
230.6369549999999
 31
0.0
  0
LINE
  5
4AE
330
1E
100
AcDbEntity
  8
1
  6
Continuous
 62
     7
100
AcDbLine
 10
410.7049819999999
 20
230.6369549999999
 30
0.0
 11
410.7254639999999
 21
230.61891
 31
0.0
  0
LINE
  5
4AF
330
1E
100
AcDbEntity
  8
1
  6
Continuous
 62
     7
100
AcDbLine
 10
410.7254639999999
 20
230.61891
 30
0.0
 11
410.747039
 21
230.6015139999999
 31
0.0
  0
LINE
  5
4B0
330
1E
100
AcDbEntity
  8
1
  6
Continuous
 62
     7
100
AcDbLine
 10
410.747039
 20
230.6015139999999
 30
0.0
 11
410.769667
 21
230.5848
 31
0.0
  0
LINE
  5
4B1
330
1E
100
AcDbEntity
  8
1
  6
Continuous
 62
     7
100
AcDbLine
 10
410.769667
 20
230.5848
 30
0.0
 11
410.7933049999999
 21
230.5687999999999
 31
0.0
  0
LINE
  5
4B2
330
1E
100
AcDbEntity
  8
1
  6
Continuous
 62
     7
100
AcDbLine
 10
410.7933049999999
 20
230.5687999999999
 30
0.0
 11
410.817907
 21
230.553543
 31
0.0
  0
LINE
  5
4B3
330
1E
100
AcDbEntity
  8
1
  6
Continuous
 62
     7
100
AcDbLine
 10
410.817907
 20
230.553543
 30
0.0
 11
410.843426
 21
230.5390609999999
 31
0.0
  0
LINE
  5
4B4
330
1E
100
AcDbEntity
  8
1
  6
Continuous
 62
     7
100
AcDbLine
 10
410.843426
 20
230.5390609999999
 30
0.0
 11
410.869815
 21
230.525379
 31
0.0
  0
LINE
  5
4B5
330
1E
100
AcDbEntity
  8
1
  6
Continuous
 62
     7
100
AcDbLine
 10
410.869815
 20
230.525379
 30
0.0
 11
410.8970229999999
 21
230.512524
 31
0.0
  0
LINE
  5
4B6
330
1E
100
AcDbEntity
  8
1
  6
Continuous
 62
     7
100
AcDbLine
 10
410.8970229999999
 20
230.512524
 30
0.0
 11
410.924997
 21
230.500521
 31
0.0
  0
LINE
  5
4B7
330
1E
100
AcDbEntity
  8
1
  6
Continuous
 62
     7
100
AcDbLine
 10
410.924997
 20
230.500521
 30
0.0
 11
410.953686
 21
230.489391
 31
0.0
  0
LINE
  5
4B8
330
1E
100
AcDbEntity
  8
1
  6
Continuous
 62
     7
100
AcDbLine
 10
410.953686
 20
230.489391
 30
0.0
 11
410.983034
 21
230.479158
 31
0.0
  0
LINE
  5
4B9
330
1E
100
AcDbEntity
  8
1
  6
Continuous
 62
     7
100
AcDbLine
 10
410.983034
 20
230.479158
 30
0.0
 11
411.0129849999999
 21
230.4698389999999
 31
0.0
  0
LINE
  5
4BA
330
1E
100
AcDbEntity
  8
1
  6
Continuous
 62
     7
100
AcDbLine
 10
411.0129849999999
 20
230.4698389999999
 30
0.0
 11
411.043482
 21
230.4614529999999
 31
0.0
  0
LINE
  5
4BB
330
1E
100
AcDbEntity
  8
1
  6
Continuous
 62
     7
100
AcDbLine
 10
411.043482
 20
230.4614529999999
 30
0.0
 11
411.074468
 21
230.454015
 31
0.0
  0
LINE
  5
4BC
330
1E
100
AcDbEntity
  8
1
  6
Continuous
 62
     7
100
AcDbLine
 10
411.074468
 20
230.454015
 30
0.0
 11
411.105883
 21
230.447541
 31
0.0
  0
LINE
  5
4BD
330
1E
100
AcDbEntity
  8
1
  6
Continuous
 62
     7
100
AcDbLine
 10
411.105883
 20
230.447541
 30
0.0
 11
411.137668
 21
230.442041
 31
0.0
  0
LINE
  5
4BE
330
1E
100
AcDbEntity
  8
1
  6
Continuous
 62
     7
100
AcDbLine
 10
411.137668
 20
230.442041
 30
0.0
 11
411.169761
 21
230.4375269999999
 31
0.0
  0
LINE
  5
4BF
330
1E
100
AcDbEntity
  8
1
  6
Continuous
 62
     7
100
AcDbLine
 10
411.169761
 20
230.4375269999999
 30
0.0
 11
411.2021029999999
 21
230.4340069999999
 31
0.0
  0
LINE
  5
4C0
330
1E
100
AcDbEntity
  8
1
  6
Continuous
 62
     7
100
AcDbLine
 10
411.2021029999999
 20
230.4340069999999
 30
0.0
 11
411.2346299999999
 21
230.431488
 31
0.0
  0
LINE
  5
4C1
330
1E
100
AcDbEntity
  8
1
  6
Continuous
 62
     7
100
AcDbLine
 10
411.2346299999999
 20
230.431488
 30
0.0
 11
411.267283
 21
230.429975
 31
0.0
  0
LINE
  5
4C2
330
1E
100
AcDbEntity
  8
1
  6
Continuous
 62
     7
100
AcDbLine
 10
411.267283
 20
230.429975
 30
0.0
 11
411.299997
 21
230.42947
 31
0.0
  0
LINE
  5
4C3
330
1E
100
AcDbEntity
  8
1
  6
Continuous
 62
     7
100
AcDbLine
 10
411.299997
 20
230.42947
 30
0.0
 11
411.332712
 21
230.429975
 31
0.0
  0
LINE
  5
4C4
330
1E
100
AcDbEntity
  8
1
  6
Continuous
 62
     7
100
AcDbLine
 10
411.332712
 20
230.429975
 30
0.0
 11
411.3653639999999
 21
230.431488
 31
0.0
  0
LINE
  5
4C5
330
1E
100
AcDbEntity
  8
1
  6
Continuous
 62
     7
100
AcDbLine
 10
411.3653639999999
 20
230.431488
 30
0.0
 11
411.397892
 21
230.4340069999999
 31
0.0
  0
LINE
  5
4C6
330
1E
100
AcDbEntity
  8
1
  6
Continuous
 62
     7
100
AcDbLine
 10
411.397892
 20
230.4340069999999
 30
0.0
 11
411.430233
 21
230.4375269999999
 31
0.0
  0
LINE
  5
4C7
330
1E
100
AcDbEntity
  8
1
  6
Continuous
 62
     7
100
AcDbLine
 10
411.430233
 20
230.4375269999999
 30
0.0
 11
411.462327
 21
230.442041
 31
0.0
  0
LINE
  5
4C8
330
1E
100
AcDbEntity
  8
1
  6
Continuous
 62
     7
100
AcDbLine
 10
411.462327
 20
230.442041
 30
0.0
 11
411.494112
 21
230.447541
 31
0.0
  0
LINE
  5
4C9
330
1E
100
AcDbEntity
  8
1
  6
Continuous
 62
     7
100
AcDbLine
 10
411.494112
 20
230.447541
 30
0.0
 11
411.525527
 21
230.454015
 31
0.0
  0
LINE
  5
4CA
330
1E
100
AcDbEntity
  8
1
  6
Continuous
 62
     7
100
AcDbLine
 10
411.525527
 20
230.454015
 30
0.0
 11
411.556512
 21
230.4614529999999
 31
0.0
  0
LINE
  5
4CB
330
1E
100
AcDbEntity
  8
1
  6
Continuous
 62
     7
100
AcDbLine
 10
411.556512
 20
230.4614529999999
 30
0.0
 11
411.58701
 21
230.4698389999999
 31
0.0
  0
LINE
  5
4CC
330
1E
100
AcDbEntity
  8
1
  6
Continuous
 62
     7
100
AcDbLine
 10
411.58701
 20
230.4698389999999
 30
0.0
 11
411.616961
 21
230.479158
 31
0.0
  0
LINE
  5
4CD
330
1E
100
AcDbEntity
  8
1
  6
Continuous
 62
     7
100
AcDbLine
 10
411.616961
 20
230.479158
 30
0.0
 11
411.6463089999999
 21
230.489392
 31
0.0
  0
LINE
  5
4CE
330
1E
100
AcDbEntity
  8
1
  6
Continuous
 62
     7
100
AcDbLine
 10
411.6463089999999
 20
230.489392
 30
0.0
 11
411.6749969999999
 21
230.500521
 31
0.0
  0
LINE
  5
4CF
330
1E
100
AcDbEntity
  8
1
  6
Continuous
 62
     7
100
AcDbLine
 10
411.6749969999999
 20
230.500521
 30
0.0
 11
411.702972
 21
230.512524
 31
0.0
  0
LINE
  5
4D0
330
1E
100
AcDbEntity
  8
1
  6
Continuous
 62
     7
100
AcDbLine
 10
411.702972
 20
230.512524
 30
0.0
 11
411.7301799999999
 21
230.525379
 31
0.0
  0
LINE
  5
4D1
330
1E
100
AcDbEntity
  8
1
  6
Continuous
 62
     7
100
AcDbLine
 10
411.7301799999999
 20
230.525379
 30
0.0
 11
411.756568
 21
230.5390609999999
 31
0.0
  0
LINE
  5
4D2
330
1E
100
AcDbEntity
  8
1
  6
Continuous
 62
     7
100
AcDbLine
 10
411.756568
 20
230.5390609999999
 30
0.0
 11
411.782088
 21
230.5535439999999
 31
0.0
  0
LINE
  5
4D3
330
1E
100
AcDbEntity
  8
1
  6
Continuous
 62
     7
100
AcDbLine
 10
411.782088
 20
230.5535439999999
 30
0.0
 11
411.80669
 21
230.5687999999999
 31
0.0
  0
LINE
  5
4D4
330
1E
100
AcDbEntity
  8
1
  6
Continuous
 62
     7
100
AcDbLine
 10
411.80669
 20
230.5687999999999
 30
0.0
 11
411.830327
 21
230.5848
 31
0.0
  0
LINE
  5
4D5
330
1E
100
AcDbEntity
  8
1
  6
Continuous
 62
     7
100
AcDbLine
 10
411.830327
 20
230.5848
 30
0.0
 11
411.8529549999999
 21
230.6015139999999
 31
0.0
  0
LINE
  5
4D6
330
1E
100
AcDbEntity
  8
1
  6
Continuous
 62
     7
100
AcDbLine
 10
411.8529549999999
 20
230.6015139999999
 30
0.0
 11
411.8745309999999
 21
230.61891
 31
0.0
  0
LINE
  5
4D7
330
1E
100
AcDbEntity
  8
1
  6
Continuous
 62
     7
100
AcDbLine
 10
411.8745309999999
 20
230.61891
 30
0.0
 11
411.895012
 21
230.6369549999999
 31
0.0
  0
LINE
  5
4D8
330
1E
100
AcDbEntity
  8
1
  6
Continuous
 62
     7
100
AcDbLine
 10
411.895012
 20
230.6369549999999
 30
0.0
 11
411.914361
 21
230.655615
 31
0.0
  0
LINE
  5
4D9
330
1E
100
AcDbEntity
  8
1
  6
Continuous
 62
     7
100
AcDbLine
 10
411.914361
 20
230.655615
 30
0.0
 11
411.932541
 21
230.674854
 31
0.0
  0
LINE
  5
4DA
330
1E
100
AcDbEntity
  8
1
  6
Continuous
 62
     7
100
AcDbLine
 10
411.932541
 20
230.674854
 30
0.0
 11
411.949516
 21
230.694635
 31
0.0
  0
LINE
  5
4DB
330
1E
100
AcDbEntity
  8
1
  6
Continuous
 62
     7
100
AcDbLine
 10
411.949516
 20
230.694635
 30
0.0
 11
411.9652549999999
 21
230.7149209999999
 31
0.0
  0
LINE
  5
4DC
330
1E
100
AcDbEntity
  8
1
  6
Continuous
 62
     7
100
AcDbLine
 10
411.9652549999999
 20
230.7149209999999
 30
0.0
 11
411.9797279999999
 21
230.7356729999999
 31
0.0
  0
LINE
  5
4DD
330
1E
100
AcDbEntity
  8
1
  6
Continuous
 62
     7
100
AcDbLine
 10
411.9797279999999
 20
230.7356729999999
 30
0.0
 11
411.992907
 21
230.7568509999999
 31
0.0
  0
LINE
  5
4DE
330
1E
100
AcDbEntity
  8
1
  6
Continuous
 62
     7
100
AcDbLine
 10
411.992907
 20
230.7568509999999
 30
0.0
 11
412.0047669999999
 21
230.778416
 31
0.0
  0
LINE
  5
4DF
330
1E
100
AcDbEntity
  8
1
  6
Continuous
 62
     7
100
AcDbLine
 10
412.0047669999999
 20
230.778416
 30
0.0
 11
412.015285
 21
230.8003269999999
 31
0.0
  0
LINE
  5
4E0
330
1E
100
AcDbEntity
  8
1
  6
Continuous
 62
     7
100
AcDbLine
 10
412.015285
 20
230.8003269999999
 30
0.0
 11
412.0244419999999
 21
230.8225399999999
 31
0.0
  0
LINE
  5
4E1
330
1E
100
AcDbEntity
  8
1
  6
Continuous
 62
     7
100
AcDbLine
 10
412.0244419999999
 20
230.8225399999999
 30
0.0
 11
412.032219
 21
230.845015
 31
0.0
  0
LINE
  5
4E2
330
1E
100
AcDbEntity
  8
1
  6
Continuous
 62
     7
100
AcDbLine
 10
412.032219
 20
230.845015
 30
0.0
 11
412.0386029999999
 21
230.8677089999999
 31
0.0
  0
LINE
  5
4E3
330
1E
100
AcDbEntity
  8
1
  6
Continuous
 62
     7
100
AcDbLine
 10
412.0386029999999
 20
230.8677089999999
 30
0.0
 11
412.043581
 21
230.8905779999999
 31
0.0
  0
LINE
  5
4E4
330
1E
100
AcDbEntity
  8
1
  6
Continuous
 62
     7
100
AcDbLine
 10
412.043581
 20
230.8905779999999
 30
0.0
 11
412.047143
 21
230.9135779999999
 31
0.0
  0
LINE
  5
4E5
330
1E
100
AcDbEntity
  8
1
  6
Continuous
 62
     7
100
AcDbLine
 10
412.047143
 20
230.9135779999999
 30
0.0
 11
412.0492839999999
 21
230.936667
 31
0.0
  0
LINE
  5
4E6
330
1E
100
AcDbEntity
  8
1
  6
Continuous
 62
     7
100
AcDbLine
 10
412.0492839999999
 20
230.936667
 30
0.0
 11
412.049997
 21
230.9598
 31
0.0
  0
LINE
  5
4E7
330
1E
100
AcDbEntity
  8
1
  6
Continuous
 62
     7
100
AcDbLine
 10
412.049997
 20
230.9598
 30
0.0
 11
412.0492839999999
 21
230.9829319999999
 31
0.0
  0
LINE
  5
4E8
330
1E
100
AcDbEntity
  8
1
  6
Continuous
 62
     7
100
AcDbLine
 10
412.0492839999999
 20
230.9829319999999
 30
0.0
 11
412.047143
 21
231.006021
 31
0.0
  0
LINE
  5
4E9
330
1E
100
AcDbEntity
  8
1
  6
Continuous
 62
     7
100
AcDbLine
 10
412.047143
 20
231.006021
 30
0.0
 11
412.043581
 21
231.029022
 31
0.0
  0
LINE
  5
4EA
330
1E
100
AcDbEntity
  8
1
  6
Continuous
 62
     7
100
AcDbLine
 10
412.043581
 20
231.029022
 30
0.0
 11
412.0386029999999
 21
231.051891
 31
0.0
  0
LINE
  5
4EB
330
1E
100
AcDbEntity
  8
1
  6
Continuous
 62
     7
100
AcDbLine
 10
412.0386029999999
 20
231.051891
 30
0.0
 11
412.032219
 21
231.074584
 31
0.0
  0
LINE
  5
4EC
330
1E
100
AcDbEntity
  8
1
  6
Continuous
 62
     7
100
AcDbLine
 10
412.032219
 20
231.074584
 30
0.0
 11
412.0244419999999
 21
231.0970589999999
 31
0.0
  0
LINE
  5
4ED
330
1E
100
AcDbEntity
  8
1
  6
Continuous
 62
     7
100
AcDbLine
 10
412.0244419999999
 20
231.0970589999999
 30
0.0
 11
412.015285
 21
231.119273
 31
0.0
  0
LINE
  5
4EE
330
1E
100
AcDbEntity
  8
1
  6
Continuous
 62
     7
100
AcDbLine
 10
412.015285
 20
231.119273
 30
0.0
 11
412.0047669999999
 21
231.141183
 31
0.0
  0
LINE
  5
4EF
330
1E
100
AcDbEntity
  8
1
  6
Continuous
 62
     7
100
AcDbLine
 10
412.0047669999999
 20
231.141183
 30
0.0
 11
411.992907
 21
231.1627479999999
 31
0.0
  0
LINE
  5
4F0
330
1E
100
AcDbEntity
  8
1
  6
Continuous
 62
     7
100
AcDbLine
 10
411.992907
 20
231.1627479999999
 30
0.0
 11
411.9797279999999
 21
231.183927
 31
0.0
  0
LINE
  5
4F1
330
1E
100
AcDbEntity
  8
1
  6
Continuous
 62
     7
100
AcDbLine
 10
411.9797279999999
 20
231.183927
 30
0.0
 11
411.965256
 21
231.204679
 31
0.0
  0
LINE
  5
4F2
330
1E
100
AcDbEntity
  8
1
  6
Continuous
 62
     7
100
AcDbLine
 10
411.965256
 20
231.204679
 30
0.0
 11
411.949516
 21
231.224965
 31
0.0
  0
LINE
  5
4F3
330
1E
100
AcDbEntity
  8
1
  6
Continuous
 62
     7
100
AcDbLine
 10
411.949516
 20
231.224965
 30
0.0
 11
411.932541
 21
231.244746
 31
0.0
  0
LINE
  5
4F4
330
1E
100
AcDbEntity
  8
1
  6
Continuous
 62
     7
100
AcDbLine
 10
411.932541
 20
231.244746
 30
0.0
 11
411.914361
 21
231.263984
 31
0.0
  0
LINE
  5
4F5
330
1E
100
AcDbEntity
  8
1
  6
Continuous
 62
     7
100
AcDbLine
 10
411.914361
 20
231.263984
 30
0.0
 11
411.895012
 21
231.282644
 31
0.0
  0
LINE
  5
4F6
330
1E
100
AcDbEntity
  8
1
  6
Continuous
 62
     7
100
AcDbLine
 10
411.895012
 20
231.282644
 30
0.0
 11
411.8745309999999
 21
231.300689
 31
0.0
  0
LINE
  5
4F7
330
1E
100
AcDbEntity
  8
1
  6
Continuous
 62
     7
100
AcDbLine
 10
411.8745309999999
 20
231.300689
 30
0.0
 11
411.8529549999999
 21
231.318085
 31
0.0
  0
LINE
  5
4F8
330
1E
100
AcDbEntity
  8
1
  6
Continuous
 62
     7
100
AcDbLine
 10
411.8529549999999
 20
231.318085
 30
0.0
 11
411.8303279999999
 21
231.334799
 31
0.0
  0
LINE
  5
4F9
330
1E
100
AcDbEntity
  8
1
  6
Continuous
 62
     7
100
AcDbLine
 10
411.8303279999999
 20
231.334799
 30
0.0
 11
411.80669
 21
231.3508
 31
0.0
  0
LINE
  5
4FA
330
1E
100
AcDbEntity
  8
1
  6
Continuous
 62
     7
100
AcDbLine
 10
411.80669
 20
231.3508
 30
0.0
 11
411.782088
 21
231.366056
 31
0.0
  0
LINE
  5
4FB
330
1E
100
AcDbEntity
  8
1
  6
Continuous
 62
     7
100
AcDbLine
 10
411.782088
 20
231.366056
 30
0.0
 11
411.756568
 21
231.380539
 31
0.0
  0
LINE
  5
4FC
330
1E
100
AcDbEntity
  8
1
  6
Continuous
 62
     7
100
AcDbLine
 10
411.756568
 20
231.380539
 30
0.0
 11
411.7301799999999
 21
231.39422
 31
0.0
  0
LINE
  5
4FD
330
1E
100
AcDbEntity
  8
1
  6
Continuous
 62
     7
100
AcDbLine
 10
411.7301799999999
 20
231.39422
 30
0.0
 11
411.702972
 21
231.4070749999999
 31
0.0
  0
LINE
  5
4FE
330
1E
100
AcDbEntity
  8
1
  6
Continuous
 62
     7
100
AcDbLine
 10
411.702972
 20
231.4070749999999
 30
0.0
 11
411.6749969999999
 21
231.419079
 31
0.0
  0
LINE
  5
4FF
330
1E
100
AcDbEntity
  8
1
  6
Continuous
 62
     7
100
AcDbLine
 10
411.6749969999999
 20
231.419079
 30
0.0
 11
411.6463089999999
 21
231.430208
 31
0.0
  0
LINE
  5
500
330
1E
100
AcDbEntity
  8
1
  6
Continuous
 62
     7
100
AcDbLine
 10
411.6463089999999
 20
231.430208
 30
0.0
 11
411.616961
 21
231.4404419999999
 31
0.0
  0
LINE
  5
501
330
1E
100
AcDbEntity
  8
1
  6
Continuous
 62
     7
100
AcDbLine
 10
411.616961
 20
231.4404419999999
 30
0.0
 11
411.58701
 21
231.449761
 31
0.0
  0
LINE
  5
502
330
1E
100
AcDbEntity
  8
1
  6
Continuous
 62
     7
100
AcDbLine
 10
411.58701
 20
231.449761
 30
0.0
 11
411.556512
 21
231.458147
 31
0.0
  0
LINE
  5
503
330
1E
100
AcDbEntity
  8
1
  6
Continuous
 62
     7
100
AcDbLine
 10
411.556512
 20
231.458147
 30
0.0
 11
411.525527
 21
231.4655839999999
 31
0.0
  0
LINE
  5
504
330
1E
100
AcDbEntity
  8
1
  6
Continuous
 62
     7
100
AcDbLine
 10
411.525527
 20
231.4655839999999
 30
0.0
 11
411.494112
 21
231.4720589999999
 31
0.0
  0
LINE
  5
505
330
1E
100
AcDbEntity
  8
1
  6
Continuous
 62
     7
100
AcDbLine
 10
411.494112
 20
231.4720589999999
 30
0.0
 11
411.462327
 21
231.4775589999999
 31
0.0
  0
LINE
  5
506
330
1E
100
AcDbEntity
  8
1
  6
Continuous
 62
     7
100
AcDbLine
 10
411.462327
 20
231.4775589999999
 30
0.0
 11
411.430233
 21
231.482073
 31
0.0
  0
LINE
  5
507
330
1E
100
AcDbEntity
  8
1
  6
Continuous
 62
     7
100
AcDbLine
 10
411.430233
 20
231.482073
 30
0.0
 11
411.397892
 21
231.4855919999999
 31
0.0
  0
LINE
  5
508
330
1E
100
AcDbEntity
  8
1
  6
Continuous
 62
     7
100
AcDbLine
 10
411.397892
 20
231.4855919999999
 30
0.0
 11
411.3653639999999
 21
231.4881109999999
 31
0.0
  0
LINE
  5
509
330
1E
100
AcDbEntity
  8
1
  6
Continuous
 62
     7
100
AcDbLine
 10
411.3653639999999
 20
231.4881109999999
 30
0.0
 11
411.332712
 21
231.4896249999999
 31
0.0
  0
LINE
  5
50A
330
1E
100
AcDbEntity
  8
1
  6
Continuous
 62
     7
100
AcDbLine
 10
411.332712
 20
231.4896249999999
 30
0.0
 11
411.299997
 21
231.4901289999999
 31
0.0
  0
LINE
  5
50B
330
1E
100
AcDbEntity
  8
1
  6
Continuous
 62
     7
100
AcDbLine
 10
411.299997
 20
231.4901289999999
 30
0.0
 11
411.267283
 21
231.4896249999999
 31
0.0
  0
LINE
  5
50C
330
1E
100
AcDbEntity
  8
1
  6
Continuous
 62
     7
100
AcDbLine
 10
411.267283
 20
231.4896249999999
 30
0.0
 11
411.2346299999999
 21
231.4881109999999
 31
0.0
  0
LINE
  5
50D
330
1E
100
AcDbEntity
  8
1
  6
Continuous
 62
     7
100
AcDbLine
 10
411.2346299999999
 20
231.4881109999999
 30
0.0
 11
411.2021029999999
 21
231.4855919999999
 31
0.0
  0
LINE
  5
50E
330
1E
100
AcDbEntity
  8
1
  6
Continuous
 62
     7
100
AcDbLine
 10
411.2021029999999
 20
231.4855919999999
 30
0.0
 11
411.169761
 21
231.482072
 31
0.0
  0
LINE
  5
50F
330
1E
100
AcDbEntity
  8
1
  6
Continuous
 62
     7
100
AcDbLine
 10
411.169761
 20
231.482072
 30
0.0
 11
411.137668
 21
231.477558
 31
0.0
  0
LINE
  5
510
330
1E
100
AcDbEntity
  8
1
  6
Continuous
 62
     7
100
AcDbLine
 10
411.137668
 20
231.477558
 30
0.0
 11
411.105883
 21
231.4720589999999
 31
0.0
  0
LINE
  5
511
330
1E
100
AcDbEntity
  8
1
  6
Continuous
 62
     7
100
AcDbLine
 10
411.105883
 20
231.4720589999999
 30
0.0
 11
411.074468
 21
231.4655839999999
 31
0.0
  0
LINE
  5
512
330
1E
100
AcDbEntity
  8
1
  6
Continuous
 62
     7
100
AcDbLine
 10
411.074468
 20
231.4655839999999
 30
0.0
 11
411.043482
 21
231.458147
 31
0.0
  0
LINE
  5
513
330
1E
100
AcDbEntity
  8
1
  6
Continuous
 62
     7
100
AcDbLine
 10
411.043482
 20
231.458147
 30
0.0
 11
411.0129849999999
 21
231.44976
 31
0.0
  0
LINE
  5
514
330
1E
100
AcDbEntity
  8
1
  6
Continuous
 62
     7
100
AcDbLine
 10
411.0129849999999
 20
231.44976
 30
0.0
 11
410.983034
 21
231.4404419999999
 31
0.0
  0
LINE
  5
515
330
1E
100
AcDbEntity
  8
1
  6
Continuous
 62
     7
100
AcDbLine
 10
410.983034
 20
231.4404419999999
 30
0.0
 11
410.953686
 21
231.430208
 31
0.0
  0
LINE
  5
516
330
1E
100
AcDbEntity
  8
1
  6
Continuous
 62
     7
100
AcDbLine
 10
410.953686
 20
231.430208
 30
0.0
 11
410.924997
 21
231.419079
 31
0.0
  0
LINE
  5
517
330
1E
100
AcDbEntity
  8
1
  6
Continuous
 62
     7
100
AcDbLine
 10
410.924997
 20
231.419079
 30
0.0
 11
410.8970229999999
 21
231.4070749999999
 31
0.0
  0
LINE
  5
518
330
1E
100
AcDbEntity
  8
1
  6
Continuous
 62
     7
100
AcDbLine
 10
410.8970229999999
 20
231.4070749999999
 30
0.0
 11
410.869815
 21
231.39422
 31
0.0
  0
LINE
  5
519
330
1E
100
AcDbEntity
  8
1
  6
Continuous
 62
     7
100
AcDbLine
 10
410.869815
 20
231.39422
 30
0.0
 11
410.843426
 21
231.380538
 31
0.0
  0
LINE
  5
51A
330
1E
100
AcDbEntity
  8
1
  6
Continuous
 62
     7
100
AcDbLine
 10
410.843426
 20
231.380538
 30
0.0
 11
410.817906
 21
231.366056
 31
0.0
  0
LINE
  5
51B
330
1E
100
AcDbEntity
  8
1
  6
Continuous
 62
     7
100
AcDbLine
 10
410.817906
 20
231.366056
 30
0.0
 11
410.7933049999999
 21
231.3508
 31
0.0
  0
LINE
  5
51C
330
1E
100
AcDbEntity
  8
1
  6
Continuous
 62
     7
100
AcDbLine
 10
410.7933049999999
 20
231.3508
 30
0.0
 11
410.769667
 21
231.334799
 31
0.0
  0
LINE
  5
51D
330
1E
100
AcDbEntity
  8
1
  6
Continuous
 62
     7
100
AcDbLine
 10
410.769667
 20
231.334799
 30
0.0
 11
410.747039
 21
231.318085
 31
0.0
  0
LINE
  5
51E
330
1E
100
AcDbEntity
  8
1
  6
Continuous
 62
     7
100
AcDbLine
 10
410.747039
 20
231.318085
 30
0.0
 11
410.7254639999999
 21
231.300689
 31
0.0
  0
LINE
  5
51F
330
1E
100
AcDbEntity
  8
1
  6
Continuous
 62
     7
100
AcDbLine
 10
410.7254639999999
 20
231.300689
 30
0.0
 11
410.7049819999999
 21
231.282644
 31
0.0
  0
LINE
  5
520
330
1E
100
AcDbEntity
  8
1
  6
Continuous
 62
     7
100
AcDbLine
 10
410.7049819999999
 20
231.282644
 30
0.0
 11
410.685633
 21
231.263984
 31
0.0
  0
LINE
  5
521
330
1E
100
AcDbEntity
  8
1
  6
Continuous
 62
     7
100
AcDbLine
 10
410.685633
 20
231.263984
 30
0.0
 11
410.667454
 21
231.244746
 31
0.0
  0
LINE
  5
522
330
1E
100
AcDbEntity
  8
1
  6
Continuous
 62
     7
100
AcDbLine
 10
410.667454
 20
231.244746
 30
0.0
 11
410.6504779999999
 21
231.224964
 31
0.0
  0
LINE
  5
523
330
1E
100
AcDbEntity
  8
1
  6
Continuous
 62
     7
100
AcDbLine
 10
410.6504779999999
 20
231.224964
 30
0.0
 11
410.634739
 21
231.204679
 31
0.0
  0
LINE
  5
524
330
1E
100
AcDbEntity
  8
1
  6
Continuous
 62
     7
100
AcDbLine
 10
410.634739
 20
231.204679
 30
0.0
 11
410.620266
 21
231.183927
 31
0.0
  0
LINE
  5
525
330
1E
100
AcDbEntity
  8
1
  6
Continuous
 62
     7
100
AcDbLine
 10
410.620266
 20
231.183927
 30
0.0
 11
410.6070879999999
 21
231.1627479999999
 31
0.0
  0
LINE
  5
526
330
1E
100
AcDbEntity
  8
1
  6
Continuous
 62
     7
100
AcDbLine
 10
410.6070879999999
 20
231.1627479999999
 30
0.0
 11
410.5952279999999
 21
231.141183
 31
0.0
  0
LINE
  5
527
330
1E
100
AcDbEntity
  8
1
  6
Continuous
 62
     7
100
AcDbLine
 10
410.5952279999999
 20
231.141183
 30
0.0
 11
410.584709
 21
231.119273
 31
0.0
  0
LINE
  5
528
330
1E
100
AcDbEntity
  8
1
  6
Continuous
 62
     7
100
AcDbLine
 10
410.584709
 20
231.119273
 30
0.0
 11
410.5755529999999
 21
231.0970589999999
 31
0.0
  0
LINE
  5
529
330
1E
100
AcDbEntity
  8
1
  6
Continuous
 62
     7
100
AcDbLine
 10
410.5755529999999
 20
231.0970589999999
 30
0.0
 11
410.5677749999999
 21
231.074584
 31
0.0
  0
LINE
  5
52A
330
1E
100
AcDbEntity
  8
1
  6
Continuous
 62
     7
100
AcDbLine
 10
410.5677749999999
 20
231.074584
 30
0.0
 11
410.561391
 21
231.0518899999999
 31
0.0
  0
LINE
  5
52B
330
1E
100
AcDbEntity
  8
1
  6
Continuous
 62
     7
100
AcDbLine
 10
410.561391
 20
231.0518899999999
 30
0.0
 11
410.556414
 21
231.029021
 31
0.0
  0
LINE
  5
52C
330
1E
100
AcDbEntity
  8
1
  6
Continuous
 62
     7
100
AcDbLine
 10
410.556414
 20
231.029021
 30
0.0
 11
410.552851
 21
231.006021
 31
0.0
  0
LINE
  5
52D
330
1E
100
AcDbEntity
  8
1
  6
Continuous
 62
     7
100
AcDbLine
 10
410.552851
 20
231.006021
 30
0.0
 11
410.5507109999999
 21
230.9829319999999
 31
0.0
  0
LINE
  5
52E
330
1E
100
AcDbEntity
  8
1
  6
Continuous
 62
     7
100
AcDbLine
 10
410.5507109999999
 20
230.9829319999999
 30
0.0
 11
410.549997
 21
230.959799
 31
0.0
  0
LINE
  5
52F
330
1E
100
AcDbEntity
  8
1
  6
Continuous
 62
     7
100
AcDbLine
 10
410.549997
 20
230.352425
 30
0.0
 11
410.5507109999999
 21
230.329293
 31
0.0
  0
LINE
  5
530
330
1E
100
AcDbEntity
  8
1
  6
Continuous
 62
     7
100
AcDbLine
 10
410.5507109999999
 20
230.329293
 30
0.0
 11
410.552851
 21
230.3062039999999
 31
0.0
  0
LINE
  5
531
330
1E
100
AcDbEntity
  8
1
  6
Continuous
 62
     7
100
AcDbLine
 10
410.552851
 20
230.3062039999999
 30
0.0
 11
410.556414
 21
230.283204
 31
0.0
  0
LINE
  5
532
330
1E
100
AcDbEntity
  8
1
  6
Continuous
 62
     7
100
AcDbLine
 10
410.556414
 20
230.283204
 30
0.0
 11
410.561391
 21
230.260335
 31
0.0
  0
LINE
  5
533
330
1E
100
AcDbEntity
  8
1
  6
Continuous
 62
     7
100
AcDbLine
 10
410.561391
 20
230.260335
 30
0.0
 11
410.5677749999999
 21
230.237641
 31
0.0
  0
LINE
  5
534
330
1E
100
AcDbEntity
  8
1
  6
Continuous
 62
     7
100
AcDbLine
 10
410.5677749999999
 20
230.237641
 30
0.0
 11
410.5755529999999
 21
230.215166
 31
0.0
  0
LINE
  5
535
330
1E
100
AcDbEntity
  8
1
  6
Continuous
 62
     7
100
AcDbLine
 10
410.5755529999999
 20
230.215166
 30
0.0
 11
410.58471
 21
230.1929519999999
 31
0.0
  0
LINE
  5
536
330
1E
100
AcDbEntity
  8
1
  6
Continuous
 62
     7
100
AcDbLine
 10
410.58471
 20
230.1929519999999
 30
0.0
 11
410.5952279999999
 21
230.171042
 31
0.0
  0
LINE
  5
537
330
1E
100
AcDbEntity
  8
1
  6
Continuous
 62
     7
100
AcDbLine
 10
410.5952279999999
 20
230.171042
 30
0.0
 11
410.6070879999999
 21
230.149477
 31
0.0
  0
LINE
  5
538
330
1E
100
AcDbEntity
  8
1
  6
Continuous
 62
     7
100
AcDbLine
 10
410.6070879999999
 20
230.149477
 30
0.0
 11
410.620266
 21
230.1282979999999
 31
0.0
  0
LINE
  5
539
330
1E
100
AcDbEntity
  8
1
  6
Continuous
 62
     7
100
AcDbLine
 10
410.620266
 20
230.1282979999999
 30
0.0
 11
410.634739
 21
230.1075459999999
 31
0.0
  0
LINE
  5
53A
330
1E
100
AcDbEntity
  8
1
  6
Continuous
 62
     7
100
AcDbLine
 10
410.634739
 20
230.1075459999999
 30
0.0
 11
410.6504779999999
 21
230.0872609999999
 31
0.0
  0
LINE
  5
53B
330
1E
100
AcDbEntity
  8
1
  6
Continuous
 62
     7
100
AcDbLine
 10
410.6504779999999
 20
230.0872609999999
 30
0.0
 11
410.667454
 21
230.0674799999999
 31
0.0
  0
LINE
  5
53C
330
1E
100
AcDbEntity
  8
1
  6
Continuous
 62
     7
100
AcDbLine
 10
410.667454
 20
230.0674799999999
 30
0.0
 11
410.685633
 21
230.048241
 31
0.0
  0
LINE
  5
53D
330
1E
100
AcDbEntity
  8
1
  6
Continuous
 62
     7
100
AcDbLine
 10
410.685633
 20
230.048241
 30
0.0
 11
410.7049819999999
 21
230.029581
 31
0.0
  0
LINE
  5
53E
330
1E
100
AcDbEntity
  8
1
  6
Continuous
 62
     7
100
AcDbLine
 10
410.7049819999999
 20
230.029581
 30
0.0
 11
410.7254639999999
 21
230.0115359999999
 31
0.0
  0
LINE
  5
53F
330
1E
100
AcDbEntity
  8
1
  6
Continuous
 62
     7
100
AcDbLine
 10
410.7254639999999
 20
230.0115359999999
 30
0.0
 11
410.747039
 21
229.9941399999999
 31
0.0
  0
LINE
  5
540
330
1E
100
AcDbEntity
  8
1
  6
Continuous
 62
     7
100
AcDbLine
 10
410.747039
 20
229.9941399999999
 30
0.0
 11
410.769667
 21
229.9774259999999
 31
0.0
  0
LINE
  5
541
330
1E
100
AcDbEntity
  8
1
  6
Continuous
 62
     7
100
AcDbLine
 10
410.769667
 20
229.9774259999999
 30
0.0
 11
410.7933049999999
 21
229.9614249999999
 31
0.0
  0
LINE
  5
542
330
1E
100
AcDbEntity
  8
1
  6
Continuous
 62
     7
100
AcDbLine
 10
410.7933049999999
 20
229.9614249999999
 30
0.0
 11
410.817907
 21
229.946169
 31
0.0
  0
LINE
  5
543
330
1E
100
AcDbEntity
  8
1
  6
Continuous
 62
     7
100
AcDbLine
 10
410.817907
 20
229.946169
 30
0.0
 11
410.843426
 21
229.931687
 31
0.0
  0
LINE
  5
544
330
1E
100
AcDbEntity
  8
1
  6
Continuous
 62
     7
100
AcDbLine
 10
410.843426
 20
229.931687
 30
0.0
 11
410.869815
 21
229.9180049999999
 31
0.0
  0
LINE
  5
545
330
1E
100
AcDbEntity
  8
1
  6
Continuous
 62
     7
100
AcDbLine
 10
410.869815
 20
229.9180049999999
 30
0.0
 11
410.8970229999999
 21
229.90515
 31
0.0
  0
LINE
  5
546
330
1E
100
AcDbEntity
  8
1
  6
Continuous
 62
     7
100
AcDbLine
 10
410.8970229999999
 20
229.90515
 30
0.0
 11
410.924997
 21
229.893147
 31
0.0
  0
LINE
  5
547
330
1E
100
AcDbEntity
  8
1
  6
Continuous
 62
     7
100
AcDbLine
 10
410.924997
 20
229.893147
 30
0.0
 11
410.953686
 21
229.8820169999999
 31
0.0
  0
LINE
  5
548
330
1E
100
AcDbEntity
  8
1
  6
Continuous
 62
     7
100
AcDbLine
 10
410.953686
 20
229.8820169999999
 30
0.0
 11
410.983034
 21
229.871784
 31
0.0
  0
LINE
  5
549
330
1E
100
AcDbEntity
  8
1
  6
Continuous
 62
     7
100
AcDbLine
 10
410.983034
 20
229.871784
 30
0.0
 11
411.0129849999999
 21
229.8624649999999
 31
0.0
  0
LINE
  5
54A
330
1E
100
AcDbEntity
  8
1
  6
Continuous
 62
     7
100
AcDbLine
 10
411.0129849999999
 20
229.8624649999999
 30
0.0
 11
411.043482
 21
229.854079
 31
0.0
  0
LINE
  5
54B
330
1E
100
AcDbEntity
  8
1
  6
Continuous
 62
     7
100
AcDbLine
 10
411.043482
 20
229.854079
 30
0.0
 11
411.074468
 21
229.846641
 31
0.0
  0
LINE
  5
54C
330
1E
100
AcDbEntity
  8
1
  6
Continuous
 62
     7
100
AcDbLine
 10
411.074468
 20
229.846641
 30
0.0
 11
411.105883
 21
229.840166
 31
0.0
  0
LINE
  5
54D
330
1E
100
AcDbEntity
  8
1
  6
Continuous
 62
     7
100
AcDbLine
 10
411.105883
 20
229.840166
 30
0.0
 11
411.137668
 21
229.8346669999999
 31
0.0
  0
LINE
  5
54E
330
1E
100
AcDbEntity
  8
1
  6
Continuous
 62
     7
100
AcDbLine
 10
411.137668
 20
229.8346669999999
 30
0.0
 11
411.169761
 21
229.8301529999999
 31
0.0
  0
LINE
  5
54F
330
1E
100
AcDbEntity
  8
1
  6
Continuous
 62
     7
100
AcDbLine
 10
411.169761
 20
229.8301529999999
 30
0.0
 11
411.2021029999999
 21
229.826633
 31
0.0
  0
LINE
  5
550
330
1E
100
AcDbEntity
  8
1
  6
Continuous
 62
     7
100
AcDbLine
 10
411.2021029999999
 20
229.826633
 30
0.0
 11
411.2346309999999
 21
229.824114
 31
0.0
  0
LINE
  5
551
330
1E
100
AcDbEntity
  8
1
  6
Continuous
 62
     7
100
AcDbLine
 10
411.2346309999999
 20
229.824114
 30
0.0
 11
411.267283
 21
229.822601
 31
0.0
  0
LINE
  5
552
330
1E
100
AcDbEntity
  8
1
  6
Continuous
 62
     7
100
AcDbLine
 10
411.267283
 20
229.822601
 30
0.0
 11
411.299997
 21
229.822096
 31
0.0
  0
LINE
  5
553
330
1E
100
AcDbEntity
  8
1
  6
Continuous
 62
     7
100
AcDbLine
 10
411.299997
 20
229.822096
 30
0.0
 11
411.332712
 21
229.822601
 31
0.0
  0
LINE
  5
554
330
1E
100
AcDbEntity
  8
1
  6
Continuous
 62
     7
100
AcDbLine
 10
411.332712
 20
229.822601
 30
0.0
 11
411.3653639999999
 21
229.824114
 31
0.0
  0
LINE
  5
555
330
1E
100
AcDbEntity
  8
1
  6
Continuous
 62
     7
100
AcDbLine
 10
411.3653639999999
 20
229.824114
 30
0.0
 11
411.397892
 21
229.826633
 31
0.0
  0
LINE
  5
556
330
1E
100
AcDbEntity
  8
1
  6
Continuous
 62
     7
100
AcDbLine
 10
411.397892
 20
229.826633
 30
0.0
 11
411.430233
 21
229.8301529999999
 31
0.0
  0
LINE
  5
557
330
1E
100
AcDbEntity
  8
1
  6
Continuous
 62
     7
100
AcDbLine
 10
411.430233
 20
229.8301529999999
 30
0.0
 11
411.462327
 21
229.8346669999999
 31
0.0
  0
LINE
  5
558
330
1E
100
AcDbEntity
  8
1
  6
Continuous
 62
     7
100
AcDbLine
 10
411.462327
 20
229.8346669999999
 30
0.0
 11
411.494112
 21
229.840167
 31
0.0
  0
LINE
  5
559
330
1E
100
AcDbEntity
  8
1
  6
Continuous
 62
     7
100
AcDbLine
 10
411.494112
 20
229.840167
 30
0.0
 11
411.525527
 21
229.846641
 31
0.0
  0
LINE
  5
55A
330
1E
100
AcDbEntity
  8
1
  6
Continuous
 62
     7
100
AcDbLine
 10
411.525527
 20
229.846641
 30
0.0
 11
411.556512
 21
229.854079
 31
0.0
  0
LINE
  5
55B
330
1E
100
AcDbEntity
  8
1
  6
Continuous
 62
     7
100
AcDbLine
 10
411.556512
 20
229.854079
 30
0.0
 11
411.58701
 21
229.8624649999999
 31
0.0
  0
LINE
  5
55C
330
1E
100
AcDbEntity
  8
1
  6
Continuous
 62
     7
100
AcDbLine
 10
411.58701
 20
229.8624649999999
 30
0.0
 11
411.616961
 21
229.871784
 31
0.0
  0
LINE
  5
55D
330
1E
100
AcDbEntity
  8
1
  6
Continuous
 62
     7
100
AcDbLine
 10
411.616961
 20
229.871784
 30
0.0
 11
411.6463089999999
 21
229.882018
 31
0.0
  0
LINE
  5
55E
330
1E
100
AcDbEntity
  8
1
  6
Continuous
 62
     7
100
AcDbLine
 10
411.6463089999999
 20
229.882018
 30
0.0
 11
411.6749969999999
 21
229.893147
 31
0.0
  0
LINE
  5
55F
330
1E
100
AcDbEntity
  8
1
  6
Continuous
 62
     7
100
AcDbLine
 10
411.6749969999999
 20
229.893147
 30
0.0
 11
411.702972
 21
229.90515
 31
0.0
  0
LINE
  5
560
330
1E
100
AcDbEntity
  8
1
  6
Continuous
 62
     7
100
AcDbLine
 10
411.702972
 20
229.90515
 30
0.0
 11
411.7301799999999
 21
229.9180049999999
 31
0.0
  0
LINE
  5
561
330
1E
100
AcDbEntity
  8
1
  6
Continuous
 62
     7
100
AcDbLine
 10
411.7301799999999
 20
229.9180049999999
 30
0.0
 11
411.756568
 21
229.931687
 31
0.0
  0
LINE
  5
562
330
1E
100
AcDbEntity
  8
1
  6
Continuous
 62
     7
100
AcDbLine
 10
411.756568
 20
229.931687
 30
0.0
 11
411.782088
 21
229.94617
 31
0.0
  0
LINE
  5
563
330
1E
100
AcDbEntity
  8
1
  6
Continuous
 62
     7
100
AcDbLine
 10
411.782088
 20
229.94617
 30
0.0
 11
411.80669
 21
229.9614259999999
 31
0.0
  0
LINE
  5
564
330
1E
100
AcDbEntity
  8
1
  6
Continuous
 62
     7
100
AcDbLine
 10
411.80669
 20
229.9614259999999
 30
0.0
 11
411.830327
 21
229.9774259999999
 31
0.0
  0
LINE
  5
565
330
1E
100
AcDbEntity
  8
1
  6
Continuous
 62
     7
100
AcDbLine
 10
411.830327
 20
229.9774259999999
 30
0.0
 11
411.8529549999999
 21
229.9941399999999
 31
0.0
  0
LINE
  5
566
330
1E
100
AcDbEntity
  8
1
  6
Continuous
 62
     7
100
AcDbLine
 10
411.8529549999999
 20
229.9941399999999
 30
0.0
 11
411.8745309999999
 21
230.0115359999999
 31
0.0
  0
LINE
  5
567
330
1E
100
AcDbEntity
  8
1
  6
Continuous
 62
     7
100
AcDbLine
 10
411.8745309999999
 20
230.0115359999999
 30
0.0
 11
411.895012
 21
230.029581
 31
0.0
  0
LINE
  5
568
330
1E
100
AcDbEntity
  8
1
  6
Continuous
 62
     7
100
AcDbLine
 10
411.895012
 20
230.029581
 30
0.0
 11
411.914361
 21
230.048241
 31
0.0
  0
LINE
  5
569
330
1E
100
AcDbEntity
  8
1
  6
Continuous
 62
     7
100
AcDbLine
 10
411.914361
 20
230.048241
 30
0.0
 11
411.932541
 21
230.0674799999999
 31
0.0
  0
LINE
  5
56A
330
1E
100
AcDbEntity
  8
1
  6
Continuous
 62
     7
100
AcDbLine
 10
411.932541
 20
230.0674799999999
 30
0.0
 11
411.949516
 21
230.0872609999999
 31
0.0
  0
LINE
  5
56B
330
1E
100
AcDbEntity
  8
1
  6
Continuous
 62
     7
100
AcDbLine
 10
411.949516
 20
230.0872609999999
 30
0.0
 11
411.9652549999999
 21
230.107547
 31
0.0
  0
LINE
  5
56C
330
1E
100
AcDbEntity
  8
1
  6
Continuous
 62
     7
100
AcDbLine
 10
411.9652549999999
 20
230.107547
 30
0.0
 11
411.9797279999999
 21
230.128299
 31
0.0
  0
LINE
  5
56D
330
1E
100
AcDbEntity
  8
1
  6
Continuous
 62
     7
100
AcDbLine
 10
411.9797279999999
 20
230.128299
 30
0.0
 11
411.992907
 21
230.149477
 31
0.0
  0
LINE
  5
56E
330
1E
100
AcDbEntity
  8
1
  6
Continuous
 62
     7
100
AcDbLine
 10
411.992907
 20
230.149477
 30
0.0
 11
412.0047669999999
 21
230.171042
 31
0.0
  0
LINE
  5
56F
330
1E
100
AcDbEntity
  8
1
  6
Continuous
 62
     7
100
AcDbLine
 10
412.0047669999999
 20
230.171042
 30
0.0
 11
412.015285
 21
230.1929519999999
 31
0.0
  0
LINE
  5
570
330
1E
100
AcDbEntity
  8
1
  6
Continuous
 62
     7
100
AcDbLine
 10
412.015285
 20
230.1929519999999
 30
0.0
 11
412.0244419999999
 21
230.215166
 31
0.0
  0
LINE
  5
571
330
1E
100
AcDbEntity
  8
1
  6
Continuous
 62
     7
100
AcDbLine
 10
412.0244419999999
 20
230.215166
 30
0.0
 11
412.032219
 21
230.237641
 31
0.0
  0
LINE
  5
572
330
1E
100
AcDbEntity
  8
1
  6
Continuous
 62
     7
100
AcDbLine
 10
412.032219
 20
230.237641
 30
0.0
 11
412.0386029999999
 21
230.260335
 31
0.0
  0
LINE
  5
573
330
1E
100
AcDbEntity
  8
1
  6
Continuous
 62
     7
100
AcDbLine
 10
412.0386029999999
 20
230.260335
 30
0.0
 11
412.043581
 21
230.283204
 31
0.0
  0
LINE
  5
574
330
1E
100
AcDbEntity
  8
1
  6
Continuous
 62
     7
100
AcDbLine
 10
412.043581
 20
230.283204
 30
0.0
 11
412.047143
 21
230.3062039999999
 31
0.0
  0
LINE
  5
575
330
1E
100
AcDbEntity
  8
1
  6
Continuous
 62
     7
100
AcDbLine
 10
412.047143
 20
230.3062039999999
 30
0.0
 11
412.0492839999999
 21
230.329293
 31
0.0
  0
LINE
  5
576
330
1E
100
AcDbEntity
  8
1
  6
Continuous
 62
     7
100
AcDbLine
 10
412.0492839999999
 20
230.329293
 30
0.0
 11
412.049997
 21
230.3524259999999
 31
0.0
  0
LINE
  5
577
330
1E
100
AcDbEntity
  8
1
  6
Continuous
 62
     7
100
AcDbLine
 10
412.049997
 20
230.959797
 30
0.0
 11
412.049997
 21
230.3524259999999
 31
0.0
  0
LINE
  5
578
330
1E
100
AcDbEntity
  8
1
  6
Continuous
 62
     7
100
AcDbLine
 10
410.549997
 20
230.959797
 30
0.0
 11
410.549997
 21
230.35242
 31
0.0
  0
LINE
  5
579
330
1E
100
AcDbEntity
  8
1
  6
Continuous
 62
     7
100
AcDbLine
 10
407.299999
 20
222.1999999999999
 30
0.0
 11
420.0000039999999
 21
222.1999999999999
 31
0.0
  0
LINE
  5
57A
330
1E
100
AcDbEntity
  8
1
  6
Continuous
 62
     7
100
AcDbLine
 10
419.100006
 20
237.9000229999999
 30
0.0
 11
420.0000049999999
 21
237.9000229999999
 31
0.0
  0
ARC
  5
57B
330
1E
100
AcDbEntity
  8
1
  6
Continuous
 62
     7
100
AcDbCircle
 10
419.100006
 20
238.400023
 30
0.0
 40
0.5
100
AcDbArc
 50
180.0000169999999
 51
270.000017
  0
LINE
  5
57C
330
1E
100
AcDbEntity
  8
1
  6
Continuous
 62
     7
100
AcDbLine
 10
418.6000049999999
 20
240.600023
 30
0.0
 11
418.600006
 21
238.400023
 31
0.0
  0
LINE
  5
57D
330
1E
100
AcDbEntity
  8
1
  6
Continuous
 62
     7
100
AcDbLine
 10
420.0000049999999
 20
241.1000229999999
 30
0.0
 11
419.1000049999999
 21
241.1000229999999
 31
0.0
  0
ARC
  5
57E
330
1E
100
AcDbEntity
  8
1
  6
Continuous
 62
     7
100
AcDbCircle
 10
419.1000049999999
 20
240.600023
 30
0.0
 40
0.5
100
AcDbArc
 50
90.000017
 51
180.0000169999999
  0
ARC
  5
57F
330
1E
100
AcDbEntity
  8
1
  6
Continuous
 62
     7
100
AcDbCircle
 10
419.903128
 20
258.300023
 30
0.0
 40
1.503125
100
AcDbArc
 50
86.304788
 51
273.695229
  0
LINE
  5
580
330
1E
100
AcDbEntity
  8
1
  6
Continuous
 62
     7
100
AcDbLine
 10
420.000003
 20
252.600023
 30
0.0
 11
413.5000029999999
 21
252.6000209999999
 31
0.0
  0
ARC
  5
581
330
1E
100
AcDbEntity
  8
1
  6
Continuous
 62
     7
100
AcDbCircle
 10
413.5000039999999
 20
250.6000209999999
 30
0.0
 40
2.0
100
AcDbArc
 50
90.000017
 51
180.000008
  0
LINE
  5
582
330
1E
100
AcDbEntity
  8
1
  6
Continuous
 62
     7
100
AcDbLine
 10
411.5000039999999
 20
250.6000209999999
 30
0.0
 11
411.5000039999999
 21
246.400021
 31
0.0
  0
LINE
  5
583
330
1E
100
AcDbEntity
  8
1
  6
Continuous
 62
     7
100
AcDbLine
 10
413.500005
 20
244.400021
 30
0.0
 11
420.0000049999999
 21
244.4000229999999
 31
0.0
  0
ARC
  5
584
330
1E
100
AcDbEntity
  8
1
  6
Continuous
 62
     7
100
AcDbCircle
 10
413.5000039999999
 20
246.400021
 30
0.0
 40
2.0
100
AcDbArc
 50
180.000008
 51
270.000017
  0
LINE
  5
585
330
1E
100
AcDbEntity
  8
1
  6
Continuous
 62
     7
100
AcDbLine
 10
414.4000039999999
 20
231.8
 30
0.0
 11
414.4000039999999
 21
235.0
 31
0.0
  0
LINE
  5
586
330
1E
100
AcDbEntity
  8
1
  6
Continuous
 62
     7
100
AcDbLine
 10
414.4000039999999
 20
235.0
 30
0.0
 11
419.999999
 21
235.0
 31
0.0
  0
LINE
  5
587
330
1E
100
AcDbEntity
  8
1
  6
Continuous
 62
     7
100
AcDbLine
 10
414.900004
 20
231.8
 30
0.0
 11
414.900004
 21
235.0
 31
0.0
  0
LINE
  5
588
330
1E
100
AcDbEntity
  8
1
  6
Continuous
 62
     7
100
AcDbLine
 10
414.4000039999999
 20
232.5
 30
0.0
 11
419.999999
 21
232.5
 31
0.0
  0
ARC
  5
58B
330
1E
100
AcDbEntity
  8
1
  6
Continuous
 62
     7
100
AcDbCircle
 10
155.561077
 20
260.4999999999999
 30
0.0
 40
5.0
100
AcDbArc
 50
90.0
 51
113.9625299999999
  0
LINE
  5
58C
330
1E
100
AcDbEntity
  8
1
  6
Continuous
 62
     7
100
AcDbLine
 10
155.561077
 20
265.5
 30
0.0
 11
260.0000109999999
 21
265.5
 31
0.0
  0
LINE
  5
58D
330
1E
100
AcDbEntity
  8
1
  6
Continuous
 62
     7
100
AcDbLine
 10
150.000011
 20
263.5
 30
0.0
 11
153.530381
 21
265.069056
 31
0.0
  0
ARC
  5
58E
330
1E
100
AcDbEntity
  8
1
  6
Continuous
 62
     7
100
AcDbCircle
 10
524.438938
 20
260.4999999999999
 30
0.0
 40
5.0
100
AcDbArc
 50
66.03747
 51
90.0
  0
LINE
  5
58F
330
1E
100
AcDbEntity
  8
1
  6
Continuous
 62
     7
100
AcDbLine
 10
524.438938
 20
265.5
 30
0.0
 11
420.0000039999999
 21
265.5
 31
0.0
  0
LINE
  5
590
330
1E
100
AcDbEntity
  8
1
  6
Continuous
 62
     7
100
AcDbLine
 10
530.0000029999999
 20
263.5
 30
0.0
 11
526.469633
 21
265.069056
 31
0.0
  0
ARC
  5
591
330
1E
100
AcDbEntity
  8
1
  6
Continuous
 62
     7
100
AcDbCircle
 10
260.096877
 20
327.500004
 30
0.0
 40
1.503125
100
AcDbArc
 50
266.304788
 51
93.69522900000001
  0
LINE
  5
592
330
1E
100
AcDbEntity
  8
1
  6
Continuous
 62
     7
100
AcDbLine
 10
260.900002
 20
322.400004
 30
0.0
 11
260.0000029999999
 21
322.400004
 31
0.0
  0
ARC
  5
593
330
1E
100
AcDbEntity
  8
1
  6
Continuous
 62
     7
100
AcDbCircle
 10
260.900002
 20
322.900004
 30
0.0
 40
0.5
100
AcDbArc
 50
270.0
 51
0.0
  0
LINE
  5
594
330
1E
100
AcDbEntity
  8
1
  6
Continuous
 62
     7
100
AcDbLine
 10
261.400002
 20
325.100004
 30
0.0
 11
261.400002
 21
322.900004
 31
0.0
  0
LINE
  5
595
330
1E
100
AcDbEntity
  8
1
  6
Continuous
 62
     7
100
AcDbLine
 10
260.0000019999999
 20
325.6000039999999
 30
0.0
 11
260.900002
 21
325.6000039999999
 31
0.0
  0
ARC
  5
596
330
1E
100
AcDbEntity
  8
1
  6
Continuous
 62
     7
100
AcDbCircle
 10
260.900002
 20
325.100004
 30
0.0
 40
0.5
100
AcDbArc
 50
0.0
 51
90.0
  0
LINE
  5
597
330
1E
100
AcDbEntity
  8
1
  6
Continuous
 62
     7
100
AcDbLine
 10
260.9000009999999
 20
330.400004
 30
0.0
 11
260.000001
 21
330.400004
 31
0.0
  0
ARC
  5
598
330
1E
100
AcDbEntity
  8
1
  6
Continuous
 62
     7
100
AcDbCircle
 10
260.9000009999999
 20
330.900004
 30
0.0
 40
0.5
100
AcDbArc
 50
270.0
 51
0.0
  0
LINE
  5
599
330
1E
100
AcDbEntity
  8
1
  6
Continuous
 62
     7
100
AcDbLine
 10
261.4000009999999
 20
333.100004
 30
0.0
 11
261.4000009999999
 21
330.900004
 31
0.0
  0
LINE
  5
59A
330
1E
100
AcDbEntity
  8
1
  6
Continuous
 62
     7
100
AcDbLine
 10
260.000001
 20
333.600004
 30
0.0
 11
260.9000009999999
 21
333.600004
 31
0.0
  0
ARC
  5
59B
330
1E
100
AcDbEntity
  8
1
  6
Continuous
 62
     7
100
AcDbCircle
 10
260.9000009999999
 20
333.100004
 30
0.0
 40
0.5
100
AcDbArc
 50
0.0
 51
90.0
  0
LINE
  5
59C
330
1E
100
AcDbEntity
  8
1
  6
Continuous
 62
     7
100
AcDbLine
 10
259.999999
 20
344.100004
 30
0.0
 11
266.5
 21
344.100004
 31
0.0
  0
ARC
  5
59D
330
1E
100
AcDbEntity
  8
1
  6
Continuous
 62
     7
100
AcDbCircle
 10
266.5
 20
342.100004
 30
0.0
 40
2.0
100
AcDbArc
 50
0.000008
 51
90.0
  0
LINE
  5
59E
330
1E
100
AcDbEntity
  8
1
  6
Continuous
 62
     7
100
AcDbLine
 10
268.5
 20
342.100004
 30
0.0
 11
268.5
 21
337.900004
 31
0.0
  0
LINE
  5
59F
330
1E
100
AcDbEntity
  8
1
  6
Continuous
 62
     7
100
AcDbLine
 10
266.5
 20
335.900004
 30
0.0
 11
260.000001
 21
335.900004
 31
0.0
  0
ARC
  5
5A0
330
1E
100
AcDbEntity
  8
1
  6
Continuous
 62
     7
100
AcDbCircle
 10
266.5
 20
337.900004
 30
0.0
 40
2.0
100
AcDbArc
 50
270.0
 51
0.000008
  0
LINE
  5
5A1
330
1E
100
AcDbEntity
  8
1
  6
Continuous
 62
     7
100
AcDbLine
 10
260.0000019999999
 20
326.0000039999999
 30
0.0
 11
265.600015
 21
326.0000039999999
 31
0.0
  0
LINE
  5
5A2
330
1E
100
AcDbEntity
  8
1
  6
Continuous
 62
     7
100
AcDbLine
 10
265.600015
 20
326.0000039999999
 30
0.0
 11
265.600015
 21
333.500005
 31
0.0
  0
LINE
  5
5A3
330
1E
100
AcDbEntity
  8
1
  6
Continuous
 62
     7
100
AcDbLine
 10
265.600015
 20
333.500005
 30
0.0
 11
265.1000149999999
 21
333.500005
 31
0.0
  0
LINE
  5
5A4
330
1E
100
AcDbEntity
  8
1
  6
Continuous
 62
     7
100
AcDbLine
 10
265.1000149999999
 20
333.500005
 30
0.0
 11
265.1000149999999
 21
335.900004
 31
0.0
  0
LINE
  5
5A5
330
1E
100
AcDbEntity
  8
1
  6
Continuous
 62
     7
100
AcDbLine
 10
261.2191
 20
328.5000039999999
 30
0.0
 11
265.600015
 21
328.5000049999999
 31
0.0
  0
LINE
  5
5A6
330
1E
100
AcDbEntity
  8
1
  6
Continuous
 62
     7
100
AcDbLine
 10
272.700016
 20
343.200006
 30
0.0
 11
272.700016
 21
352.800006
 31
0.0
  0
LINE
  5
5A7
330
1E
100
AcDbEntity
  8
1
  6
Continuous
 62
     7
100
AcDbLine
 10
272.700016
 20
352.800006
 30
0.0
 11
260.000017
 21
352.800006
 31
0.0
  0
LINE
  5
5A8
330
1E
100
AcDbEntity
  8
1
  6
Continuous
 62
     7
100
AcDbLine
 10
267.950017
 20
351.959806
 30
0.0
 11
267.950731
 21
351.9366729999999
 31
0.0
  0
LINE
  5
5A9
330
1E
100
AcDbEntity
  8
1
  6
Continuous
 62
     7
100
AcDbLine
 10
267.950731
 20
351.9366729999999
 30
0.0
 11
267.952871
 21
351.9135839999999
 31
0.0
  0
LINE
  5
5AA
330
1E
100
AcDbEntity
  8
1
  6
Continuous
 62
     7
100
AcDbLine
 10
267.952871
 20
351.9135839999999
 30
0.0
 11
267.956433
 21
351.8905839999999
 31
0.0
  0
LINE
  5
5AB
330
1E
100
AcDbEntity
  8
1
  6
Continuous
 62
     7
100
AcDbLine
 10
267.956433
 20
351.8905839999999
 30
0.0
 11
267.961411
 21
351.8677149999999
 31
0.0
  0
LINE
  5
5AC
330
1E
100
AcDbEntity
  8
1
  6
Continuous
 62
     7
100
AcDbLine
 10
267.961411
 20
351.8677149999999
 30
0.0
 11
267.967795
 21
351.8450209999999
 31
0.0
  0
LINE
  5
5AD
330
1E
100
AcDbEntity
  8
1
  6
Continuous
 62
     7
100
AcDbLine
 10
267.967795
 20
351.8450209999999
 30
0.0
 11
267.975573
 21
351.822546
 31
0.0
  0
LINE
  5
5AE
330
1E
100
AcDbEntity
  8
1
  6
Continuous
 62
     7
100
AcDbLine
 10
267.975573
 20
351.822546
 30
0.0
 11
267.984729
 21
351.800333
 31
0.0
  0
LINE
  5
5AF
330
1E
100
AcDbEntity
  8
1
  6
Continuous
 62
     7
100
AcDbLine
 10
267.984729
 20
351.800333
 30
0.0
 11
267.995248
 21
351.778422
 31
0.0
  0
LINE
  5
5B0
330
1E
100
AcDbEntity
  8
1
  6
Continuous
 62
     7
100
AcDbLine
 10
267.995248
 20
351.778422
 30
0.0
 11
268.0071069999999
 21
351.7568569999999
 31
0.0
  0
LINE
  5
5B1
330
1E
100
AcDbEntity
  8
1
  6
Continuous
 62
     7
100
AcDbLine
 10
268.0071069999999
 20
351.7568569999999
 30
0.0
 11
268.020286
 21
351.735679
 31
0.0
  0
LINE
  5
5B2
330
1E
100
AcDbEntity
  8
1
  6
Continuous
 62
     7
100
AcDbLine
 10
268.020286
 20
351.735679
 30
0.0
 11
268.034759
 21
351.7149269999999
 31
0.0
  0
LINE
  5
5B3
330
1E
100
AcDbEntity
  8
1
  6
Continuous
 62
     7
100
AcDbLine
 10
268.034759
 20
351.7149269999999
 30
0.0
 11
268.050498
 21
351.694641
 31
0.0
  0
LINE
  5
5B4
330
1E
100
AcDbEntity
  8
1
  6
Continuous
 62
     7
100
AcDbLine
 10
268.050498
 20
351.694641
 30
0.0
 11
268.067473
 21
351.67486
 31
0.0
  0
LINE
  5
5B5
330
1E
100
AcDbEntity
  8
1
  6
Continuous
 62
     7
100
AcDbLine
 10
268.067473
 20
351.67486
 30
0.0
 11
268.0856529999999
 21
351.655621
 31
0.0
  0
LINE
  5
5B6
330
1E
100
AcDbEntity
  8
1
  6
Continuous
 62
     7
100
AcDbLine
 10
268.0856529999999
 20
351.655621
 30
0.0
 11
268.105002
 21
351.6369609999999
 31
0.0
  0
LINE
  5
5B7
330
1E
100
AcDbEntity
  8
1
  6
Continuous
 62
     7
100
AcDbLine
 10
268.105002
 20
351.6369609999999
 30
0.0
 11
268.1254839999999
 21
351.618916
 31
0.0
  0
LINE
  5
5B8
330
1E
100
AcDbEntity
  8
1
  6
Continuous
 62
     7
100
AcDbLine
 10
268.1254839999999
 20
351.618916
 30
0.0
 11
268.1470589999999
 21
351.60152
 31
0.0
  0
LINE
  5
5B9
330
1E
100
AcDbEntity
  8
1
  6
Continuous
 62
     7
100
AcDbLine
 10
268.1470589999999
 20
351.60152
 30
0.0
 11
268.169687
 21
351.584806
 31
0.0
  0
LINE
  5
5BA
330
1E
100
AcDbEntity
  8
1
  6
Continuous
 62
     7
100
AcDbLine
 10
268.169687
 20
351.584806
 30
0.0
 11
268.193324
 21
351.568806
 31
0.0
  0
LINE
  5
5BB
330
1E
100
AcDbEntity
  8
1
  6
Continuous
 62
     7
100
AcDbLine
 10
268.193324
 20
351.568806
 30
0.0
 11
268.2179259999999
 21
351.5535499999999
 31
0.0
  0
LINE
  5
5BC
330
1E
100
AcDbEntity
  8
1
  6
Continuous
 62
     7
100
AcDbLine
 10
268.2179259999999
 20
351.5535499999999
 30
0.0
 11
268.243446
 21
351.5390669999999
 31
0.0
  0
LINE
  5
5BD
330
1E
100
AcDbEntity
  8
1
  6
Continuous
 62
     7
100
AcDbLine
 10
268.243446
 20
351.5390669999999
 30
0.0
 11
268.2698349999999
 21
351.525385
 31
0.0
  0
LINE
  5
5BE
330
1E
100
AcDbEntity
  8
1
  6
Continuous
 62
     7
100
AcDbLine
 10
268.2698349999999
 20
351.525385
 30
0.0
 11
268.2970419999999
 21
351.5125299999999
 31
0.0
  0
LINE
  5
5BF
330
1E
100
AcDbEntity
  8
1
  6
Continuous
 62
     7
100
AcDbLine
 10
268.2970419999999
 20
351.5125299999999
 30
0.0
 11
268.3250169999999
 21
351.5005269999999
 31
0.0
  0
LINE
  5
5C0
330
1E
100
AcDbEntity
  8
1
  6
Continuous
 62
     7
100
AcDbLine
 10
268.3250169999999
 20
351.5005269999999
 30
0.0
 11
268.3537059999999
 21
351.489398
 31
0.0
  0
LINE
  5
5C1
330
1E
100
AcDbEntity
  8
1
  6
Continuous
 62
     7
100
AcDbLine
 10
268.3537059999999
 20
351.489398
 30
0.0
 11
268.3830529999999
 21
351.479164
 31
0.0
  0
LINE
  5
5C2
330
1E
100
AcDbEntity
  8
1
  6
Continuous
 62
     7
100
AcDbLine
 10
268.3830529999999
 20
351.479164
 30
0.0
 11
268.4130049999999
 21
351.469845
 31
0.0
  0
LINE
  5
5C3
330
1E
100
AcDbEntity
  8
1
  6
Continuous
 62
     7
100
AcDbLine
 10
268.4130049999999
 20
351.469845
 30
0.0
 11
268.443502
 21
351.4614589999999
 31
0.0
  0
LINE
  5
5C4
330
1E
100
AcDbEntity
  8
1
  6
Continuous
 62
     7
100
AcDbLine
 10
268.443502
 20
351.4614589999999
 30
0.0
 11
268.474488
 21
351.454021
 31
0.0
  0
LINE
  5
5C5
330
1E
100
AcDbEntity
  8
1
  6
Continuous
 62
     7
100
AcDbLine
 10
268.474488
 20
351.454021
 30
0.0
 11
268.505903
 21
351.447547
 31
0.0
  0
LINE
  5
5C6
330
1E
100
AcDbEntity
  8
1
  6
Continuous
 62
     7
100
AcDbLine
 10
268.505903
 20
351.447547
 30
0.0
 11
268.537687
 21
351.442047
 31
0.0
  0
LINE
  5
5C7
330
1E
100
AcDbEntity
  8
1
  6
Continuous
 62
     7
100
AcDbLine
 10
268.537687
 20
351.442047
 30
0.0
 11
268.5697809999999
 21
351.437533
 31
0.0
  0
LINE
  5
5C8
330
1E
100
AcDbEntity
  8
1
  6
Continuous
 62
     7
100
AcDbLine
 10
268.5697809999999
 20
351.437533
 30
0.0
 11
268.602122
 21
351.4340129999999
 31
0.0
  0
LINE
  5
5C9
330
1E
100
AcDbEntity
  8
1
  6
Continuous
 62
     7
100
AcDbLine
 10
268.602122
 20
351.4340129999999
 30
0.0
 11
268.63465
 21
351.4314939999999
 31
0.0
  0
LINE
  5
5CA
330
1E
100
AcDbEntity
  8
1
  6
Continuous
 62
     7
100
AcDbLine
 10
268.63465
 20
351.4314939999999
 30
0.0
 11
268.667303
 21
351.429981
 31
0.0
  0
LINE
  5
5CB
330
1E
100
AcDbEntity
  8
1
  6
Continuous
 62
     7
100
AcDbLine
 10
268.667303
 20
351.429981
 30
0.0
 11
268.700017
 21
351.4294759999999
 31
0.0
  0
LINE
  5
5CC
330
1E
100
AcDbEntity
  8
1
  6
Continuous
 62
     7
100
AcDbLine
 10
268.700017
 20
351.4294759999999
 30
0.0
 11
268.732732
 21
351.429981
 31
0.0
  0
LINE
  5
5CD
330
1E
100
AcDbEntity
  8
1
  6
Continuous
 62
     7
100
AcDbLine
 10
268.732732
 20
351.429981
 30
0.0
 11
268.7653839999999
 21
351.4314939999999
 31
0.0
  0
LINE
  5
5CE
330
1E
100
AcDbEntity
  8
1
  6
Continuous
 62
     7
100
AcDbLine
 10
268.7653839999999
 20
351.4314939999999
 30
0.0
 11
268.797912
 21
351.4340129999999
 31
0.0
  0
LINE
  5
5CF
330
1E
100
AcDbEntity
  8
1
  6
Continuous
 62
     7
100
AcDbLine
 10
268.797912
 20
351.4340129999999
 30
0.0
 11
268.8302529999999
 21
351.437533
 31
0.0
  0
LINE
  5
5D0
330
1E
100
AcDbEntity
  8
1
  6
Continuous
 62
     7
100
AcDbLine
 10
268.8302529999999
 20
351.437533
 30
0.0
 11
268.862347
 21
351.442047
 31
0.0
  0
LINE
  5
5D1
330
1E
100
AcDbEntity
  8
1
  6
Continuous
 62
     7
100
AcDbLine
 10
268.862347
 20
351.442047
 30
0.0
 11
268.894131
 21
351.447547
 31
0.0
  0
LINE
  5
5D2
330
1E
100
AcDbEntity
  8
1
  6
Continuous
 62
     7
100
AcDbLine
 10
268.894131
 20
351.447547
 30
0.0
 11
268.925546
 21
351.454021
 31
0.0
  0
LINE
  5
5D3
330
1E
100
AcDbEntity
  8
1
  6
Continuous
 62
     7
100
AcDbLine
 10
268.925546
 20
351.454021
 30
0.0
 11
268.9565319999999
 21
351.4614589999999
 31
0.0
  0
LINE
  5
5D4
330
1E
100
AcDbEntity
  8
1
  6
Continuous
 62
     7
100
AcDbLine
 10
268.9565319999999
 20
351.4614589999999
 30
0.0
 11
268.9870299999999
 21
351.469845
 31
0.0
  0
LINE
  5
5D5
330
1E
100
AcDbEntity
  8
1
  6
Continuous
 62
     7
100
AcDbLine
 10
268.9870299999999
 20
351.469845
 30
0.0
 11
269.0169809999999
 21
351.479164
 31
0.0
  0
LINE
  5
5D6
330
1E
100
AcDbEntity
  8
1
  6
Continuous
 62
     7
100
AcDbLine
 10
269.0169809999999
 20
351.479164
 30
0.0
 11
269.046329
 21
351.489397
 31
0.0
  0
LINE
  5
5D7
330
1E
100
AcDbEntity
  8
1
  6
Continuous
 62
     7
100
AcDbLine
 10
269.046329
 20
351.489397
 30
0.0
 11
269.075017
 21
351.5005269999999
 31
0.0
  0
LINE
  5
5D8
330
1E
100
AcDbEntity
  8
1
  6
Continuous
 62
     7
100
AcDbLine
 10
269.075017
 20
351.5005269999999
 30
0.0
 11
269.1029919999999
 21
351.5125299999999
 31
0.0
  0
LINE
  5
5D9
330
1E
100
AcDbEntity
  8
1
  6
Continuous
 62
     7
100
AcDbLine
 10
269.1029919999999
 20
351.5125299999999
 30
0.0
 11
269.1301989999999
 21
351.525385
 31
0.0
  0
LINE
  5
5DA
330
1E
100
AcDbEntity
  8
1
  6
Continuous
 62
     7
100
AcDbLine
 10
269.1301989999999
 20
351.525385
 30
0.0
 11
269.156588
 21
351.5390669999999
 31
0.0
  0
LINE
  5
5DB
330
1E
100
AcDbEntity
  8
1
  6
Continuous
 62
     7
100
AcDbLine
 10
269.156588
 20
351.5390669999999
 30
0.0
 11
269.182108
 21
351.553549
 31
0.0
  0
LINE
  5
5DC
330
1E
100
AcDbEntity
  8
1
  6
Continuous
 62
     7
100
AcDbLine
 10
269.182108
 20
351.553549
 30
0.0
 11
269.20671
 21
351.568806
 31
0.0
  0
LINE
  5
5DD
330
1E
100
AcDbEntity
  8
1
  6
Continuous
 62
     7
100
AcDbLine
 10
269.20671
 20
351.568806
 30
0.0
 11
269.230347
 21
351.584806
 31
0.0
  0
LINE
  5
5DE
330
1E
100
AcDbEntity
  8
1
  6
Continuous
 62
     7
100
AcDbLine
 10
269.230347
 20
351.584806
 30
0.0
 11
269.2529749999999
 21
351.60152
 31
0.0
  0
LINE
  5
5DF
330
1E
100
AcDbEntity
  8
1
  6
Continuous
 62
     7
100
AcDbLine
 10
269.2529749999999
 20
351.60152
 30
0.0
 11
269.27455
 21
351.618916
 31
0.0
  0
LINE
  5
5E0
330
1E
100
AcDbEntity
  8
1
  6
Continuous
 62
     7
100
AcDbLine
 10
269.27455
 20
351.618916
 30
0.0
 11
269.295032
 21
351.6369609999999
 31
0.0
  0
LINE
  5
5E1
330
1E
100
AcDbEntity
  8
1
  6
Continuous
 62
     7
100
AcDbLine
 10
269.295032
 20
351.6369609999999
 30
0.0
 11
269.314381
 21
351.655621
 31
0.0
  0
LINE
  5
5E2
330
1E
100
AcDbEntity
  8
1
  6
Continuous
 62
     7
100
AcDbLine
 10
269.314381
 20
351.655621
 30
0.0
 11
269.332561
 21
351.67486
 31
0.0
  0
LINE
  5
5E3
330
1E
100
AcDbEntity
  8
1
  6
Continuous
 62
     7
100
AcDbLine
 10
269.332561
 20
351.67486
 30
0.0
 11
269.349536
 21
351.694641
 31
0.0
  0
LINE
  5
5E4
330
1E
100
AcDbEntity
  8
1
  6
Continuous
 62
     7
100
AcDbLine
 10
269.349536
 20
351.694641
 30
0.0
 11
269.365275
 21
351.7149269999999
 31
0.0
  0
LINE
  5
5E5
330
1E
100
AcDbEntity
  8
1
  6
Continuous
 62
     7
100
AcDbLine
 10
269.365275
 20
351.7149269999999
 30
0.0
 11
269.379748
 21
351.735679
 31
0.0
  0
LINE
  5
5E6
330
1E
100
AcDbEntity
  8
1
  6
Continuous
 62
     7
100
AcDbLine
 10
269.379748
 20
351.735679
 30
0.0
 11
269.3929269999999
 21
351.7568569999999
 31
0.0
  0
LINE
  5
5E7
330
1E
100
AcDbEntity
  8
1
  6
Continuous
 62
     7
100
AcDbLine
 10
269.3929269999999
 20
351.7568569999999
 30
0.0
 11
269.4047869999999
 21
351.778422
 31
0.0
  0
LINE
  5
5E8
330
1E
100
AcDbEntity
  8
1
  6
Continuous
 62
     7
100
AcDbLine
 10
269.4047869999999
 20
351.778422
 30
0.0
 11
269.415305
 21
351.8003319999999
 31
0.0
  0
LINE
  5
5E9
330
1E
100
AcDbEntity
  8
1
  6
Continuous
 62
     7
100
AcDbLine
 10
269.415305
 20
351.8003319999999
 30
0.0
 11
269.424461
 21
351.822546
 31
0.0
  0
LINE
  5
5EA
330
1E
100
AcDbEntity
  8
1
  6
Continuous
 62
     7
100
AcDbLine
 10
269.424461
 20
351.822546
 30
0.0
 11
269.432239
 21
351.8450209999999
 31
0.0
  0
LINE
  5
5EB
330
1E
100
AcDbEntity
  8
1
  6
Continuous
 62
     7
100
AcDbLine
 10
269.432239
 20
351.8450209999999
 30
0.0
 11
269.438623
 21
351.8677149999999
 31
0.0
  0
LINE
  5
5EC
330
1E
100
AcDbEntity
  8
1
  6
Continuous
 62
     7
100
AcDbLine
 10
269.438623
 20
351.8677149999999
 30
0.0
 11
269.4436009999999
 21
351.8905839999999
 31
0.0
  0
LINE
  5
5ED
330
1E
100
AcDbEntity
  8
1
  6
Continuous
 62
     7
100
AcDbLine
 10
269.4436009999999
 20
351.8905839999999
 30
0.0
 11
269.4471629999999
 21
351.9135839999999
 31
0.0
  0
LINE
  5
5EE
330
1E
100
AcDbEntity
  8
1
  6
Continuous
 62
     7
100
AcDbLine
 10
269.4471629999999
 20
351.9135839999999
 30
0.0
 11
269.4493029999999
 21
351.9366729999999
 31
0.0
  0
LINE
  5
5EF
330
1E
100
AcDbEntity
  8
1
  6
Continuous
 62
     7
100
AcDbLine
 10
269.4493029999999
 20
351.9366729999999
 30
0.0
 11
269.4500169999999
 21
351.9598049999999
 31
0.0
  0
LINE
  5
5F0
330
1E
100
AcDbEntity
  8
1
  6
Continuous
 62
     7
100
AcDbLine
 10
269.4500169999999
 20
351.9598049999999
 30
0.0
 11
269.4493029999999
 21
351.982938
 31
0.0
  0
LINE
  5
5F1
330
1E
100
AcDbEntity
  8
1
  6
Continuous
 62
     7
100
AcDbLine
 10
269.4493029999999
 20
351.982938
 30
0.0
 11
269.4471629999999
 21
352.006027
 31
0.0
  0
LINE
  5
5F2
330
1E
100
AcDbEntity
  8
1
  6
Continuous
 62
     7
100
AcDbLine
 10
269.4471629999999
 20
352.006027
 30
0.0
 11
269.4436009999999
 21
352.0290269999999
 31
0.0
  0
LINE
  5
5F3
330
1E
100
AcDbEntity
  8
1
  6
Continuous
 62
     7
100
AcDbLine
 10
269.4436009999999
 20
352.0290269999999
 30
0.0
 11
269.438623
 21
352.0518959999999
 31
0.0
  0
LINE
  5
5F4
330
1E
100
AcDbEntity
  8
1
  6
Continuous
 62
     7
100
AcDbLine
 10
269.438623
 20
352.0518959999999
 30
0.0
 11
269.432239
 21
352.07459
 31
0.0
  0
LINE
  5
5F5
330
1E
100
AcDbEntity
  8
1
  6
Continuous
 62
     7
100
AcDbLine
 10
269.432239
 20
352.07459
 30
0.0
 11
269.424462
 21
352.0970649999999
 31
0.0
  0
LINE
  5
5F6
330
1E
100
AcDbEntity
  8
1
  6
Continuous
 62
     7
100
AcDbLine
 10
269.424462
 20
352.0970649999999
 30
0.0
 11
269.415305
 21
352.119279
 31
0.0
  0
LINE
  5
5F7
330
1E
100
AcDbEntity
  8
1
  6
Continuous
 62
     7
100
AcDbLine
 10
269.415305
 20
352.119279
 30
0.0
 11
269.4047869999999
 21
352.1411889999999
 31
0.0
  0
LINE
  5
5F8
330
1E
100
AcDbEntity
  8
1
  6
Continuous
 62
     7
100
AcDbLine
 10
269.4047869999999
 20
352.1411889999999
 30
0.0
 11
269.3929269999999
 21
352.162754
 31
0.0
  0
LINE
  5
5F9
330
1E
100
AcDbEntity
  8
1
  6
Continuous
 62
     7
100
AcDbLine
 10
269.3929269999999
 20
352.162754
 30
0.0
 11
269.379748
 21
352.183933
 31
0.0
  0
LINE
  5
5FA
330
1E
100
AcDbEntity
  8
1
  6
Continuous
 62
     7
100
AcDbLine
 10
269.379748
 20
352.183933
 30
0.0
 11
269.365275
 21
352.2046849999999
 31
0.0
  0
LINE
  5
5FB
330
1E
100
AcDbEntity
  8
1
  6
Continuous
 62
     7
100
AcDbLine
 10
269.365275
 20
352.2046849999999
 30
0.0
 11
269.349536
 21
352.22497
 31
0.0
  0
LINE
  5
5FC
330
1E
100
AcDbEntity
  8
1
  6
Continuous
 62
     7
100
AcDbLine
 10
269.349536
 20
352.22497
 30
0.0
 11
269.332561
 21
352.2447509999999
 31
0.0
  0
LINE
  5
5FD
330
1E
100
AcDbEntity
  8
1
  6
Continuous
 62
     7
100
AcDbLine
 10
269.332561
 20
352.2447509999999
 30
0.0
 11
269.314381
 21
352.2639899999999
 31
0.0
  0
LINE
  5
5FE
330
1E
100
AcDbEntity
  8
1
  6
Continuous
 62
     7
100
AcDbLine
 10
269.314381
 20
352.2639899999999
 30
0.0
 11
269.295032
 21
352.2826499999999
 31
0.0
  0
LINE
  5
5FF
330
1E
100
AcDbEntity
  8
1
  6
Continuous
 62
     7
100
AcDbLine
 10
269.295032
 20
352.2826499999999
 30
0.0
 11
269.2745509999999
 21
352.300695
 31
0.0
  0
LINE
  5
600
330
1E
100
AcDbEntity
  8
1
  6
Continuous
 62
     7
100
AcDbLine
 10
269.2745509999999
 20
352.300695
 30
0.0
 11
269.2529749999999
 21
352.318091
 31
0.0
  0
LINE
  5
601
330
1E
100
AcDbEntity
  8
1
  6
Continuous
 62
     7
100
AcDbLine
 10
269.2529749999999
 20
352.318091
 30
0.0
 11
269.230347
 21
352.3348049999999
 31
0.0
  0
LINE
  5
602
330
1E
100
AcDbEntity
  8
1
  6
Continuous
 62
     7
100
AcDbLine
 10
269.230347
 20
352.3348049999999
 30
0.0
 11
269.20671
 21
352.3508059999999
 31
0.0
  0
LINE
  5
603
330
1E
100
AcDbEntity
  8
1
  6
Continuous
 62
     7
100
AcDbLine
 10
269.20671
 20
352.3508059999999
 30
0.0
 11
269.182108
 21
352.366062
 31
0.0
  0
LINE
  5
604
330
1E
100
AcDbEntity
  8
1
  6
Continuous
 62
     7
100
AcDbLine
 10
269.182108
 20
352.366062
 30
0.0
 11
269.156588
 21
352.3805439999999
 31
0.0
  0
LINE
  5
605
330
1E
100
AcDbEntity
  8
1
  6
Continuous
 62
     7
100
AcDbLine
 10
269.156588
 20
352.3805439999999
 30
0.0
 11
269.1301989999999
 21
352.394226
 31
0.0
  0
LINE
  5
606
330
1E
100
AcDbEntity
  8
1
  6
Continuous
 62
     7
100
AcDbLine
 10
269.1301989999999
 20
352.394226
 30
0.0
 11
269.1029919999999
 21
352.4070809999999
 31
0.0
  0
LINE
  5
607
330
1E
100
AcDbEntity
  8
1
  6
Continuous
 62
     7
100
AcDbLine
 10
269.1029919999999
 20
352.4070809999999
 30
0.0
 11
269.075017
 21
352.419085
 31
0.0
  0
LINE
  5
608
330
1E
100
AcDbEntity
  8
1
  6
Continuous
 62
     7
100
AcDbLine
 10
269.075017
 20
352.419085
 30
0.0
 11
269.046329
 21
352.430214
 31
0.0
  0
LINE
  5
609
330
1E
100
AcDbEntity
  8
1
  6
Continuous
 62
     7
100
AcDbLine
 10
269.046329
 20
352.430214
 30
0.0
 11
269.0169809999999
 21
352.440448
 31
0.0
  0
LINE
  5
60A
330
1E
100
AcDbEntity
  8
1
  6
Continuous
 62
     7
100
AcDbLine
 10
269.0169809999999
 20
352.440448
 30
0.0
 11
268.9870299999999
 21
352.449766
 31
0.0
  0
LINE
  5
60B
330
1E
100
AcDbEntity
  8
1
  6
Continuous
 62
     7
100
AcDbLine
 10
268.9870299999999
 20
352.449766
 30
0.0
 11
268.9565319999999
 21
352.4581529999999
 31
0.0
  0
LINE
  5
60C
330
1E
100
AcDbEntity
  8
1
  6
Continuous
 62
     7
100
AcDbLine
 10
268.9565319999999
 20
352.4581529999999
 30
0.0
 11
268.925546
 21
352.4655899999999
 31
0.0
  0
LINE
  5
60D
330
1E
100
AcDbEntity
  8
1
  6
Continuous
 62
     7
100
AcDbLine
 10
268.925546
 20
352.4655899999999
 30
0.0
 11
268.894131
 21
352.4720649999999
 31
0.0
  0
LINE
  5
60E
330
1E
100
AcDbEntity
  8
1
  6
Continuous
 62
     7
100
AcDbLine
 10
268.894131
 20
352.4720649999999
 30
0.0
 11
268.862347
 21
352.477564
 31
0.0
  0
LINE
  5
60F
330
1E
100
AcDbEntity
  8
1
  6
Continuous
 62
     7
100
AcDbLine
 10
268.862347
 20
352.477564
 30
0.0
 11
268.8302529999999
 21
352.482078
 31
0.0
  0
LINE
  5
610
330
1E
100
AcDbEntity
  8
1
  6
Continuous
 62
     7
100
AcDbLine
 10
268.8302529999999
 20
352.482078
 30
0.0
 11
268.797912
 21
352.4855979999999
 31
0.0
  0
LINE
  5
611
330
1E
100
AcDbEntity
  8
1
  6
Continuous
 62
     7
100
AcDbLine
 10
268.797912
 20
352.4855979999999
 30
0.0
 11
268.7653839999999
 21
352.488117
 31
0.0
  0
LINE
  5
612
330
1E
100
AcDbEntity
  8
1
  6
Continuous
 62
     7
100
AcDbLine
 10
268.7653839999999
 20
352.488117
 30
0.0
 11
268.732732
 21
352.489631
 31
0.0
  0
LINE
  5
613
330
1E
100
AcDbEntity
  8
1
  6
Continuous
 62
     7
100
AcDbLine
 10
268.732732
 20
352.489631
 30
0.0
 11
268.700017
 21
352.490135
 31
0.0
  0
LINE
  5
614
330
1E
100
AcDbEntity
  8
1
  6
Continuous
 62
     7
100
AcDbLine
 10
268.700017
 20
352.490135
 30
0.0
 11
268.667303
 21
352.489631
 31
0.0
  0
LINE
  5
615
330
1E
100
AcDbEntity
  8
1
  6
Continuous
 62
     7
100
AcDbLine
 10
268.667303
 20
352.489631
 30
0.0
 11
268.63465
 21
352.488117
 31
0.0
  0
LINE
  5
616
330
1E
100
AcDbEntity
  8
1
  6
Continuous
 62
     7
100
AcDbLine
 10
268.63465
 20
352.488117
 30
0.0
 11
268.602122
 21
352.4855979999999
 31
0.0
  0
LINE
  5
617
330
1E
100
AcDbEntity
  8
1
  6
Continuous
 62
     7
100
AcDbLine
 10
268.602122
 20
352.4855979999999
 30
0.0
 11
268.5697809999999
 21
352.482079
 31
0.0
  0
LINE
  5
618
330
1E
100
AcDbEntity
  8
1
  6
Continuous
 62
     7
100
AcDbLine
 10
268.5697809999999
 20
352.482079
 30
0.0
 11
268.537687
 21
352.477564
 31
0.0
  0
LINE
  5
619
330
1E
100
AcDbEntity
  8
1
  6
Continuous
 62
     7
100
AcDbLine
 10
268.537687
 20
352.477564
 30
0.0
 11
268.505903
 21
352.4720649999999
 31
0.0
  0
LINE
  5
61A
330
1E
100
AcDbEntity
  8
1
  6
Continuous
 62
     7
100
AcDbLine
 10
268.505903
 20
352.4720649999999
 30
0.0
 11
268.474488
 21
352.4655899999999
 31
0.0
  0
LINE
  5
61B
330
1E
100
AcDbEntity
  8
1
  6
Continuous
 62
     7
100
AcDbLine
 10
268.474488
 20
352.4655899999999
 30
0.0
 11
268.443502
 21
352.4581529999999
 31
0.0
  0
LINE
  5
61C
330
1E
100
AcDbEntity
  8
1
  6
Continuous
 62
     7
100
AcDbLine
 10
268.443502
 20
352.4581529999999
 30
0.0
 11
268.4130039999999
 21
352.449766
 31
0.0
  0
LINE
  5
61D
330
1E
100
AcDbEntity
  8
1
  6
Continuous
 62
     7
100
AcDbLine
 10
268.4130039999999
 20
352.449766
 30
0.0
 11
268.3830529999999
 21
352.440448
 31
0.0
  0
LINE
  5
61E
330
1E
100
AcDbEntity
  8
1
  6
Continuous
 62
     7
100
AcDbLine
 10
268.3830529999999
 20
352.440448
 30
0.0
 11
268.3537059999999
 21
352.430214
 31
0.0
  0
LINE
  5
61F
330
1E
100
AcDbEntity
  8
1
  6
Continuous
 62
     7
100
AcDbLine
 10
268.3537059999999
 20
352.430214
 30
0.0
 11
268.3250169999999
 21
352.419085
 31
0.0
  0
LINE
  5
620
330
1E
100
AcDbEntity
  8
1
  6
Continuous
 62
     7
100
AcDbLine
 10
268.3250169999999
 20
352.419085
 30
0.0
 11
268.2970419999999
 21
352.4070809999999
 31
0.0
  0
LINE
  5
621
330
1E
100
AcDbEntity
  8
1
  6
Continuous
 62
     7
100
AcDbLine
 10
268.2970419999999
 20
352.4070809999999
 30
0.0
 11
268.2698349999999
 21
352.394226
 31
0.0
  0
LINE
  5
622
330
1E
100
AcDbEntity
  8
1
  6
Continuous
 62
     7
100
AcDbLine
 10
268.2698349999999
 20
352.394226
 30
0.0
 11
268.243446
 21
352.380545
 31
0.0
  0
LINE
  5
623
330
1E
100
AcDbEntity
  8
1
  6
Continuous
 62
     7
100
AcDbLine
 10
268.243446
 20
352.380545
 30
0.0
 11
268.2179259999999
 21
352.366062
 31
0.0
  0
LINE
  5
624
330
1E
100
AcDbEntity
  8
1
  6
Continuous
 62
     7
100
AcDbLine
 10
268.2179259999999
 20
352.366062
 30
0.0
 11
268.193324
 21
352.3508059999999
 31
0.0
  0
LINE
  5
625
330
1E
100
AcDbEntity
  8
1
  6
Continuous
 62
     7
100
AcDbLine
 10
268.193324
 20
352.3508059999999
 30
0.0
 11
268.169687
 21
352.3348049999999
 31
0.0
  0
LINE
  5
626
330
1E
100
AcDbEntity
  8
1
  6
Continuous
 62
     7
100
AcDbLine
 10
268.169687
 20
352.3348049999999
 30
0.0
 11
268.1470589999999
 21
352.318091
 31
0.0
  0
LINE
  5
627
330
1E
100
AcDbEntity
  8
1
  6
Continuous
 62
     7
100
AcDbLine
 10
268.1470589999999
 20
352.318091
 30
0.0
 11
268.1254839999999
 21
352.300695
 31
0.0
  0
LINE
  5
628
330
1E
100
AcDbEntity
  8
1
  6
Continuous
 62
     7
100
AcDbLine
 10
268.1254839999999
 20
352.300695
 30
0.0
 11
268.105002
 21
352.2826499999999
 31
0.0
  0
LINE
  5
629
330
1E
100
AcDbEntity
  8
1
  6
Continuous
 62
     7
100
AcDbLine
 10
268.105002
 20
352.2826499999999
 30
0.0
 11
268.0856529999999
 21
352.2639899999999
 31
0.0
  0
LINE
  5
62A
330
1E
100
AcDbEntity
  8
1
  6
Continuous
 62
     7
100
AcDbLine
 10
268.0856529999999
 20
352.2639899999999
 30
0.0
 11
268.067473
 21
352.244752
 31
0.0
  0
LINE
  5
62B
330
1E
100
AcDbEntity
  8
1
  6
Continuous
 62
     7
100
AcDbLine
 10
268.067473
 20
352.244752
 30
0.0
 11
268.050498
 21
352.224971
 31
0.0
  0
LINE
  5
62C
330
1E
100
AcDbEntity
  8
1
  6
Continuous
 62
     7
100
AcDbLine
 10
268.050498
 20
352.224971
 30
0.0
 11
268.034759
 21
352.2046849999999
 31
0.0
  0
LINE
  5
62D
330
1E
100
AcDbEntity
  8
1
  6
Continuous
 62
     7
100
AcDbLine
 10
268.034759
 20
352.2046849999999
 30
0.0
 11
268.020286
 21
352.183933
 31
0.0
  0
LINE
  5
62E
330
1E
100
AcDbEntity
  8
1
  6
Continuous
 62
     7
100
AcDbLine
 10
268.020286
 20
352.183933
 30
0.0
 11
268.0071069999999
 21
352.162754
 31
0.0
  0
LINE
  5
62F
330
1E
100
AcDbEntity
  8
1
  6
Continuous
 62
     7
100
AcDbLine
 10
268.0071069999999
 20
352.162754
 30
0.0
 11
267.9952469999999
 21
352.1411889999999
 31
0.0
  0
LINE
  5
630
330
1E
100
AcDbEntity
  8
1
  6
Continuous
 62
     7
100
AcDbLine
 10
267.9952469999999
 20
352.1411889999999
 30
0.0
 11
267.984729
 21
352.119279
 31
0.0
  0
LINE
  5
631
330
1E
100
AcDbEntity
  8
1
  6
Continuous
 62
     7
100
AcDbLine
 10
267.984729
 20
352.119279
 30
0.0
 11
267.975573
 21
352.0970649999999
 31
0.0
  0
LINE
  5
632
330
1E
100
AcDbEntity
  8
1
  6
Continuous
 62
     7
100
AcDbLine
 10
267.975573
 20
352.0970649999999
 30
0.0
 11
267.967795
 21
352.07459
 31
0.0
  0
LINE
  5
633
330
1E
100
AcDbEntity
  8
1
  6
Continuous
 62
     7
100
AcDbLine
 10
267.967795
 20
352.07459
 30
0.0
 11
267.961411
 21
352.0518959999999
 31
0.0
  0
LINE
  5
634
330
1E
100
AcDbEntity
  8
1
  6
Continuous
 62
     7
100
AcDbLine
 10
267.961411
 20
352.0518959999999
 30
0.0
 11
267.956433
 21
352.0290279999999
 31
0.0
  0
LINE
  5
635
330
1E
100
AcDbEntity
  8
1
  6
Continuous
 62
     7
100
AcDbLine
 10
267.956433
 20
352.0290279999999
 30
0.0
 11
267.952871
 21
352.006027
 31
0.0
  0
LINE
  5
636
330
1E
100
AcDbEntity
  8
1
  6
Continuous
 62
     7
100
AcDbLine
 10
267.952871
 20
352.006027
 30
0.0
 11
267.950731
 21
351.982938
 31
0.0
  0
LINE
  5
637
330
1E
100
AcDbEntity
  8
1
  6
Continuous
 62
     7
100
AcDbLine
 10
267.950731
 20
351.982938
 30
0.0
 11
267.950017
 21
351.959806
 31
0.0
  0
LINE
  5
638
330
1E
100
AcDbEntity
  8
1
  6
Continuous
 62
     7
100
AcDbLine
 10
267.950017
 20
351.3524319999999
 30
0.0
 11
267.950731
 21
351.329299
 31
0.0
  0
LINE
  5
639
330
1E
100
AcDbEntity
  8
1
  6
Continuous
 62
     7
100
AcDbLine
 10
267.950731
 20
351.329299
 30
0.0
 11
267.952871
 21
351.30621
 31
0.0
  0
LINE
  5
63A
330
1E
100
AcDbEntity
  8
1
  6
Continuous
 62
     7
100
AcDbLine
 10
267.952871
 20
351.30621
 30
0.0
 11
267.956433
 21
351.28321
 31
0.0
  0
LINE
  5
63B
330
1E
100
AcDbEntity
  8
1
  6
Continuous
 62
     7
100
AcDbLine
 10
267.956433
 20
351.28321
 30
0.0
 11
267.961411
 21
351.260341
 31
0.0
  0
LINE
  5
63C
330
1E
100
AcDbEntity
  8
1
  6
Continuous
 62
     7
100
AcDbLine
 10
267.961411
 20
351.260341
 30
0.0
 11
267.967795
 21
351.237647
 31
0.0
  0
LINE
  5
63D
330
1E
100
AcDbEntity
  8
1
  6
Continuous
 62
     7
100
AcDbLine
 10
267.967795
 20
351.237647
 30
0.0
 11
267.975573
 21
351.2151719999999
 31
0.0
  0
LINE
  5
63E
330
1E
100
AcDbEntity
  8
1
  6
Continuous
 62
     7
100
AcDbLine
 10
267.975573
 20
351.2151719999999
 30
0.0
 11
267.984729
 21
351.192958
 31
0.0
  0
LINE
  5
63F
330
1E
100
AcDbEntity
  8
1
  6
Continuous
 62
     7
100
AcDbLine
 10
267.984729
 20
351.192958
 30
0.0
 11
267.995248
 21
351.171048
 31
0.0
  0
LINE
  5
640
330
1E
100
AcDbEntity
  8
1
  6
Continuous
 62
     7
100
AcDbLine
 10
267.995248
 20
351.171048
 30
0.0
 11
268.0071069999999
 21
351.149483
 31
0.0
  0
LINE
  5
641
330
1E
100
AcDbEntity
  8
1
  6
Continuous
 62
     7
100
AcDbLine
 10
268.0071069999999
 20
351.149483
 30
0.0
 11
268.020286
 21
351.1283049999999
 31
0.0
  0
LINE
  5
642
330
1E
100
AcDbEntity
  8
1
  6
Continuous
 62
     7
100
AcDbLine
 10
268.020286
 20
351.1283049999999
 30
0.0
 11
268.034759
 21
351.1075529999999
 31
0.0
  0
LINE
  5
643
330
1E
100
AcDbEntity
  8
1
  6
Continuous
 62
     7
100
AcDbLine
 10
268.034759
 20
351.1075529999999
 30
0.0
 11
268.050498
 21
351.0872669999999
 31
0.0
  0
LINE
  5
644
330
1E
100
AcDbEntity
  8
1
  6
Continuous
 62
     7
100
AcDbLine
 10
268.050498
 20
351.0872669999999
 30
0.0
 11
268.067473
 21
351.0674859999999
 31
0.0
  0
LINE
  5
645
330
1E
100
AcDbEntity
  8
1
  6
Continuous
 62
     7
100
AcDbLine
 10
268.067473
 20
351.0674859999999
 30
0.0
 11
268.0856529999999
 21
351.0482469999999
 31
0.0
  0
LINE
  5
646
330
1E
100
AcDbEntity
  8
1
  6
Continuous
 62
     7
100
AcDbLine
 10
268.0856529999999
 20
351.0482469999999
 30
0.0
 11
268.105002
 21
351.029587
 31
0.0
  0
LINE
  5
647
330
1E
100
AcDbEntity
  8
1
  6
Continuous
 62
     7
100
AcDbLine
 10
268.105002
 20
351.029587
 30
0.0
 11
268.1254839999999
 21
351.011542
 31
0.0
  0
LINE
  5
648
330
1E
100
AcDbEntity
  8
1
  6
Continuous
 62
     7
100
AcDbLine
 10
268.1254839999999
 20
351.011542
 30
0.0
 11
268.1470589999999
 21
350.994146
 31
0.0
  0
LINE
  5
649
330
1E
100
AcDbEntity
  8
1
  6
Continuous
 62
     7
100
AcDbLine
 10
268.1470589999999
 20
350.994146
 30
0.0
 11
268.169687
 21
350.9774319999999
 31
0.0
  0
LINE
  5
64A
330
1E
100
AcDbEntity
  8
1
  6
Continuous
 62
     7
100
AcDbLine
 10
268.169687
 20
350.9774319999999
 30
0.0
 11
268.193324
 21
350.961432
 31
0.0
  0
LINE
  5
64B
330
1E
100
AcDbEntity
  8
1
  6
Continuous
 62
     7
100
AcDbLine
 10
268.193324
 20
350.961432
 30
0.0
 11
268.2179259999999
 21
350.9461759999999
 31
0.0
  0
LINE
  5
64C
330
1E
100
AcDbEntity
  8
1
  6
Continuous
 62
     7
100
AcDbLine
 10
268.2179259999999
 20
350.9461759999999
 30
0.0
 11
268.243446
 21
350.931693
 31
0.0
  0
LINE
  5
64D
330
1E
100
AcDbEntity
  8
1
  6
Continuous
 62
     7
100
AcDbLine
 10
268.243446
 20
350.931693
 30
0.0
 11
268.2698349999999
 21
350.9180109999999
 31
0.0
  0
LINE
  5
64E
330
1E
100
AcDbEntity
  8
1
  6
Continuous
 62
     7
100
AcDbLine
 10
268.2698349999999
 20
350.9180109999999
 30
0.0
 11
268.2970419999999
 21
350.905156
 31
0.0
  0
LINE
  5
64F
330
1E
100
AcDbEntity
  8
1
  6
Continuous
 62
     7
100
AcDbLine
 10
268.2970419999999
 20
350.905156
 30
0.0
 11
268.3250169999999
 21
350.8931529999999
 31
0.0
  0
LINE
  5
650
330
1E
100
AcDbEntity
  8
1
  6
Continuous
 62
     7
100
AcDbLine
 10
268.3250169999999
 20
350.8931529999999
 30
0.0
 11
268.3537059999999
 21
350.8820229999999
 31
0.0
  0
LINE
  5
651
330
1E
100
AcDbEntity
  8
1
  6
Continuous
 62
     7
100
AcDbLine
 10
268.3537059999999
 20
350.8820229999999
 30
0.0
 11
268.3830529999999
 21
350.8717899999999
 31
0.0
  0
LINE
  5
652
330
1E
100
AcDbEntity
  8
1
  6
Continuous
 62
     7
100
AcDbLine
 10
268.3830529999999
 20
350.8717899999999
 30
0.0
 11
268.4130039999999
 21
350.8624709999999
 31
0.0
  0
LINE
  5
653
330
1E
100
AcDbEntity
  8
1
  6
Continuous
 62
     7
100
AcDbLine
 10
268.4130039999999
 20
350.8624709999999
 30
0.0
 11
268.443502
 21
350.854085
 31
0.0
  0
LINE
  5
654
330
1E
100
AcDbEntity
  8
1
  6
Continuous
 62
     7
100
AcDbLine
 10
268.443502
 20
350.854085
 30
0.0
 11
268.474488
 21
350.846647
 31
0.0
  0
LINE
  5
655
330
1E
100
AcDbEntity
  8
1
  6
Continuous
 62
     7
100
AcDbLine
 10
268.474488
 20
350.846647
 30
0.0
 11
268.505903
 21
350.840173
 31
0.0
  0
LINE
  5
656
330
1E
100
AcDbEntity
  8
1
  6
Continuous
 62
     7
100
AcDbLine
 10
268.505903
 20
350.840173
 30
0.0
 11
268.537687
 21
350.8346729999999
 31
0.0
  0
LINE
  5
657
330
1E
100
AcDbEntity
  8
1
  6
Continuous
 62
     7
100
AcDbLine
 10
268.537687
 20
350.8346729999999
 30
0.0
 11
268.5697809999999
 21
350.8301589999999
 31
0.0
  0
LINE
  5
658
330
1E
100
AcDbEntity
  8
1
  6
Continuous
 62
     7
100
AcDbLine
 10
268.5697809999999
 20
350.8301589999999
 30
0.0
 11
268.602122
 21
350.826639
 31
0.0
  0
LINE
  5
659
330
1E
100
AcDbEntity
  8
1
  6
Continuous
 62
     7
100
AcDbLine
 10
268.602122
 20
350.826639
 30
0.0
 11
268.63465
 21
350.82412
 31
0.0
  0
LINE
  5
65A
330
1E
100
AcDbEntity
  8
1
  6
Continuous
 62
     7
100
AcDbLine
 10
268.63465
 20
350.82412
 30
0.0
 11
268.667303
 21
350.822607
 31
0.0
  0
LINE
  5
65B
330
1E
100
AcDbEntity
  8
1
  6
Continuous
 62
     7
100
AcDbLine
 10
268.667303
 20
350.822607
 30
0.0
 11
268.700017
 21
350.822102
 31
0.0
  0
LINE
  5
65C
330
1E
100
AcDbEntity
  8
1
  6
Continuous
 62
     7
100
AcDbLine
 10
268.700017
 20
350.822102
 30
0.0
 11
268.732732
 21
350.822607
 31
0.0
  0
LINE
  5
65D
330
1E
100
AcDbEntity
  8
1
  6
Continuous
 62
     7
100
AcDbLine
 10
268.732732
 20
350.822607
 30
0.0
 11
268.7653839999999
 21
350.82412
 31
0.0
  0
LINE
  5
65E
330
1E
100
AcDbEntity
  8
1
  6
Continuous
 62
     7
100
AcDbLine
 10
268.7653839999999
 20
350.82412
 30
0.0
 11
268.797912
 21
350.826639
 31
0.0
  0
LINE
  5
65F
330
1E
100
AcDbEntity
  8
1
  6
Continuous
 62
     7
100
AcDbLine
 10
268.797912
 20
350.826639
 30
0.0
 11
268.8302529999999
 21
350.8301589999999
 31
0.0
  0
LINE
  5
660
330
1E
100
AcDbEntity
  8
1
  6
Continuous
 62
     7
100
AcDbLine
 10
268.8302529999999
 20
350.8301589999999
 30
0.0
 11
268.862347
 21
350.8346729999999
 31
0.0
  0
LINE
  5
661
330
1E
100
AcDbEntity
  8
1
  6
Continuous
 62
     7
100
AcDbLine
 10
268.862347
 20
350.8346729999999
 30
0.0
 11
268.894131
 21
350.840172
 31
0.0
  0
LINE
  5
662
330
1E
100
AcDbEntity
  8
1
  6
Continuous
 62
     7
100
AcDbLine
 10
268.894131
 20
350.840172
 30
0.0
 11
268.925546
 21
350.846647
 31
0.0
  0
LINE
  5
663
330
1E
100
AcDbEntity
  8
1
  6
Continuous
 62
     7
100
AcDbLine
 10
268.925546
 20
350.846647
 30
0.0
 11
268.9565319999999
 21
350.854085
 31
0.0
  0
LINE
  5
664
330
1E
100
AcDbEntity
  8
1
  6
Continuous
 62
     7
100
AcDbLine
 10
268.9565319999999
 20
350.854085
 30
0.0
 11
268.9870299999999
 21
350.8624709999999
 31
0.0
  0
LINE
  5
665
330
1E
100
AcDbEntity
  8
1
  6
Continuous
 62
     7
100
AcDbLine
 10
268.9870299999999
 20
350.8624709999999
 30
0.0
 11
269.0169809999999
 21
350.8717899999999
 31
0.0
  0
LINE
  5
666
330
1E
100
AcDbEntity
  8
1
  6
Continuous
 62
     7
100
AcDbLine
 10
269.0169809999999
 20
350.8717899999999
 30
0.0
 11
269.046329
 21
350.8820229999999
 31
0.0
  0
LINE
  5
667
330
1E
100
AcDbEntity
  8
1
  6
Continuous
 62
     7
100
AcDbLine
 10
269.046329
 20
350.8820229999999
 30
0.0
 11
269.075017
 21
350.8931529999999
 31
0.0
  0
LINE
  5
668
330
1E
100
AcDbEntity
  8
1
  6
Continuous
 62
     7
100
AcDbLine
 10
269.075017
 20
350.8931529999999
 30
0.0
 11
269.1029919999999
 21
350.905156
 31
0.0
  0
LINE
  5
669
330
1E
100
AcDbEntity
  8
1
  6
Continuous
 62
     7
100
AcDbLine
 10
269.1029919999999
 20
350.905156
 30
0.0
 11
269.1301989999999
 21
350.9180109999999
 31
0.0
  0
LINE
  5
66A
330
1E
100
AcDbEntity
  8
1
  6
Continuous
 62
     7
100
AcDbLine
 10
269.1301989999999
 20
350.9180109999999
 30
0.0
 11
269.156588
 21
350.931693
 31
0.0
  0
LINE
  5
66B
330
1E
100
AcDbEntity
  8
1
  6
Continuous
 62
     7
100
AcDbLine
 10
269.156588
 20
350.931693
 30
0.0
 11
269.182108
 21
350.9461749999999
 31
0.0
  0
LINE
  5
66C
330
1E
100
AcDbEntity
  8
1
  6
Continuous
 62
     7
100
AcDbLine
 10
269.182108
 20
350.9461749999999
 30
0.0
 11
269.20671
 21
350.9614309999999
 31
0.0
  0
LINE
  5
66D
330
1E
100
AcDbEntity
  8
1
  6
Continuous
 62
     7
100
AcDbLine
 10
269.20671
 20
350.9614309999999
 30
0.0
 11
269.230347
 21
350.9774319999999
 31
0.0
  0
LINE
  5
66E
330
1E
100
AcDbEntity
  8
1
  6
Continuous
 62
     7
100
AcDbLine
 10
269.230347
 20
350.9774319999999
 30
0.0
 11
269.2529749999999
 21
350.994146
 31
0.0
  0
LINE
  5
66F
330
1E
100
AcDbEntity
  8
1
  6
Continuous
 62
     7
100
AcDbLine
 10
269.2529749999999
 20
350.994146
 30
0.0
 11
269.27455
 21
351.011542
 31
0.0
  0
LINE
  5
670
330
1E
100
AcDbEntity
  8
1
  6
Continuous
 62
     7
100
AcDbLine
 10
269.27455
 20
351.011542
 30
0.0
 11
269.295032
 21
351.029587
 31
0.0
  0
LINE
  5
671
330
1E
100
AcDbEntity
  8
1
  6
Continuous
 62
     7
100
AcDbLine
 10
269.295032
 20
351.029587
 30
0.0
 11
269.314381
 21
351.0482469999999
 31
0.0
  0
LINE
  5
672
330
1E
100
AcDbEntity
  8
1
  6
Continuous
 62
     7
100
AcDbLine
 10
269.314381
 20
351.0482469999999
 30
0.0
 11
269.332561
 21
351.0674859999999
 31
0.0
  0
LINE
  5
673
330
1E
100
AcDbEntity
  8
1
  6
Continuous
 62
     7
100
AcDbLine
 10
269.332561
 20
351.0674859999999
 30
0.0
 11
269.349536
 21
351.0872669999999
 31
0.0
  0
LINE
  5
674
330
1E
100
AcDbEntity
  8
1
  6
Continuous
 62
     7
100
AcDbLine
 10
269.349536
 20
351.0872669999999
 30
0.0
 11
269.365275
 21
351.1075519999999
 31
0.0
  0
LINE
  5
675
330
1E
100
AcDbEntity
  8
1
  6
Continuous
 62
     7
100
AcDbLine
 10
269.365275
 20
351.1075519999999
 30
0.0
 11
269.379748
 21
351.128304
 31
0.0
  0
LINE
  5
676
330
1E
100
AcDbEntity
  8
1
  6
Continuous
 62
     7
100
AcDbLine
 10
269.379748
 20
351.128304
 30
0.0
 11
269.3929269999999
 21
351.149483
 31
0.0
  0
LINE
  5
677
330
1E
100
AcDbEntity
  8
1
  6
Continuous
 62
     7
100
AcDbLine
 10
269.3929269999999
 20
351.149483
 30
0.0
 11
269.4047869999999
 21
351.171048
 31
0.0
  0
LINE
  5
678
330
1E
100
AcDbEntity
  8
1
  6
Continuous
 62
     7
100
AcDbLine
 10
269.4047869999999
 20
351.171048
 30
0.0
 11
269.415305
 21
351.192958
 31
0.0
  0
LINE
  5
679
330
1E
100
AcDbEntity
  8
1
  6
Continuous
 62
     7
100
AcDbLine
 10
269.415305
 20
351.192958
 30
0.0
 11
269.424461
 21
351.2151719999999
 31
0.0
  0
LINE
  5
67A
330
1E
100
AcDbEntity
  8
1
  6
Continuous
 62
     7
100
AcDbLine
 10
269.424461
 20
351.2151719999999
 30
0.0
 11
269.432239
 21
351.237647
 31
0.0
  0
LINE
  5
67B
330
1E
100
AcDbEntity
  8
1
  6
Continuous
 62
     7
100
AcDbLine
 10
269.432239
 20
351.237647
 30
0.0
 11
269.438623
 21
351.260341
 31
0.0
  0
LINE
  5
67C
330
1E
100
AcDbEntity
  8
1
  6
Continuous
 62
     7
100
AcDbLine
 10
269.438623
 20
351.260341
 30
0.0
 11
269.4436009999999
 21
351.28321
 31
0.0
  0
LINE
  5
67D
330
1E
100
AcDbEntity
  8
1
  6
Continuous
 62
     7
100
AcDbLine
 10
269.4436009999999
 20
351.28321
 30
0.0
 11
269.4471629999999
 21
351.30621
 31
0.0
  0
LINE
  5
67E
330
1E
100
AcDbEntity
  8
1
  6
Continuous
 62
     7
100
AcDbLine
 10
269.4471629999999
 20
351.30621
 30
0.0
 11
269.4493029999999
 21
351.329299
 31
0.0
  0
LINE
  5
67F
330
1E
100
AcDbEntity
  8
1
  6
Continuous
 62
     7
100
AcDbLine
 10
269.4493029999999
 20
351.329299
 30
0.0
 11
269.4500169999999
 21
351.352431
 31
0.0
  0
LINE
  5
680
330
1E
100
AcDbEntity
  8
1
  6
Continuous
 62
     7
100
AcDbLine
 10
267.950017
 20
351.9598029999999
 30
0.0
 11
267.950017
 21
351.3524319999999
 31
0.0
  0
LINE
  5
681
330
1E
100
AcDbEntity
  8
1
  6
Continuous
 62
     7
100
AcDbLine
 10
269.4500169999999
 20
351.9598029999999
 30
0.0
 11
269.4500169999999
 21
351.352426
 31
0.0
  0
LINE
  5
682
330
1E
100
AcDbEntity
  8
1
  6
Continuous
 62
     7
100
AcDbLine
 10
268.1703279999999
 20
343.200006
 30
0.0
 11
272.700016
 21
343.200006
 31
0.0
  0
LINE
  5
683
330
1E
100
AcDbEntity
  8
1
  6
Continuous
 62
     7
100
AcDbLine
 10
272.700047
 20
127.2
 30
0.0
 11
272.700047
 21
136.8
 31
0.0
  0
LINE
  5
684
330
1E
100
AcDbEntity
  8
1
  6
Continuous
 62
     7
100
AcDbLine
 10
272.700047
 20
136.8
 30
0.0
 11
260.000049
 21
136.8
 31
0.0
  0
LINE
  5
685
330
1E
100
AcDbEntity
  8
1
  6
Continuous
 62
     7
100
AcDbLine
 10
269.450049
 20
135.959799
 30
0.0
 11
269.450049
 21
135.9598
 31
0.0
  0
LINE
  5
686
330
1E
100
AcDbEntity
  8
1
  6
Continuous
 62
     7
100
AcDbLine
 10
267.950049
 20
135.9598
 30
0.0
 11
267.9507619999999
 21
135.9366669999999
 31
0.0
  0
LINE
  5
687
330
1E
100
AcDbEntity
  8
1
  6
Continuous
 62
     7
100
AcDbLine
 10
267.9507619999999
 20
135.9366669999999
 30
0.0
 11
267.9529019999999
 21
135.913578
 31
0.0
  0
LINE
  5
688
330
1E
100
AcDbEntity
  8
1
  6
Continuous
 62
     7
100
AcDbLine
 10
267.9529019999999
 20
135.913578
 30
0.0
 11
267.9564649999999
 21
135.890578
 31
0.0
  0
LINE
  5
689
330
1E
100
AcDbEntity
  8
1
  6
Continuous
 62
     7
100
AcDbLine
 10
267.9564649999999
 20
135.890578
 30
0.0
 11
267.961443
 21
135.867709
 31
0.0
  0
LINE
  5
68A
330
1E
100
AcDbEntity
  8
1
  6
Continuous
 62
     7
100
AcDbLine
 10
267.961443
 20
135.867709
 30
0.0
 11
267.967827
 21
135.8450149999999
 31
0.0
  0
LINE
  5
68B
330
1E
100
AcDbEntity
  8
1
  6
Continuous
 62
     7
100
AcDbLine
 10
267.967827
 20
135.8450149999999
 30
0.0
 11
267.975604
 21
135.82254
 31
0.0
  0
LINE
  5
68C
330
1E
100
AcDbEntity
  8
1
  6
Continuous
 62
     7
100
AcDbLine
 10
267.975604
 20
135.82254
 30
0.0
 11
267.9847609999999
 21
135.800327
 31
0.0
  0
LINE
  5
68D
330
1E
100
AcDbEntity
  8
1
  6
Continuous
 62
     7
100
AcDbLine
 10
267.9847609999999
 20
135.800327
 30
0.0
 11
267.9952789999999
 21
135.778416
 31
0.0
  0
LINE
  5
68E
330
1E
100
AcDbEntity
  8
1
  6
Continuous
 62
     7
100
AcDbLine
 10
267.9952789999999
 20
135.778416
 30
0.0
 11
268.007139
 21
135.756851
 31
0.0
  0
LINE
  5
68F
330
1E
100
AcDbEntity
  8
1
  6
Continuous
 62
     7
100
AcDbLine
 10
268.007139
 20
135.756851
 30
0.0
 11
268.020318
 21
135.735673
 31
0.0
  0
LINE
  5
690
330
1E
100
AcDbEntity
  8
1
  6
Continuous
 62
     7
100
AcDbLine
 10
268.020318
 20
135.735673
 30
0.0
 11
268.03479
 21
135.7149209999999
 31
0.0
  0
LINE
  5
691
330
1E
100
AcDbEntity
  8
1
  6
Continuous
 62
     7
100
AcDbLine
 10
268.03479
 20
135.7149209999999
 30
0.0
 11
268.0505299999999
 21
135.694635
 31
0.0
  0
LINE
  5
692
330
1E
100
AcDbEntity
  8
1
  6
Continuous
 62
     7
100
AcDbLine
 10
268.0505299999999
 20
135.694635
 30
0.0
 11
268.067505
 21
135.674854
 31
0.0
  0
LINE
  5
693
330
1E
100
AcDbEntity
  8
1
  6
Continuous
 62
     7
100
AcDbLine
 10
268.067505
 20
135.674854
 30
0.0
 11
268.085685
 21
135.6556149999999
 31
0.0
  0
LINE
  5
694
330
1E
100
AcDbEntity
  8
1
  6
Continuous
 62
     7
100
AcDbLine
 10
268.085685
 20
135.6556149999999
 30
0.0
 11
268.105034
 21
135.6369549999999
 31
0.0
  0
LINE
  5
695
330
1E
100
AcDbEntity
  8
1
  6
Continuous
 62
     7
100
AcDbLine
 10
268.105034
 20
135.6369549999999
 30
0.0
 11
268.125515
 21
135.6189099999999
 31
0.0
  0
LINE
  5
696
330
1E
100
AcDbEntity
  8
1
  6
Continuous
 62
     7
100
AcDbLine
 10
268.125515
 20
135.6189099999999
 30
0.0
 11
268.1470909999999
 21
135.6015139999999
 31
0.0
  0
LINE
  5
697
330
1E
100
AcDbEntity
  8
1
  6
Continuous
 62
     7
100
AcDbLine
 10
268.1470909999999
 20
135.6015139999999
 30
0.0
 11
268.169718
 21
135.5847999999999
 31
0.0
  0
LINE
  5
698
330
1E
100
AcDbEntity
  8
1
  6
Continuous
 62
     7
100
AcDbLine
 10
268.169718
 20
135.5847999999999
 30
0.0
 11
268.193356
 21
135.5688
 31
0.0
  0
LINE
  5
699
330
1E
100
AcDbEntity
  8
1
  6
Continuous
 62
     7
100
AcDbLine
 10
268.193356
 20
135.5688
 30
0.0
 11
268.217958
 21
135.5535439999999
 31
0.0
  0
LINE
  5
69A
330
1E
100
AcDbEntity
  8
1
  6
Continuous
 62
     7
100
AcDbLine
 10
268.217958
 20
135.5535439999999
 30
0.0
 11
268.2434779999999
 21
135.539061
 31
0.0
  0
LINE
  5
69B
330
1E
100
AcDbEntity
  8
1
  6
Continuous
 62
     7
100
AcDbLine
 10
268.2434779999999
 20
135.539061
 30
0.0
 11
268.269866
 21
135.525379
 31
0.0
  0
LINE
  5
69C
330
1E
100
AcDbEntity
  8
1
  6
Continuous
 62
     7
100
AcDbLine
 10
268.269866
 20
135.525379
 30
0.0
 11
268.297074
 21
135.5125239999999
 31
0.0
  0
LINE
  5
69D
330
1E
100
AcDbEntity
  8
1
  6
Continuous
 62
     7
100
AcDbLine
 10
268.297074
 20
135.5125239999999
 30
0.0
 11
268.325049
 21
135.5005209999999
 31
0.0
  0
LINE
  5
69E
330
1E
100
AcDbEntity
  8
1
  6
Continuous
 62
     7
100
AcDbLine
 10
268.325049
 20
135.5005209999999
 30
0.0
 11
268.353737
 21
135.4893919999999
 31
0.0
  0
LINE
  5
69F
330
1E
100
AcDbEntity
  8
1
  6
Continuous
 62
     7
100
AcDbLine
 10
268.353737
 20
135.4893919999999
 30
0.0
 11
268.383085
 21
135.479158
 31
0.0
  0
LINE
  5
6A0
330
1E
100
AcDbEntity
  8
1
  6
Continuous
 62
     7
100
AcDbLine
 10
268.383085
 20
135.479158
 30
0.0
 11
268.4130359999999
 21
135.4698389999999
 31
0.0
  0
LINE
  5
6A1
330
1E
100
AcDbEntity
  8
1
  6
Continuous
 62
     7
100
AcDbLine
 10
268.4130359999999
 20
135.4698389999999
 30
0.0
 11
268.4435329999999
 21
135.461453
 31
0.0
  0
LINE
  5
6A2
330
1E
100
AcDbEntity
  8
1
  6
Continuous
 62
     7
100
AcDbLine
 10
268.4435329999999
 20
135.461453
 30
0.0
 11
268.474519
 21
135.454015
 31
0.0
  0
LINE
  5
6A3
330
1E
100
AcDbEntity
  8
1
  6
Continuous
 62
     7
100
AcDbLine
 10
268.474519
 20
135.454015
 30
0.0
 11
268.5059339999999
 21
135.447541
 31
0.0
  0
LINE
  5
6A4
330
1E
100
AcDbEntity
  8
1
  6
Continuous
 62
     7
100
AcDbLine
 10
268.5059339999999
 20
135.447541
 30
0.0
 11
268.537719
 21
135.4420409999999
 31
0.0
  0
LINE
  5
6A5
330
1E
100
AcDbEntity
  8
1
  6
Continuous
 62
     7
100
AcDbLine
 10
268.537719
 20
135.4420409999999
 30
0.0
 11
268.569812
 21
135.437527
 31
0.0
  0
LINE
  5
6A6
330
1E
100
AcDbEntity
  8
1
  6
Continuous
 62
     7
100
AcDbLine
 10
268.569812
 20
135.437527
 30
0.0
 11
268.602154
 21
135.434007
 31
0.0
  0
LINE
  5
6A7
330
1E
100
AcDbEntity
  8
1
  6
Continuous
 62
     7
100
AcDbLine
 10
268.602154
 20
135.434007
 30
0.0
 11
268.634682
 21
135.4314879999999
 31
0.0
  0
LINE
  5
6A8
330
1E
100
AcDbEntity
  8
1
  6
Continuous
 62
     7
100
AcDbLine
 10
268.634682
 20
135.4314879999999
 30
0.0
 11
268.667334
 21
135.429975
 31
0.0
  0
LINE
  5
6A9
330
1E
100
AcDbEntity
  8
1
  6
Continuous
 62
     7
100
AcDbLine
 10
268.667334
 20
135.429975
 30
0.0
 11
268.700049
 21
135.42947
 31
0.0
  0
LINE
  5
6AA
330
1E
100
AcDbEntity
  8
1
  6
Continuous
 62
     7
100
AcDbLine
 10
268.700049
 20
135.42947
 30
0.0
 11
268.7327629999999
 21
135.429975
 31
0.0
  0
LINE
  5
6AB
330
1E
100
AcDbEntity
  8
1
  6
Continuous
 62
     7
100
AcDbLine
 10
268.7327629999999
 20
135.429975
 30
0.0
 11
268.765415
 21
135.4314879999999
 31
0.0
  0
LINE
  5
6AC
330
1E
100
AcDbEntity
  8
1
  6
Continuous
 62
     7
100
AcDbLine
 10
268.765415
 20
135.4314879999999
 30
0.0
 11
268.797943
 21
135.434007
 31
0.0
  0
LINE
  5
6AD
330
1E
100
AcDbEntity
  8
1
  6
Continuous
 62
     7
100
AcDbLine
 10
268.797943
 20
135.434007
 30
0.0
 11
268.8302849999999
 21
135.437527
 31
0.0
  0
LINE
  5
6AE
330
1E
100
AcDbEntity
  8
1
  6
Continuous
 62
     7
100
AcDbLine
 10
268.8302849999999
 20
135.437527
 30
0.0
 11
268.8623779999999
 21
135.4420409999999
 31
0.0
  0
LINE
  5
6AF
330
1E
100
AcDbEntity
  8
1
  6
Continuous
 62
     7
100
AcDbLine
 10
268.8623779999999
 20
135.4420409999999
 30
0.0
 11
268.8941629999999
 21
135.447541
 31
0.0
  0
LINE
  5
6B0
330
1E
100
AcDbEntity
  8
1
  6
Continuous
 62
     7
100
AcDbLine
 10
268.8941629999999
 20
135.447541
 30
0.0
 11
268.9255779999999
 21
135.454015
 31
0.0
  0
LINE
  5
6B1
330
1E
100
AcDbEntity
  8
1
  6
Continuous
 62
     7
100
AcDbLine
 10
268.9255779999999
 20
135.454015
 30
0.0
 11
268.956564
 21
135.461453
 31
0.0
  0
LINE
  5
6B2
330
1E
100
AcDbEntity
  8
1
  6
Continuous
 62
     7
100
AcDbLine
 10
268.956564
 20
135.461453
 30
0.0
 11
268.9870609999999
 21
135.4698389999999
 31
0.0
  0
LINE
  5
6B3
330
1E
100
AcDbEntity
  8
1
  6
Continuous
 62
     7
100
AcDbLine
 10
268.9870609999999
 20
135.4698389999999
 30
0.0
 11
269.017012
 21
135.479158
 31
0.0
  0
LINE
  5
6B4
330
1E
100
AcDbEntity
  8
1
  6
Continuous
 62
     7
100
AcDbLine
 10
269.017012
 20
135.479158
 30
0.0
 11
269.04636
 21
135.4893909999999
 31
0.0
  0
LINE
  5
6B5
330
1E
100
AcDbEntity
  8
1
  6
Continuous
 62
     7
100
AcDbLine
 10
269.04636
 20
135.4893909999999
 30
0.0
 11
269.075049
 21
135.5005209999999
 31
0.0
  0
LINE
  5
6B6
330
1E
100
AcDbEntity
  8
1
  6
Continuous
 62
     7
100
AcDbLine
 10
269.075049
 20
135.5005209999999
 30
0.0
 11
269.1030229999999
 21
135.5125239999999
 31
0.0
  0
LINE
  5
6B7
330
1E
100
AcDbEntity
  8
1
  6
Continuous
 62
     7
100
AcDbLine
 10
269.1030229999999
 20
135.5125239999999
 30
0.0
 11
269.1302309999999
 21
135.525379
 31
0.0
  0
LINE
  5
6B8
330
1E
100
AcDbEntity
  8
1
  6
Continuous
 62
     7
100
AcDbLine
 10
269.1302309999999
 20
135.525379
 30
0.0
 11
269.15662
 21
135.539061
 31
0.0
  0
LINE
  5
6B9
330
1E
100
AcDbEntity
  8
1
  6
Continuous
 62
     7
100
AcDbLine
 10
269.15662
 20
135.539061
 30
0.0
 11
269.182139
 21
135.5535429999999
 31
0.0
  0
LINE
  5
6BA
330
1E
100
AcDbEntity
  8
1
  6
Continuous
 62
     7
100
AcDbLine
 10
269.182139
 20
135.5535429999999
 30
0.0
 11
269.206741
 21
135.5688
 31
0.0
  0
LINE
  5
6BB
330
1E
100
AcDbEntity
  8
1
  6
Continuous
 62
     7
100
AcDbLine
 10
269.206741
 20
135.5688
 30
0.0
 11
269.230379
 21
135.5847999999999
 31
0.0
  0
LINE
  5
6BC
330
1E
100
AcDbEntity
  8
1
  6
Continuous
 62
     7
100
AcDbLine
 10
269.230379
 20
135.5847999999999
 30
0.0
 11
269.2530069999999
 21
135.6015139999999
 31
0.0
  0
LINE
  5
6BD
330
1E
100
AcDbEntity
  8
1
  6
Continuous
 62
     7
100
AcDbLine
 10
269.2530069999999
 20
135.6015139999999
 30
0.0
 11
269.274582
 21
135.6189099999999
 31
0.0
  0
LINE
  5
6BE
330
1E
100
AcDbEntity
  8
1
  6
Continuous
 62
     7
100
AcDbLine
 10
269.274582
 20
135.6189099999999
 30
0.0
 11
269.295064
 21
135.6369549999999
 31
0.0
  0
LINE
  5
6BF
330
1E
100
AcDbEntity
  8
1
  6
Continuous
 62
     7
100
AcDbLine
 10
269.295064
 20
135.6369549999999
 30
0.0
 11
269.3144129999999
 21
135.6556149999999
 31
0.0
  0
LINE
  5
6C0
330
1E
100
AcDbEntity
  8
1
  6
Continuous
 62
     7
100
AcDbLine
 10
269.3144129999999
 20
135.6556149999999
 30
0.0
 11
269.3325919999999
 21
135.674854
 31
0.0
  0
LINE
  5
6C1
330
1E
100
AcDbEntity
  8
1
  6
Continuous
 62
     7
100
AcDbLine
 10
269.3325919999999
 20
135.674854
 30
0.0
 11
269.349568
 21
135.694635
 31
0.0
  0
LINE
  5
6C2
330
1E
100
AcDbEntity
  8
1
  6
Continuous
 62
     7
100
AcDbLine
 10
269.349568
 20
135.694635
 30
0.0
 11
269.3653069999999
 21
135.7149209999999
 31
0.0
  0
LINE
  5
6C3
330
1E
100
AcDbEntity
  8
1
  6
Continuous
 62
     7
100
AcDbLine
 10
269.3653069999999
 20
135.7149209999999
 30
0.0
 11
269.379779
 21
135.735673
 31
0.0
  0
LINE
  5
6C4
330
1E
100
AcDbEntity
  8
1
  6
Continuous
 62
     7
100
AcDbLine
 10
269.379779
 20
135.735673
 30
0.0
 11
269.392958
 21
135.756851
 31
0.0
  0
LINE
  5
6C5
330
1E
100
AcDbEntity
  8
1
  6
Continuous
 62
     7
100
AcDbLine
 10
269.392958
 20
135.756851
 30
0.0
 11
269.404818
 21
135.778416
 31
0.0
  0
LINE
  5
6C6
330
1E
100
AcDbEntity
  8
1
  6
Continuous
 62
     7
100
AcDbLine
 10
269.404818
 20
135.778416
 30
0.0
 11
269.4153359999999
 21
135.800326
 31
0.0
  0
LINE
  5
6C7
330
1E
100
AcDbEntity
  8
1
  6
Continuous
 62
     7
100
AcDbLine
 10
269.4153359999999
 20
135.800326
 30
0.0
 11
269.424493
 21
135.82254
 31
0.0
  0
LINE
  5
6C8
330
1E
100
AcDbEntity
  8
1
  6
Continuous
 62
     7
100
AcDbLine
 10
269.424493
 20
135.82254
 30
0.0
 11
269.432271
 21
135.8450149999999
 31
0.0
  0
LINE
  5
6C9
330
1E
100
AcDbEntity
  8
1
  6
Continuous
 62
     7
100
AcDbLine
 10
269.432271
 20
135.8450149999999
 30
0.0
 11
269.4386539999999
 21
135.867709
 31
0.0
  0
LINE
  5
6CA
330
1E
100
AcDbEntity
  8
1
  6
Continuous
 62
     7
100
AcDbLine
 10
269.4386539999999
 20
135.867709
 30
0.0
 11
269.4436319999999
 21
135.890578
 31
0.0
  0
LINE
  5
6CB
330
1E
100
AcDbEntity
  8
1
  6
Continuous
 62
     7
100
AcDbLine
 10
269.4436319999999
 20
135.890578
 30
0.0
 11
269.447195
 21
135.913578
 31
0.0
  0
LINE
  5
6CC
330
1E
100
AcDbEntity
  8
1
  6
Continuous
 62
     7
100
AcDbLine
 10
269.447195
 20
135.913578
 30
0.0
 11
269.449335
 21
135.9366669999999
 31
0.0
  0
LINE
  5
6CD
330
1E
100
AcDbEntity
  8
1
  6
Continuous
 62
     7
100
AcDbLine
 10
269.449335
 20
135.9366669999999
 30
0.0
 11
269.450049
 21
135.959799
 31
0.0
  0
LINE
  5
6CE
330
1E
100
AcDbEntity
  8
1
  6
Continuous
 62
     7
100
AcDbLine
 10
269.450049
 20
135.959799
 30
0.0
 11
269.449335
 21
135.982932
 31
0.0
  0
LINE
  5
6CF
330
1E
100
AcDbEntity
  8
1
  6
Continuous
 62
     7
100
AcDbLine
 10
269.449335
 20
135.982932
 30
0.0
 11
269.447195
 21
136.006021
 31
0.0
  0
LINE
  5
6D0
330
1E
100
AcDbEntity
  8
1
  6
Continuous
 62
     7
100
AcDbLine
 10
269.447195
 20
136.006021
 30
0.0
 11
269.4436319999999
 21
136.029021
 31
0.0
  0
LINE
  5
6D1
330
1E
100
AcDbEntity
  8
1
  6
Continuous
 62
     7
100
AcDbLine
 10
269.4436319999999
 20
136.029021
 30
0.0
 11
269.4386539999999
 21
136.0518899999999
 31
0.0
  0
LINE
  5
6D2
330
1E
100
AcDbEntity
  8
1
  6
Continuous
 62
     7
100
AcDbLine
 10
269.4386539999999
 20
136.0518899999999
 30
0.0
 11
269.432271
 21
136.074584
 31
0.0
  0
LINE
  5
6D3
330
1E
100
AcDbEntity
  8
1
  6
Continuous
 62
     7
100
AcDbLine
 10
269.432271
 20
136.074584
 30
0.0
 11
269.424493
 21
136.0970589999999
 31
0.0
  0
LINE
  5
6D4
330
1E
100
AcDbEntity
  8
1
  6
Continuous
 62
     7
100
AcDbLine
 10
269.424493
 20
136.0970589999999
 30
0.0
 11
269.4153359999999
 21
136.1192729999999
 31
0.0
  0
LINE
  5
6D5
330
1E
100
AcDbEntity
  8
1
  6
Continuous
 62
     7
100
AcDbLine
 10
269.4153359999999
 20
136.1192729999999
 30
0.0
 11
269.404818
 21
136.141183
 31
0.0
  0
LINE
  5
6D6
330
1E
100
AcDbEntity
  8
1
  6
Continuous
 62
     7
100
AcDbLine
 10
269.404818
 20
136.141183
 30
0.0
 11
269.392958
 21
136.1627479999999
 31
0.0
  0
LINE
  5
6D7
330
1E
100
AcDbEntity
  8
1
  6
Continuous
 62
     7
100
AcDbLine
 10
269.392958
 20
136.1627479999999
 30
0.0
 11
269.37978
 21
136.183927
 31
0.0
  0
LINE
  5
6D8
330
1E
100
AcDbEntity
  8
1
  6
Continuous
 62
     7
100
AcDbLine
 10
269.37978
 20
136.183927
 30
0.0
 11
269.3653069999999
 21
136.2046789999999
 31
0.0
  0
LINE
  5
6D9
330
1E
100
AcDbEntity
  8
1
  6
Continuous
 62
     7
100
AcDbLine
 10
269.3653069999999
 20
136.2046789999999
 30
0.0
 11
269.349568
 21
136.2249639999999
 31
0.0
  0
LINE
  5
6DA
330
1E
100
AcDbEntity
  8
1
  6
Continuous
 62
     7
100
AcDbLine
 10
269.349568
 20
136.2249639999999
 30
0.0
 11
269.3325919999999
 21
136.244746
 31
0.0
  0
LINE
  5
6DB
330
1E
100
AcDbEntity
  8
1
  6
Continuous
 62
     7
100
AcDbLine
 10
269.3325919999999
 20
136.244746
 30
0.0
 11
269.3144129999999
 21
136.263984
 31
0.0
  0
LINE
  5
6DC
330
1E
100
AcDbEntity
  8
1
  6
Continuous
 62
     7
100
AcDbLine
 10
269.3144129999999
 20
136.263984
 30
0.0
 11
269.295064
 21
136.282644
 31
0.0
  0
LINE
  5
6DD
330
1E
100
AcDbEntity
  8
1
  6
Continuous
 62
     7
100
AcDbLine
 10
269.295064
 20
136.282644
 30
0.0
 11
269.274582
 21
136.3006889999999
 31
0.0
  0
LINE
  5
6DE
330
1E
100
AcDbEntity
  8
1
  6
Continuous
 62
     7
100
AcDbLine
 10
269.274582
 20
136.3006889999999
 30
0.0
 11
269.2530069999999
 21
136.3180849999999
 31
0.0
  0
LINE
  5
6DF
330
1E
100
AcDbEntity
  8
1
  6
Continuous
 62
     7
100
AcDbLine
 10
269.2530069999999
 20
136.3180849999999
 30
0.0
 11
269.230379
 21
136.334799
 31
0.0
  0
LINE
  5
6E0
330
1E
100
AcDbEntity
  8
1
  6
Continuous
 62
     7
100
AcDbLine
 10
269.230379
 20
136.334799
 30
0.0
 11
269.206741
 21
136.3507999999999
 31
0.0
  0
LINE
  5
6E1
330
1E
100
AcDbEntity
  8
1
  6
Continuous
 62
     7
100
AcDbLine
 10
269.206741
 20
136.3507999999999
 30
0.0
 11
269.182139
 21
136.366056
 31
0.0
  0
LINE
  5
6E2
330
1E
100
AcDbEntity
  8
1
  6
Continuous
 62
     7
100
AcDbLine
 10
269.182139
 20
136.366056
 30
0.0
 11
269.15662
 21
136.380538
 31
0.0
  0
LINE
  5
6E3
330
1E
100
AcDbEntity
  8
1
  6
Continuous
 62
     7
100
AcDbLine
 10
269.15662
 20
136.380538
 30
0.0
 11
269.1302309999999
 21
136.3942199999999
 31
0.0
  0
LINE
  5
6E4
330
1E
100
AcDbEntity
  8
1
  6
Continuous
 62
     7
100
AcDbLine
 10
269.1302309999999
 20
136.3942199999999
 30
0.0
 11
269.1030229999999
 21
136.4070749999999
 31
0.0
  0
LINE
  5
6E5
330
1E
100
AcDbEntity
  8
1
  6
Continuous
 62
     7
100
AcDbLine
 10
269.1030229999999
 20
136.4070749999999
 30
0.0
 11
269.075049
 21
136.419079
 31
0.0
  0
LINE
  5
6E6
330
1E
100
AcDbEntity
  8
1
  6
Continuous
 62
     7
100
AcDbLine
 10
269.075049
 20
136.419079
 30
0.0
 11
269.04636
 21
136.4302079999999
 31
0.0
  0
LINE
  5
6E7
330
1E
100
AcDbEntity
  8
1
  6
Continuous
 62
     7
100
AcDbLine
 10
269.04636
 20
136.4302079999999
 30
0.0
 11
269.017012
 21
136.4404419999999
 31
0.0
  0
LINE
  5
6E8
330
1E
100
AcDbEntity
  8
1
  6
Continuous
 62
     7
100
AcDbLine
 10
269.017012
 20
136.4404419999999
 30
0.0
 11
268.9870609999999
 21
136.4497599999999
 31
0.0
  0
LINE
  5
6E9
330
1E
100
AcDbEntity
  8
1
  6
Continuous
 62
     7
100
AcDbLine
 10
268.9870609999999
 20
136.4497599999999
 30
0.0
 11
268.956564
 21
136.458147
 31
0.0
  0
LINE
  5
6EA
330
1E
100
AcDbEntity
  8
1
  6
Continuous
 62
     7
100
AcDbLine
 10
268.956564
 20
136.458147
 30
0.0
 11
268.9255779999999
 21
136.465584
 31
0.0
  0
LINE
  5
6EB
330
1E
100
AcDbEntity
  8
1
  6
Continuous
 62
     7
100
AcDbLine
 10
268.9255779999999
 20
136.465584
 30
0.0
 11
268.8941629999999
 21
136.472059
 31
0.0
  0
LINE
  5
6EC
330
1E
100
AcDbEntity
  8
1
  6
Continuous
 62
     7
100
AcDbLine
 10
268.8941629999999
 20
136.472059
 30
0.0
 11
268.8623779999999
 21
136.477558
 31
0.0
  0
LINE
  5
6ED
330
1E
100
AcDbEntity
  8
1
  6
Continuous
 62
     7
100
AcDbLine
 10
268.8623779999999
 20
136.477558
 30
0.0
 11
268.8302849999999
 21
136.4820719999999
 31
0.0
  0
LINE
  5
6EE
330
1E
100
AcDbEntity
  8
1
  6
Continuous
 62
     7
100
AcDbLine
 10
268.8302849999999
 20
136.4820719999999
 30
0.0
 11
268.797943
 21
136.4855919999999
 31
0.0
  0
LINE
  5
6EF
330
1E
100
AcDbEntity
  8
1
  6
Continuous
 62
     7
100
AcDbLine
 10
268.797943
 20
136.4855919999999
 30
0.0
 11
268.765415
 21
136.488111
 31
0.0
  0
LINE
  5
6F0
330
1E
100
AcDbEntity
  8
1
  6
Continuous
 62
     7
100
AcDbLine
 10
268.765415
 20
136.488111
 30
0.0
 11
268.7327629999999
 21
136.4896249999999
 31
0.0
  0
LINE
  5
6F1
330
1E
100
AcDbEntity
  8
1
  6
Continuous
 62
     7
100
AcDbLine
 10
268.7327629999999
 20
136.4896249999999
 30
0.0
 11
268.700049
 21
136.4901289999999
 31
0.0
  0
LINE
  5
6F2
330
1E
100
AcDbEntity
  8
1
  6
Continuous
 62
     7
100
AcDbLine
 10
268.700049
 20
136.4901289999999
 30
0.0
 11
268.667334
 21
136.4896249999999
 31
0.0
  0
LINE
  5
6F3
330
1E
100
AcDbEntity
  8
1
  6
Continuous
 62
     7
100
AcDbLine
 10
268.667334
 20
136.4896249999999
 30
0.0
 11
268.634682
 21
136.488111
 31
0.0
  0
LINE
  5
6F4
330
1E
100
AcDbEntity
  8
1
  6
Continuous
 62
     7
100
AcDbLine
 10
268.634682
 20
136.488111
 30
0.0
 11
268.602154
 21
136.4855919999999
 31
0.0
  0
LINE
  5
6F5
330
1E
100
AcDbEntity
  8
1
  6
Continuous
 62
     7
100
AcDbLine
 10
268.602154
 20
136.4855919999999
 30
0.0
 11
268.569812
 21
136.4820729999999
 31
0.0
  0
LINE
  5
6F6
330
1E
100
AcDbEntity
  8
1
  6
Continuous
 62
     7
100
AcDbLine
 10
268.569812
 20
136.4820729999999
 30
0.0
 11
268.537719
 21
136.477559
 31
0.0
  0
LINE
  5
6F7
330
1E
100
AcDbEntity
  8
1
  6
Continuous
 62
     7
100
AcDbLine
 10
268.537719
 20
136.477559
 30
0.0
 11
268.5059339999999
 21
136.472059
 31
0.0
  0
LINE
  5
6F8
330
1E
100
AcDbEntity
  8
1
  6
Continuous
 62
     7
100
AcDbLine
 10
268.5059339999999
 20
136.472059
 30
0.0
 11
268.474519
 21
136.465584
 31
0.0
  0
LINE
  5
6F9
330
1E
100
AcDbEntity
  8
1
  6
Continuous
 62
     7
100
AcDbLine
 10
268.474519
 20
136.465584
 30
0.0
 11
268.4435329999999
 21
136.458147
 31
0.0
  0
LINE
  5
6FA
330
1E
100
AcDbEntity
  8
1
  6
Continuous
 62
     7
100
AcDbLine
 10
268.4435329999999
 20
136.458147
 30
0.0
 11
268.4130359999999
 21
136.449761
 31
0.0
  0
LINE
  5
6FB
330
1E
100
AcDbEntity
  8
1
  6
Continuous
 62
     7
100
AcDbLine
 10
268.4130359999999
 20
136.449761
 30
0.0
 11
268.383085
 21
136.4404419999999
 31
0.0
  0
LINE
  5
6FC
330
1E
100
AcDbEntity
  8
1
  6
Continuous
 62
     7
100
AcDbLine
 10
268.383085
 20
136.4404419999999
 30
0.0
 11
268.353737
 21
136.4302079999999
 31
0.0
  0
LINE
  5
6FD
330
1E
100
AcDbEntity
  8
1
  6
Continuous
 62
     7
100
AcDbLine
 10
268.353737
 20
136.4302079999999
 30
0.0
 11
268.3250479999999
 21
136.419079
 31
0.0
  0
LINE
  5
6FE
330
1E
100
AcDbEntity
  8
1
  6
Continuous
 62
     7
100
AcDbLine
 10
268.3250479999999
 20
136.419079
 30
0.0
 11
268.297074
 21
136.4070749999999
 31
0.0
  0
LINE
  5
6FF
330
1E
100
AcDbEntity
  8
1
  6
Continuous
 62
     7
100
AcDbLine
 10
268.297074
 20
136.4070749999999
 30
0.0
 11
268.269866
 21
136.3942199999999
 31
0.0
  0
LINE
  5
700
330
1E
100
AcDbEntity
  8
1
  6
Continuous
 62
     7
100
AcDbLine
 10
268.269866
 20
136.3942199999999
 30
0.0
 11
268.2434769999999
 21
136.380539
 31
0.0
  0
LINE
  5
701
330
1E
100
AcDbEntity
  8
1
  6
Continuous
 62
     7
100
AcDbLine
 10
268.2434769999999
 20
136.380539
 30
0.0
 11
268.217958
 21
136.366056
 31
0.0
  0
LINE
  5
702
330
1E
100
AcDbEntity
  8
1
  6
Continuous
 62
     7
100
AcDbLine
 10
268.217958
 20
136.366056
 30
0.0
 11
268.193356
 21
136.3507999999999
 31
0.0
  0
LINE
  5
703
330
1E
100
AcDbEntity
  8
1
  6
Continuous
 62
     7
100
AcDbLine
 10
268.193356
 20
136.3507999999999
 30
0.0
 11
268.169718
 21
136.334799
 31
0.0
  0
LINE
  5
704
330
1E
100
AcDbEntity
  8
1
  6
Continuous
 62
     7
100
AcDbLine
 10
268.169718
 20
136.334799
 30
0.0
 11
268.1470899999999
 21
136.3180849999999
 31
0.0
  0
LINE
  5
705
330
1E
100
AcDbEntity
  8
1
  6
Continuous
 62
     7
100
AcDbLine
 10
268.1470899999999
 20
136.3180849999999
 30
0.0
 11
268.125515
 21
136.3006889999999
 31
0.0
  0
LINE
  5
706
330
1E
100
AcDbEntity
  8
1
  6
Continuous
 62
     7
100
AcDbLine
 10
268.125515
 20
136.3006889999999
 30
0.0
 11
268.105033
 21
136.282644
 31
0.0
  0
LINE
  5
707
330
1E
100
AcDbEntity
  8
1
  6
Continuous
 62
     7
100
AcDbLine
 10
268.105033
 20
136.282644
 30
0.0
 11
268.0856839999999
 21
136.263984
 31
0.0
  0
LINE
  5
708
330
1E
100
AcDbEntity
  8
1
  6
Continuous
 62
     7
100
AcDbLine
 10
268.0856839999999
 20
136.263984
 30
0.0
 11
268.067505
 21
136.244746
 31
0.0
  0
LINE
  5
709
330
1E
100
AcDbEntity
  8
1
  6
Continuous
 62
     7
100
AcDbLine
 10
268.067505
 20
136.244746
 30
0.0
 11
268.0505289999999
 21
136.224965
 31
0.0
  0
LINE
  5
70A
330
1E
100
AcDbEntity
  8
1
  6
Continuous
 62
     7
100
AcDbLine
 10
268.0505289999999
 20
136.224965
 30
0.0
 11
268.03479
 21
136.2046789999999
 31
0.0
  0
LINE
  5
70B
330
1E
100
AcDbEntity
  8
1
  6
Continuous
 62
     7
100
AcDbLine
 10
268.03479
 20
136.2046789999999
 30
0.0
 11
268.020318
 21
136.183927
 31
0.0
  0
LINE
  5
70C
330
1E
100
AcDbEntity
  8
1
  6
Continuous
 62
     7
100
AcDbLine
 10
268.020318
 20
136.183927
 30
0.0
 11
268.007139
 21
136.1627479999999
 31
0.0
  0
LINE
  5
70D
330
1E
100
AcDbEntity
  8
1
  6
Continuous
 62
     7
100
AcDbLine
 10
268.007139
 20
136.1627479999999
 30
0.0
 11
267.9952789999999
 21
136.141183
 31
0.0
  0
LINE
  5
70E
330
1E
100
AcDbEntity
  8
1
  6
Continuous
 62
     7
100
AcDbLine
 10
267.9952789999999
 20
136.141183
 30
0.0
 11
267.9847609999999
 21
136.1192729999999
 31
0.0
  0
LINE
  5
70F
330
1E
100
AcDbEntity
  8
1
  6
Continuous
 62
     7
100
AcDbLine
 10
267.9847609999999
 20
136.1192729999999
 30
0.0
 11
267.975604
 21
136.0970589999999
 31
0.0
  0
LINE
  5
710
330
1E
100
AcDbEntity
  8
1
  6
Continuous
 62
     7
100
AcDbLine
 10
267.975604
 20
136.0970589999999
 30
0.0
 11
267.967826
 21
136.074584
 31
0.0
  0
LINE
  5
711
330
1E
100
AcDbEntity
  8
1
  6
Continuous
 62
     7
100
AcDbLine
 10
267.967826
 20
136.074584
 30
0.0
 11
267.961443
 21
136.0518909999999
 31
0.0
  0
LINE
  5
712
330
1E
100
AcDbEntity
  8
1
  6
Continuous
 62
     7
100
AcDbLine
 10
267.961443
 20
136.0518909999999
 30
0.0
 11
267.9564649999999
 21
136.0290219999999
 31
0.0
  0
LINE
  5
713
330
1E
100
AcDbEntity
  8
1
  6
Continuous
 62
     7
100
AcDbLine
 10
267.9564649999999
 20
136.0290219999999
 30
0.0
 11
267.9529019999999
 21
136.006021
 31
0.0
  0
LINE
  5
714
330
1E
100
AcDbEntity
  8
1
  6
Continuous
 62
     7
100
AcDbLine
 10
267.9529019999999
 20
136.006021
 30
0.0
 11
267.9507619999999
 21
135.982932
 31
0.0
  0
LINE
  5
715
330
1E
100
AcDbEntity
  8
1
  6
Continuous
 62
     7
100
AcDbLine
 10
267.9507619999999
 20
135.982932
 30
0.0
 11
267.950049
 21
135.9598
 31
0.0
  0
LINE
  5
716
330
1E
100
AcDbEntity
  8
1
  6
Continuous
 62
     7
100
AcDbLine
 10
267.9500479999999
 20
135.352426
 30
0.0
 11
267.9507619999999
 21
135.329293
 31
0.0
  0
LINE
  5
717
330
1E
100
AcDbEntity
  8
1
  6
Continuous
 62
     7
100
AcDbLine
 10
267.9507619999999
 20
135.329293
 30
0.0
 11
267.9529019999999
 21
135.306204
 31
0.0
  0
LINE
  5
718
330
1E
100
AcDbEntity
  8
1
  6
Continuous
 62
     7
100
AcDbLine
 10
267.9529019999999
 20
135.306204
 30
0.0
 11
267.9564649999999
 21
135.283204
 31
0.0
  0
LINE
  5
719
330
1E
100
AcDbEntity
  8
1
  6
Continuous
 62
     7
100
AcDbLine
 10
267.9564649999999
 20
135.283204
 30
0.0
 11
267.961443
 21
135.260335
 31
0.0
  0
LINE
  5
71A
330
1E
100
AcDbEntity
  8
1
  6
Continuous
 62
     7
100
AcDbLine
 10
267.961443
 20
135.260335
 30
0.0
 11
267.967827
 21
135.2376409999999
 31
0.0
  0
LINE
  5
71B
330
1E
100
AcDbEntity
  8
1
  6
Continuous
 62
     7
100
AcDbLine
 10
267.967827
 20
135.2376409999999
 30
0.0
 11
267.975604
 21
135.2151659999999
 31
0.0
  0
LINE
  5
71C
330
1E
100
AcDbEntity
  8
1
  6
Continuous
 62
     7
100
AcDbLine
 10
267.975604
 20
135.2151659999999
 30
0.0
 11
267.9847609999999
 21
135.1929519999999
 31
0.0
  0
LINE
  5
71D
330
1E
100
AcDbEntity
  8
1
  6
Continuous
 62
     7
100
AcDbLine
 10
267.9847609999999
 20
135.1929519999999
 30
0.0
 11
267.9952789999999
 21
135.171042
 31
0.0
  0
LINE
  5
71E
330
1E
100
AcDbEntity
  8
1
  6
Continuous
 62
     7
100
AcDbLine
 10
267.9952789999999
 20
135.171042
 30
0.0
 11
268.007139
 21
135.1494769999999
 31
0.0
  0
LINE
  5
71F
330
1E
100
AcDbEntity
  8
1
  6
Continuous
 62
     7
100
AcDbLine
 10
268.007139
 20
135.1494769999999
 30
0.0
 11
268.020318
 21
135.128299
 31
0.0
  0
LINE
  5
720
330
1E
100
AcDbEntity
  8
1
  6
Continuous
 62
     7
100
AcDbLine
 10
268.020318
 20
135.128299
 30
0.0
 11
268.03479
 21
135.107547
 31
0.0
  0
LINE
  5
721
330
1E
100
AcDbEntity
  8
1
  6
Continuous
 62
     7
100
AcDbLine
 10
268.03479
 20
135.107547
 30
0.0
 11
268.0505289999999
 21
135.087261
 31
0.0
  0
LINE
  5
722
330
1E
100
AcDbEntity
  8
1
  6
Continuous
 62
     7
100
AcDbLine
 10
268.0505289999999
 20
135.087261
 30
0.0
 11
268.067505
 21
135.06748
 31
0.0
  0
LINE
  5
723
330
1E
100
AcDbEntity
  8
1
  6
Continuous
 62
     7
100
AcDbLine
 10
268.067505
 20
135.06748
 30
0.0
 11
268.085685
 21
135.0482409999999
 31
0.0
  0
LINE
  5
724
330
1E
100
AcDbEntity
  8
1
  6
Continuous
 62
     7
100
AcDbLine
 10
268.085685
 20
135.0482409999999
 30
0.0
 11
268.105034
 21
135.029581
 31
0.0
  0
LINE
  5
725
330
1E
100
AcDbEntity
  8
1
  6
Continuous
 62
     7
100
AcDbLine
 10
268.105034
 20
135.029581
 30
0.0
 11
268.125515
 21
135.0115359999999
 31
0.0
  0
LINE
  5
726
330
1E
100
AcDbEntity
  8
1
  6
Continuous
 62
     7
100
AcDbLine
 10
268.125515
 20
135.0115359999999
 30
0.0
 11
268.1470909999999
 21
134.9941399999999
 31
0.0
  0
LINE
  5
727
330
1E
100
AcDbEntity
  8
1
  6
Continuous
 62
     7
100
AcDbLine
 10
268.1470909999999
 20
134.9941399999999
 30
0.0
 11
268.169718
 21
134.977426
 31
0.0
  0
LINE
  5
728
330
1E
100
AcDbEntity
  8
1
  6
Continuous
 62
     7
100
AcDbLine
 10
268.169718
 20
134.977426
 30
0.0
 11
268.193356
 21
134.9614259999999
 31
0.0
  0
LINE
  5
729
330
1E
100
AcDbEntity
  8
1
  6
Continuous
 62
     7
100
AcDbLine
 10
268.193356
 20
134.9614259999999
 30
0.0
 11
268.217958
 21
134.9461699999999
 31
0.0
  0
LINE
  5
72A
330
1E
100
AcDbEntity
  8
1
  6
Continuous
 62
     7
100
AcDbLine
 10
268.217958
 20
134.9461699999999
 30
0.0
 11
268.2434769999999
 21
134.931687
 31
0.0
  0
LINE
  5
72B
330
1E
100
AcDbEntity
  8
1
  6
Continuous
 62
     7
100
AcDbLine
 10
268.2434769999999
 20
134.931687
 30
0.0
 11
268.269866
 21
134.9180049999999
 31
0.0
  0
LINE
  5
72C
330
1E
100
AcDbEntity
  8
1
  6
Continuous
 62
     7
100
AcDbLine
 10
268.269866
 20
134.9180049999999
 30
0.0
 11
268.297074
 21
134.9051499999999
 31
0.0
  0
LINE
  5
72D
330
1E
100
AcDbEntity
  8
1
  6
Continuous
 62
     7
100
AcDbLine
 10
268.297074
 20
134.9051499999999
 30
0.0
 11
268.325049
 21
134.8931469999999
 31
0.0
  0
LINE
  5
72E
330
1E
100
AcDbEntity
  8
1
  6
Continuous
 62
     7
100
AcDbLine
 10
268.325049
 20
134.8931469999999
 30
0.0
 11
268.353737
 21
134.8820179999999
 31
0.0
  0
LINE
  5
72F
330
1E
100
AcDbEntity
  8
1
  6
Continuous
 62
     7
100
AcDbLine
 10
268.353737
 20
134.8820179999999
 30
0.0
 11
268.383085
 21
134.871784
 31
0.0
  0
LINE
  5
730
330
1E
100
AcDbEntity
  8
1
  6
Continuous
 62
     7
100
AcDbLine
 10
268.383085
 20
134.871784
 30
0.0
 11
268.4130359999999
 21
134.8624649999999
 31
0.0
  0
LINE
  5
731
330
1E
100
AcDbEntity
  8
1
  6
Continuous
 62
     7
100
AcDbLine
 10
268.4130359999999
 20
134.8624649999999
 30
0.0
 11
268.4435329999999
 21
134.854079
 31
0.0
  0
LINE
  5
732
330
1E
100
AcDbEntity
  8
1
  6
Continuous
 62
     7
100
AcDbLine
 10
268.4435329999999
 20
134.854079
 30
0.0
 11
268.474519
 21
134.846641
 31
0.0
  0
LINE
  5
733
330
1E
100
AcDbEntity
  8
1
  6
Continuous
 62
     7
100
AcDbLine
 10
268.474519
 20
134.846641
 30
0.0
 11
268.5059339999999
 21
134.8401669999999
 31
0.0
  0
LINE
  5
734
330
1E
100
AcDbEntity
  8
1
  6
Continuous
 62
     7
100
AcDbLine
 10
268.5059339999999
 20
134.8401669999999
 30
0.0
 11
268.537719
 21
134.8346669999999
 31
0.0
  0
LINE
  5
735
330
1E
100
AcDbEntity
  8
1
  6
Continuous
 62
     7
100
AcDbLine
 10
268.537719
 20
134.8346669999999
 30
0.0
 11
268.569812
 21
134.830153
 31
0.0
  0
LINE
  5
736
330
1E
100
AcDbEntity
  8
1
  6
Continuous
 62
     7
100
AcDbLine
 10
268.569812
 20
134.830153
 30
0.0
 11
268.602154
 21
134.826633
 31
0.0
  0
LINE
  5
737
330
1E
100
AcDbEntity
  8
1
  6
Continuous
 62
     7
100
AcDbLine
 10
268.602154
 20
134.826633
 30
0.0
 11
268.634682
 21
134.8241139999999
 31
0.0
  0
LINE
  5
738
330
1E
100
AcDbEntity
  8
1
  6
Continuous
 62
     7
100
AcDbLine
 10
268.634682
 20
134.8241139999999
 30
0.0
 11
268.667334
 21
134.8226009999999
 31
0.0
  0
LINE
  5
739
330
1E
100
AcDbEntity
  8
1
  6
Continuous
 62
     7
100
AcDbLine
 10
268.667334
 20
134.8226009999999
 30
0.0
 11
268.700049
 21
134.8220959999999
 31
0.0
  0
LINE
  5
73A
330
1E
100
AcDbEntity
  8
1
  6
Continuous
 62
     7
100
AcDbLine
 10
268.700049
 20
134.8220959999999
 30
0.0
 11
268.7327629999999
 21
134.8226009999999
 31
0.0
  0
LINE
  5
73B
330
1E
100
AcDbEntity
  8
1
  6
Continuous
 62
     7
100
AcDbLine
 10
268.7327629999999
 20
134.8226009999999
 30
0.0
 11
268.765415
 21
134.8241139999999
 31
0.0
  0
LINE
  5
73C
330
1E
100
AcDbEntity
  8
1
  6
Continuous
 62
     7
100
AcDbLine
 10
268.765415
 20
134.8241139999999
 30
0.0
 11
268.797943
 21
134.826633
 31
0.0
  0
LINE
  5
73D
330
1E
100
AcDbEntity
  8
1
  6
Continuous
 62
     7
100
AcDbLine
 10
268.797943
 20
134.826633
 30
0.0
 11
268.8302849999999
 21
134.830153
 31
0.0
  0
LINE
  5
73E
330
1E
100
AcDbEntity
  8
1
  6
Continuous
 62
     7
100
AcDbLine
 10
268.8302849999999
 20
134.830153
 30
0.0
 11
268.8623779999999
 21
134.8346669999999
 31
0.0
  0
LINE
  5
73F
330
1E
100
AcDbEntity
  8
1
  6
Continuous
 62
     7
100
AcDbLine
 10
268.8623779999999
 20
134.8346669999999
 30
0.0
 11
268.8941629999999
 21
134.8401659999999
 31
0.0
  0
LINE
  5
740
330
1E
100
AcDbEntity
  8
1
  6
Continuous
 62
     7
100
AcDbLine
 10
268.8941629999999
 20
134.8401659999999
 30
0.0
 11
268.9255779999999
 21
134.846641
 31
0.0
  0
LINE
  5
741
330
1E
100
AcDbEntity
  8
1
  6
Continuous
 62
     7
100
AcDbLine
 10
268.9255779999999
 20
134.846641
 30
0.0
 11
268.956564
 21
134.854079
 31
0.0
  0
LINE
  5
742
330
1E
100
AcDbEntity
  8
1
  6
Continuous
 62
     7
100
AcDbLine
 10
268.956564
 20
134.854079
 30
0.0
 11
268.9870609999999
 21
134.8624649999999
 31
0.0
  0
LINE
  5
743
330
1E
100
AcDbEntity
  8
1
  6
Continuous
 62
     7
100
AcDbLine
 10
268.9870609999999
 20
134.8624649999999
 30
0.0
 11
269.017012
 21
134.871784
 31
0.0
  0
LINE
  5
744
330
1E
100
AcDbEntity
  8
1
  6
Continuous
 62
     7
100
AcDbLine
 10
269.017012
 20
134.871784
 30
0.0
 11
269.04636
 21
134.8820169999999
 31
0.0
  0
LINE
  5
745
330
1E
100
AcDbEntity
  8
1
  6
Continuous
 62
     7
100
AcDbLine
 10
269.04636
 20
134.8820169999999
 30
0.0
 11
269.075049
 21
134.8931469999999
 31
0.0
  0
LINE
  5
746
330
1E
100
AcDbEntity
  8
1
  6
Continuous
 62
     7
100
AcDbLine
 10
269.075049
 20
134.8931469999999
 30
0.0
 11
269.1030229999999
 21
134.9051499999999
 31
0.0
  0
LINE
  5
747
330
1E
100
AcDbEntity
  8
1
  6
Continuous
 62
     7
100
AcDbLine
 10
269.1030229999999
 20
134.9051499999999
 30
0.0
 11
269.1302309999999
 21
134.9180049999999
 31
0.0
  0
LINE
  5
748
330
1E
100
AcDbEntity
  8
1
  6
Continuous
 62
     7
100
AcDbLine
 10
269.1302309999999
 20
134.9180049999999
 30
0.0
 11
269.15662
 21
134.931687
 31
0.0
  0
LINE
  5
749
330
1E
100
AcDbEntity
  8
1
  6
Continuous
 62
     7
100
AcDbLine
 10
269.15662
 20
134.931687
 30
0.0
 11
269.182139
 21
134.946169
 31
0.0
  0
LINE
  5
74A
330
1E
100
AcDbEntity
  8
1
  6
Continuous
 62
     7
100
AcDbLine
 10
269.182139
 20
134.946169
 30
0.0
 11
269.206741
 21
134.9614249999999
 31
0.0
  0
LINE
  5
74B
330
1E
100
AcDbEntity
  8
1
  6
Continuous
 62
     7
100
AcDbLine
 10
269.206741
 20
134.9614249999999
 30
0.0
 11
269.230379
 21
134.977426
 31
0.0
  0
LINE
  5
74C
330
1E
100
AcDbEntity
  8
1
  6
Continuous
 62
     7
100
AcDbLine
 10
269.230379
 20
134.977426
 30
0.0
 11
269.2530069999999
 21
134.9941399999999
 31
0.0
  0
LINE
  5
74D
330
1E
100
AcDbEntity
  8
1
  6
Continuous
 62
     7
100
AcDbLine
 10
269.2530069999999
 20
134.9941399999999
 30
0.0
 11
269.274582
 21
135.0115359999999
 31
0.0
  0
LINE
  5
74E
330
1E
100
AcDbEntity
  8
1
  6
Continuous
 62
     7
100
AcDbLine
 10
269.274582
 20
135.0115359999999
 30
0.0
 11
269.295064
 21
135.029581
 31
0.0
  0
LINE
  5
74F
330
1E
100
AcDbEntity
  8
1
  6
Continuous
 62
     7
100
AcDbLine
 10
269.295064
 20
135.029581
 30
0.0
 11
269.3144129999999
 21
135.0482409999999
 31
0.0
  0
LINE
  5
750
330
1E
100
AcDbEntity
  8
1
  6
Continuous
 62
     7
100
AcDbLine
 10
269.3144129999999
 20
135.0482409999999
 30
0.0
 11
269.3325919999999
 21
135.06748
 31
0.0
  0
LINE
  5
751
330
1E
100
AcDbEntity
  8
1
  6
Continuous
 62
     7
100
AcDbLine
 10
269.3325919999999
 20
135.06748
 30
0.0
 11
269.349568
 21
135.087261
 31
0.0
  0
LINE
  5
752
330
1E
100
AcDbEntity
  8
1
  6
Continuous
 62
     7
100
AcDbLine
 10
269.349568
 20
135.087261
 30
0.0
 11
269.3653069999999
 21
135.1075459999999
 31
0.0
  0
LINE
  5
753
330
1E
100
AcDbEntity
  8
1
  6
Continuous
 62
     7
100
AcDbLine
 10
269.3653069999999
 20
135.1075459999999
 30
0.0
 11
269.379779
 21
135.128298
 31
0.0
  0
LINE
  5
754
330
1E
100
AcDbEntity
  8
1
  6
Continuous
 62
     7
100
AcDbLine
 10
269.379779
 20
135.128298
 30
0.0
 11
269.392958
 21
135.1494769999999
 31
0.0
  0
LINE
  5
755
330
1E
100
AcDbEntity
  8
1
  6
Continuous
 62
     7
100
AcDbLine
 10
269.392958
 20
135.1494769999999
 30
0.0
 11
269.404818
 21
135.171042
 31
0.0
  0
LINE
  5
756
330
1E
100
AcDbEntity
  8
1
  6
Continuous
 62
     7
100
AcDbLine
 10
269.404818
 20
135.171042
 30
0.0
 11
269.4153359999999
 21
135.1929519999999
 31
0.0
  0
LINE
  5
757
330
1E
100
AcDbEntity
  8
1
  6
Continuous
 62
     7
100
AcDbLine
 10
269.4153359999999
 20
135.1929519999999
 30
0.0
 11
269.424493
 21
135.2151659999999
 31
0.0
  0
LINE
  5
758
330
1E
100
AcDbEntity
  8
1
  6
Continuous
 62
     7
100
AcDbLine
 10
269.424493
 20
135.2151659999999
 30
0.0
 11
269.432271
 21
135.2376409999999
 31
0.0
  0
LINE
  5
759
330
1E
100
AcDbEntity
  8
1
  6
Continuous
 62
     7
100
AcDbLine
 10
269.432271
 20
135.2376409999999
 30
0.0
 11
269.4386539999999
 21
135.260335
 31
0.0
  0
LINE
  5
75A
330
1E
100
AcDbEntity
  8
1
  6
Continuous
 62
     7
100
AcDbLine
 10
269.4386539999999
 20
135.260335
 30
0.0
 11
269.4436319999999
 21
135.283204
 31
0.0
  0
LINE
  5
75B
330
1E
100
AcDbEntity
  8
1
  6
Continuous
 62
     7
100
AcDbLine
 10
269.4436319999999
 20
135.283204
 30
0.0
 11
269.447195
 21
135.306204
 31
0.0
  0
LINE
  5
75C
330
1E
100
AcDbEntity
  8
1
  6
Continuous
 62
     7
100
AcDbLine
 10
269.447195
 20
135.306204
 30
0.0
 11
269.449335
 21
135.329293
 31
0.0
  0
LINE
  5
75D
330
1E
100
AcDbEntity
  8
1
  6
Continuous
 62
     7
100
AcDbLine
 10
269.449335
 20
135.329293
 30
0.0
 11
269.450049
 21
135.352425
 31
0.0
  0
LINE
  5
75E
330
1E
100
AcDbEntity
  8
1
  6
Continuous
 62
     7
100
AcDbLine
 10
267.950049
 20
135.959797
 30
0.0
 11
267.9500479999999
 21
135.352426
 31
0.0
  0
LINE
  5
75F
330
1E
100
AcDbEntity
  8
1
  6
Continuous
 62
     7
100
AcDbLine
 10
269.450049
 20
135.959797
 30
0.0
 11
269.4500479999999
 21
135.35242
 31
0.0
  0
LINE
  5
760
330
1E
100
AcDbEntity
  8
1
  6
Continuous
 62
     7
100
AcDbLine
 10
260.0000309999999
 20
127.2
 30
0.0
 11
272.700047
 21
127.2
 31
0.0
  0
LINE
  5
761
330
1E
100
AcDbEntity
  8
1
  6
Continuous
 62
     7
100
AcDbLine
 10
260.0000269999999
 20
154.0
 30
0.0
 11
265.6000399999999
 21
154.0000019999999
 31
0.0
  0
LINE
  5
762
330
1E
100
AcDbEntity
  8
1
  6
Continuous
 62
     7
100
AcDbLine
 10
265.6000399999999
 20
154.0000019999999
 30
0.0
 11
265.600043
 21
146.5000009999999
 31
0.0
  0
LINE
  5
763
330
1E
100
AcDbEntity
  8
1
  6
Continuous
 62
     7
100
AcDbLine
 10
265.600043
 20
146.5000009999999
 30
0.0
 11
265.100043
 21
146.5000009999999
 31
0.0
  0
LINE
  5
764
330
1E
100
AcDbEntity
  8
1
  6
Continuous
 62
     7
100
AcDbLine
 10
260.0000269999999
 20
151.500001
 30
0.0
 11
265.600015
 21
151.500001
 31
0.0
  0
LINE
  5
765
330
1E
100
AcDbEntity
  8
1
  6
Continuous
 62
     7
100
AcDbLine
 10
260.000029
 20
141.0
 30
0.0
 11
265.100043
 21
141.000001
 31
0.0
  0
LINE
  5
766
330
1E
100
AcDbEntity
  8
1
  6
Continuous
 62
     7
100
AcDbLine
 10
265.100043
 20
141.000001
 30
0.0
 11
265.100043
 21
146.5000009999999
 31
0.0
  0
LINE
  5
767
330
1E
100
AcDbEntity
  8
1
  6
Continuous
 62
     7
100
AcDbLine
 10
265.600015
 20
153.300001
 30
0.0
 11
264.1000149999999
 21
153.300001
 31
0.0
  0
LINE
  5
768
330
1E
100
AcDbEntity
  8
1
  6
Continuous
 62
     7
100
AcDbLine
 10
264.1000149999999
 20
153.300001
 30
0.0
 11
264.1000149999999
 21
152.200001
 31
0.0
  0
LINE
  5
769
330
1E
100
AcDbEntity
  8
1
  6
Continuous
 62
     7
100
AcDbLine
 10
264.1000149999999
 20
152.200001
 30
0.0
 11
265.600015
 21
152.200001
 31
0.0
  0
LINE
  5
76A
330
1E
100
AcDbEntity
  8
1
  6
Continuous
 62
     7
100
AcDbLine
 10
260.9000259999999
 20
157.6
 30
0.0
 11
260.0000269999999
 21
157.6
 31
0.0
  0
ARC
  5
76B
330
1E
100
AcDbEntity
  8
1
  6
Continuous
 62
     7
100
AcDbCircle
 10
260.9000259999999
 20
157.0999999999999
 30
0.0
 40
0.5
100
AcDbArc
 50
0.000017
 51
90.000017
  0
LINE
  5
76C
330
1E
100
AcDbEntity
  8
1
  6
Continuous
 62
     7
100
AcDbLine
 10
261.400027
 20
154.9
 30
0.0
 11
261.4000259999999
 21
157.0999999999999
 31
0.0
  0
LINE
  5
76D
330
1E
100
AcDbEntity
  8
1
  6
Continuous
 62
     7
100
AcDbLine
 10
260.0000269999999
 20
154.4
 30
0.0
 11
260.900027
 21
154.4
 31
0.0
  0
ARC
  5
76E
330
1E
100
AcDbEntity
  8
1
  6
Continuous
 62
     7
100
AcDbCircle
 10
260.900027
 20
154.9
 30
0.0
 40
0.5
100
AcDbArc
 50
270.000017
 51
0.000017
  0
LINE
  5
76F
330
1E
100
AcDbEntity
  8
1
  6
Continuous
 62
     7
100
AcDbLine
 10
268.500029
 20
137.900002
 30
0.0
 11
268.500029
 21
142.1000019999999
 31
0.0
  0
ARC
  5
770
330
1E
100
AcDbEntity
  8
1
  6
Continuous
 62
     7
100
AcDbCircle
 10
266.500029
 20
142.1000019999999
 30
0.0
 40
2.0
100
AcDbArc
 50
0.000008
 51
90.000017
  0
LINE
  5
771
330
1E
100
AcDbEntity
  8
1
  6
Continuous
 62
     7
100
AcDbLine
 10
266.501305
 20
144.1000009999999
 30
0.0
 11
265.100043
 21
144.1000009999999
 31
0.0
  0
ARC
  5
772
330
1E
100
AcDbEntity
  8
1
  6
Continuous
 62
     7
100
AcDbCircle
 10
266.501305
 20
137.900002
 30
0.0
 40
1.998725
100
AcDbArc
 50
326.6088359999999
 51
0.0
  0
LINE
  5
773
330
1E
100
AcDbEntity
  8
1
  6
Continuous
 62
     7
100
AcDbLine
 10
230.5000179999999
 20
161.7999959999999
 30
0.0
 11
230.5000179999999
 21
118.199999
 31
0.0
  0
LINE
  5
774
330
1E
100
AcDbEntity
  8
1
  6
Continuous
 62
     7
100
AcDbLine
 10
230.5000179999999
 20
118.199999
 30
0.0
 11
255.5000179999999
 21
118.199999
 31
0.0
  0
LINE
  5
775
330
1E
100
AcDbEntity
  8
1
  6
Continuous
 62
     7
100
AcDbLine
 10
255.5000179999999
 20
118.199999
 30
0.0
 11
255.5000179999999
 21
161.7999959999999
 31
0.0
  0
LINE
  5
776
330
1E
100
AcDbEntity
  8
1
  6
Continuous
 62
     7
100
AcDbLine
 10
255.5000179999999
 20
161.7999959999999
 30
0.0
 11
230.5000179999999
 21
161.7999959999999
 31
0.0
  0
ARC
  5
777
330
1E
100
AcDbEntity
  8
1
  6
Continuous
 62
     7
100
AcDbCircle
 10
234.5000189999999
 20
157.999996
 30
0.0
 40
2.0
100
AcDbArc
 50
90.0
 51
180.0
  0
LINE
  5
778
330
1E
100
AcDbEntity
  8
1
  6
Continuous
 62
     7
100
AcDbLine
 10
251.500024
 20
159.999996
 30
0.0
 11
234.5000189999999
 21
159.999996
 31
0.0
  0
ARC
  5
779
330
1E
100
AcDbEntity
  8
1
  6
Continuous
 62
     7
100
AcDbCircle
 10
251.500024
 20
157.999996
 30
0.0
 40
2.0
100
AcDbArc
 50
0.0
 51
90.0
  0
LINE
  5
77A
330
1E
100
AcDbEntity
  8
1
  6
Continuous
 62
     7
100
AcDbLine
 10
253.500024
 20
121.999999
 30
0.0
 11
253.500024
 21
157.999996
 31
0.0
  0
ARC
  5
77B
330
1E
100
AcDbEntity
  8
1
  6
Continuous
 62
     7
100
AcDbCircle
 10
251.500024
 20
121.999999
 30
0.0
 40
2.0
100
AcDbArc
 50
270.0
 51
0.0
  0
LINE
  5
77C
330
1E
100
AcDbEntity
  8
1
  6
Continuous
 62
     7
100
AcDbLine
 10
234.5000189999999
 20
119.999999
 30
0.0
 11
251.500024
 21
119.999999
 31
0.0
  0
LINE
  5
77D
330
1E
100
AcDbEntity
  8
1
  6
Continuous
 62
     7
100
AcDbLine
 10
232.5000189999999
 20
157.999996
 30
0.0
 11
232.5000189999999
 21
121.999999
 31
0.0
  0
ARC
  5
77E
330
1E
100
AcDbEntity
  8
1
  6
Continuous
 62
     7
100
AcDbCircle
 10
234.5000189999999
 20
121.999999
 30
0.0
 40
2.0
100
AcDbArc
 50
180.0
 51
270.0
  0
LINE
  5
77F
330
1E
100
AcDbEntity
  8
1
  6
Continuous
 62
     7
100
AcDbLine
 10
244.900024
 20
149.399998
 30
0.0
 11
244.900024
 21
130.5999989999999
 31
0.0
  0
LINE
  5
780
330
1E
100
AcDbEntity
  8
1
  6
Continuous
 62
     7
100
AcDbLine
 10
244.900024
 20
130.5999989999999
 30
0.0
 11
252.700024
 21
130.5999989999999
 31
0.0
  0
LINE
  5
781
330
1E
100
AcDbEntity
  8
1
  6
Continuous
 62
     7
100
AcDbLine
 10
252.700024
 20
130.5999989999999
 30
0.0
 11
252.700024
 21
149.399998
 31
0.0
  0
LINE
  5
782
330
1E
100
AcDbEntity
  8
1
  6
Continuous
 62
     7
100
AcDbLine
 10
252.700024
 20
149.399998
 30
0.0
 11
244.900024
 21
149.399998
 31
0.0
  0
LINE
  5
783
330
1E
100
AcDbEntity
  8
1
  6
Continuous
 62
     7
100
AcDbLine
 10
248.800025
 20
130.5999979999999
 30
0.0
 11
248.800025
 21
149.399998
 31
0.0
  0
LINE
  5
784
330
1E
100
AcDbEntity
  8
1
  6
Continuous
 62
     7
100
AcDbLine
 10
244.900024
 20
154.6999959999999
 30
0.0
 11
252.700024
 21
159.203329
 31
0.0
  0
LINE
  5
785
330
1E
100
AcDbEntity
  8
1
  6
Continuous
 62
     7
100
AcDbLine
 10
244.900024
 20
154.6999969999999
 30
0.0
 11
252.7000249999999
 21
150.1966649999999
 31
0.0
  0
LINE
  5
786
330
1E
100
AcDbEntity
  8
1
  6
Continuous
 62
     7
100
AcDbLine
 10
252.700024
 20
150.1966649999999
 30
0.0
 11
252.700024
 21
159.203329
 31
0.0
  0
LINE
  5
787
330
1E
100
AcDbEntity
  8
1
  6
Continuous
 62
     7
100
AcDbLine
 10
244.900024
 20
125.300001
 30
0.0
 11
252.700024
 21
120.7966679999999
 31
0.0
  0
LINE
  5
788
330
1E
100
AcDbEntity
  8
1
  6
Continuous
 62
     7
100
AcDbLine
 10
244.900024
 20
125.2999989999999
 30
0.0
 11
252.7000249999999
 21
129.803332
 31
0.0
  0
LINE
  5
789
330
1E
100
AcDbEntity
  8
1
  6
Continuous
 62
     7
100
AcDbLine
 10
252.700024
 20
129.803332
 30
0.0
 11
252.700024
 21
120.7966679999999
 31
0.0
  0
LINE
  5
78A
330
1E
100
AcDbEntity
  8
1
  6
Continuous
 62
     7
100
AcDbLine
 10
235.934555
 20
123.0
 30
0.0
 11
235.934555
 21
157.0
 31
0.0
  0
LINE
  5
78B
330
1E
100
AcDbEntity
  8
1
  6
Continuous
 62
     7
100
AcDbLine
 10
235.934555
 20
157.0
 30
0.0
 11
243.000024
 21
123.0
 31
0.0
  0
LINE
  5
78C
330
1E
100
AcDbEntity
  8
1
  6
Continuous
 62
     7
100
AcDbLine
 10
243.000024
 20
123.0
 30
0.0
 11
243.0000189999999
 21
157.0
 31
0.0
  0
TEXT
  5
78D
330
1E
100
AcDbEntity
  8
1
  6
Continuous
 62
     7
100
AcDbText
 10
343.434397
 20
259.127537
 30
0.0
 40
3.0
  1
MDN-8046N
 41
0.6333330000000001
  7
KANJI
100
AcDbText
  0
CIRCLE
  5
78F
330
1E
100
AcDbEntity
  8
1
  6
Continuous
 62
     7
100
AcDbCircle
 10
68.5
 20
218.5
 30
0.0
 40
1.399999999999999
  0
LINE
  5
7BD
330
1E
100
AcDbEntity
  8
0
100
AcDbLine
 10
64.5
 20
203.5867618942508
 30
0.0
 11
64.5
 21
190.0
 31
0.0
  0
LINE
  5
7BE
330
1E
100
AcDbEntity
  8
0
100
AcDbLine
 10
120.5
 20
203.5867618942508
 30
0.0
 11
120.5
 21
190.0
 31
0.0
  0
LINE
  5
7BF
330
1E
100
AcDbEntity
  8
0
100
AcDbLine
 10
65.5
 20
190.0
 30
0.0
 11
92.26
 21
190.0
 31
0.0
  0
LINE
  5
7C0
330
1E
100
AcDbEntity
  8
0
100
AcDbLine
 10
119.5
 20
190.0
 30
0.0
 11
92.73999999999999
 21
190.0
 31
0.0
  0
SOLID
  5
7C1
330
1E
100
AcDbEntity
  8
0
100
AcDbTrace
 10
65.5
 20
190.1666666666666
 30
0.0
 11
65.5
 21
189.8333333333333
 31
0.0
 12
64.5
 22
190.0
 32
0.0
 13
64.5
 23
190.0
 33
0.0
  0
SOLID
  5
7C2
330
1E
100
AcDbEntity
  8
0
100
AcDbTrace
 10
119.5
 20
190.1666666666666
 30
0.0
 11
119.5
 21
189.8333333333333
 31
0.0
 12
120.5
 22
190.0
 32
0.0
 13
120.5
 23
190.0
 33
0.0
  0
MTEXT
  5
7C3
330
1E
100
AcDbEntity
  8
0
100
AcDbMText
 10
92.5
 20
193.9799265460854
 30
0.0
 40
5.0
 41
0.0
 71
     5
 72
     1
  1
{\Ftxt.shx,bigfont.shx;56}
 73
     1
 44
1.0
  0
LINE
  5
7C4
330
1E
100
AcDbEntity
  8
0
100
AcDbLine
 10
148.0000148680896
 20
203.5867618942508
 30
0.0
 11
148.0000148680896
 21
190.0
 31
0.0
  0
LINE
  5
7C5
330
1E
100
AcDbEntity
  8
0
100
AcDbLine
 10
260.000018
 20
203.5867618942508
 30
0.0
 11
260.000018
 21
190.0
 31
0.0
  0
LINE
  5
7C6
330
1E
100
AcDbEntity
  8
0
100
AcDbLine
 10
149.0000148680896
 20
190.0
 30
0.0
 11
203.7300164340448
 21
190.0
 31
0.0
  0
LINE
  5
7C7
330
1E
100
AcDbEntity
  8
0
100
AcDbLine
 10
259.000018
 20
190.0
 30
0.0
 11
204.2700164340448
 21
190.0
 31
0.0
  0
SOLID
  5
7C8
330
1E
100
AcDbEntity
  8
0
100
AcDbTrace
 10
149.0000148680896
 20
190.1666666666666
 30
0.0
 11
149.0000148680896
 21
189.8333333333333
 31
0.0
 12
148.0000148680896
 22
190.0
 32
0.0
 13
148.0000148680896
 23
190.0
 33
0.0
  0
SOLID
  5
7C9
330
1E
100
AcDbEntity
  8
0
100
AcDbTrace
 10
259.000018
 20
190.1666666666666
 30
0.0
 11
259.000018
 21
189.8333333333333
 31
0.0
 12
260.000018
 22
190.0
 32
0.0
 13
260.000018
 23
190.0
 33
0.0
  0
MTEXT
  5
7CA
330
1E
100
AcDbEntity
  8
0
100
AcDbMText
 10
204.0000164340448
 20
194.0999809644184
 30
0.0
 40
5.0
 41
0.0
 71
     5
 72
     1
  1
{\Ftxt.shx,bigfont.shx;112}
 73
     1
 44
1.0
  0
LINE
  5
7D1
330
1E
100
AcDbEntity
  8
0
100
AcDbLine
 10
272.700016
 20
214.5
 30
0.0
 11
290.0
 21
214.5
 31
0.0
  0
LINE
  5
7D2
330
1E
100
AcDbEntity
  8
0
100
AcDbLine
 10
272.700016
 20
268.5
 30
0.0
 11
290.0
 21
268.5
 31
0.0
  0
LINE
  5
7D3
330
1E
100
AcDbEntity
  8
0
100
AcDbLine
 10
290.0
 20
215.5
 30
0.0
 11
290.0
 21
241.3199999999999
 31
0.0
  0
LINE
  5
7D4
330
1E
100
AcDbEntity
  8
0
100
AcDbLine
 10
290.0
 20
267.5
 30
0.0
 11
290.0
 21
241.68
 31
0.0
  0
SOLID
  5
7D5
330
1E
100
AcDbEntity
  8
0
100
AcDbTrace
 10
289.8333333333333
 20
215.5
 30
0.0
 11
290.1666666666666
 21
215.5
 31
0.0
 12
290.0
 22
214.5
 32
0.0
 13
290.0
 23
214.5
 33
0.0
  0
SOLID
  5
7D6
330
1E
100
AcDbEntity
  8
0
100
AcDbTrace
 10
289.8333333333333
 20
267.5
 30
0.0
 11
290.1666666666666
 21
267.5
 31
0.0
 12
290.0
 22
268.5
 32
0.0
 13
290.0
 23
268.5
 33
0.0
  0
MTEXT
  5
7D7
330
1E
100
AcDbEntity
  8
0
100
AcDbMText
 10
286.3348130531569
 20
241.5
 30
0.0
 40
5.0
 41
0.0
 71
     5
 72
     1
  1
{\Ftxt.shx,bigfont.shx;54}
 11
0.0000000000000001
 21
1.0
 31
0.0
 73
     1
 44
1.0
  0
ENDSEC
  0
SECTION
  2
OBJECTS
  0
DICTIONARY
  5
C
330
0
100
AcDbDictionary
281
     1
  3
ACAD_GROUP
350
D
  3
ACAD_PLOTSTYLENAME
350
E
  3
ACAD_MLINESTYLE
350
16
  3
ACAD_PLOTSETTINGS
350
18
  3
ACAD_LAYOUT
350
19
  0
DICTIONARY
  5
D
102
{ACAD_REACTORS
330
C
102
}
330
C
100
AcDbDictionary
281
     1
  0
ACDBDICTIONARYWDFLT
  5
E
102
{ACAD_REACTORS
330
C
102
}
330
C
100
AcDbDictionary
281
     1
  3
Normal
350
F
100
AcDbDictionaryWithDefault
340
F
  0
DICTIONARY
  5
16
102
{ACAD_REACTORS
330
C
102
}
330
C
100
AcDbDictionary
281
     1
  3
Standard
350
17
  0
DICTIONARY
  5
18
102
{ACAD_REACTORS
330
C
102
}
330
C
100
AcDbDictionary
281
     1
  0
DICTIONARY
  5
19
102
{ACAD_REACTORS
330
C
102
}
330
C
100
AcDbDictionary
281
     1
  3
ﾚｲｱｳﾄ1
350
1D
  3
Model
350
21
  0
ACDBPLACEHOLDER
  5
F
102
{ACAD_REACTORS
330
E
102
}
330
E
  0
MLINESTYLE
  5
17
102
{ACAD_REACTORS
330
16
102
}
330
16
100
AcDbMlineStyle
  2
STANDARD
 70
     0
  3

 62
   256
 51
90.0
 52
90.0
 71
     2
 49
0.5
 62
   256
  6
BYLAYER
 49
-0.5
 62
   256
  6
BYLAYER
  0
LAYOUT
  5
1D
102
{ACAD_REACTORS
330
19
102
}
330
19
100
AcDbPlotSettings
  1

  2
自動 Canon LASER SHOT LBP-1820 (merit 上)
  4

  6

 40
0.0
 41
0.0
 42
0.0
 43
0.0
 44
0.0
 45
0.0
 46
0.0
 47
0.0
 48
0.0
 49
0.0
140
0.0
141
0.0
142
1.0
143
1.0
 70
   688
 72
     0
 73
     0
 74
     5
  7

 75
    16
147
1.0
148
0.0
149
0.0
100
AcDbLayout
  1
ﾚｲｱｳﾄ1
 70
     1
 71
     1
 10
0.0
 20
0.0
 11
12.0
 21
9.0
 12
0.0
 22
0.0
 32
0.0
 14
0.0
 24
0.0
 34
0.0
 15
297.0
 25
210.0
 35
0.0
146
0.0
 13
0.0
 23
0.0
 33
0.0
 16
1.0
 26
0.0
 36
0.0
 17
0.0
 27
1.0
 37
0.0
 76
     0
330
1A
  0
LAYOUT
  5
21
102
{ACAD_REACTORS
330
19
102
}
330
19
100
AcDbPlotSettings
  1

  2
自動 Canon LASER SHOT LBP-1820 (merit 上)
  4

  6

 40
0.0
 41
0.0
 42
0.0
 43
0.0
 44
0.0
 45
0.0
 46
0.0
 47
0.0
 48
0.0
 49
0.0
140
0.0
141
0.0
142
1.0
143
1.0
 70
  1712
 72
     0
 73
     0
 74
     0
  7

 75
     0
147
1.0
148
0.0
149
0.0
100
AcDbLayout
  1
Model
 70
     1
 71
     0
 10
0.0
 20
0.0
 11
12.0
 21
9.0
 12
0.0
 22
0.0
 32
0.0
 14
0.0
 24
0.0
 34
0.0
 15
0.0
 25
0.0
 35
0.0
146
0.0
 13
0.0
 23
0.0
 33
0.0
 16
1.0
 26
0.0
 36
0.0
 17
0.0
 27
1.0
 37
0.0
 76
     0
330
1E
  0
ENDSEC
  0
EOF
