  0
SECTION
  2
HEADER
  9
$ACADVER
  1
AC1015
  9
$ACADMAINTVER
 70
     6
  9
$DWGCODEPAGE
  3
ANSI_932
  9
$INSBASE
 10
0.0
 20
0.0
 30
0.0
  9
$EXTMIN
 10
69.97192736711804
 20
279.9476651241393
 30
-0.0015258207003583
  9
$EXTMAX
 10
1120.230563335621
 20
820.0401327922472
 30
0.0000000349246037
  9
$LIMMIN
 10
0.0
 20
0.0
  9
$LIMMAX
 10
1485.0
 20
1050.0
  9
$ORTHOMODE
 70
     1
  9
$REGENMODE
 70
     1
  9
$FILLMODE
 70
     1
  9
$QTEXTMODE
 70
     0
  9
$MIRRTEXT
 70
     1
  9
$LTSCALE
 40
1.25
  9
$ATTMODE
 70
     1
  9
$TEXTSIZE
 40
0.2
  9
$TRACEWID
 40
0.05
  9
$TEXTSTYLE
  7
STANDARD
  9
$CLAYER
  8
0
  9
$CELTYPE
  6
ByLayer
  9
$CECOLOR
 62
   256
  9
$CELTSCALE
 40
1.0
  9
$DISPSILH
 70
     0
  9
$DIMSCALE
 40
1.0
  9
$DIMASZ
 40
1.0
  9
$DIMEXO
 40
0.0
  9
$DIMDLI
 40
0.5
  9
$DIMRND
 40
0.0
  9
$DIMDLE
 40
0.0
  9
$DIMEXE
 40
0.0
  9
$DIMTP
 40
0.0
  9
$DIMTM
 40
0.0
  9
$DIMTXT
 40
0.18
  9
$DIMCEN
 40
0.0
  9
$DIMTSZ
 40
0.0
  9
$DIMTOL
 70
     0
  9
$DIMLIM
 70
     0
  9
$DIMTIH
 70
     1
  9
$DIMTOH
 70
     1
  9
$DIMSE1
 70
     0
  9
$DIMSE2
 70
     0
  9
$DIMTAD
 70
     0
  9
$DIMZIN
 70
     0
  9
$DIMBLK
  1

  9
$DIMASO
 70
     0
  9
$DIMSHO
 70
     0
  9
$DIMPOST
  1

  9
$DIMAPOST
  1

  9
$DIMALT
 70
     0
  9
$DIMALTD
 70
     0
  9
$DIMALTF
 40
25.4
  9
$DIMLFAC
 40
1.0
  9
$DIMTOFL
 70
     0
  9
$DIMTVP
 40
0.0
  9
$DIMTIX
 70
     0
  9
$DIMSOXD
 70
     0
  9
$DIMSAH
 70
     0
  9
$DIMBLK1
  1

  9
$DIMBLK2
  1

  9
$DIMSTYLE
  2
Standard
  9
$DIMCLRD
 70
     0
  9
$DIMCLRE
 70
     0
  9
$DIMCLRT
 70
     0
  9
$DIMTFAC
 40
1.0
  9
$DIMGAP
 40
0.09
  9
$DIMJUST
 70
     0
  9
$DIMSD1
 70
     0
  9
$DIMSD2
 70
     0
  9
$DIMTOLJ
 70
     1
  9
$DIMTZIN
 70
     0
  9
$DIMALTZ
 70
     0
  9
$DIMALTTZ
 70
     0
  9
$DIMUPT
 70
     0
  9
$DIMDEC
 70
     4
  9
$DIMTDEC
 70
     4
  9
$DIMALTU
 70
     2
  9
$DIMALTTD
 70
     2
  9
$DIMTXSTY
  7
STANDARD
  9
$DIMAUNIT
 70
     0
  9
$DIMADEC
 70
     0
  9
$DIMALTRND
 40
0.0
  9
$DIMAZIN
 70
     0
  9
$DIMDSEP
 70
    46
  9
$DIMATFIT
 70
     3
  9
$DIMFRAC
 70
     0
  9
$DIMLDRBLK
  1

  9
$DIMLUNIT
 70
     2
  9
$DIMLWD
 70
    -2
  9
$DIMLWE
 70
    -2
  9
$DIMTMOVE
 70
     0
  9
$LUNITS
 70
     2
  9
$LUPREC
 70
     2
  9
$SKETCHINC
 40
0.0
  9
$FILLETRAD
 40
0.0
  9
$AUNITS
 70
     1
  9
$AUPREC
 70
     2
  9
$MENU
  1
ACAD
  9
$ELEVATION
 40
0.0
  9
$PELEVATION
 40
0.0
  9
$THICKNESS
 40
0.0
  9
$LIMCHECK
 70
     1
  9
$CHAMFERA
 40
0.0
  9
$CHAMFERB
 40
0.0
  9
$CHAMFERC
 40
0.0
  9
$CHAMFERD
 40
0.0
  9
$SKPOLY
 70
     0
  9
$TDCREATE
 40
2311945.483467650
  9
$TDUCREATE
 40
2311945.108467650
  9
$TDUPDATE
 40
2454798.607279907
  9
$TDUUPDATE
 40
2454798.232279907
  9
$TDINDWG
 40
0.0226815625
  9
$TDUSRTIMER
 40
0.0226799421
  9
$USRTIMER
 70
     1
  9
$ANGBASE
 50
0.0
  9
$ANGDIR
 70
     0
  9
$PDMODE
 70
     0
  9
$PDSIZE
 40
0.0
  9
$PLINEWID
 40
0.0
  9
$SPLFRAME
 70
     0
  9
$SPLINETYPE
 70
     6
  9
$SPLINESEGS
 70
     8
  9
$HANDSEED
  5
940
  9
$SURFTAB1
 70
     6
  9
$SURFTAB2
 70
     6
  9
$SURFTYPE
 70
     6
  9
$SURFU
 70
     6
  9
$SURFV
 70
     6
  9
$UCSBASE
  2

  9
$UCSNAME
  2

  9
$UCSORG
 10
0.0
 20
0.0
 30
0.0
  9
$UCSXDIR
 10
1.0
 20
0.0
 30
0.0
  9
$UCSYDIR
 10
0.0
 20
1.0
 30
0.0
  9
$UCSORTHOREF
  2

  9
$UCSORTHOVIEW
 70
     0
  9
$UCSORGTOP
 10
0.0
 20
0.0
 30
0.0
  9
$UCSORGBOTTOM
 10
0.0
 20
0.0
 30
0.0
  9
$UCSORGLEFT
 10
0.0
 20
0.0
 30
0.0
  9
$UCSORGRIGHT
 10
0.0
 20
0.0
 30
0.0
  9
$UCSORGFRONT
 10
0.0
 20
0.0
 30
0.0
  9
$UCSORGBACK
 10
0.0
 20
0.0
 30
0.0
  9
$PUCSBASE
  2

  9
$PUCSNAME
  2

  9
$PUCSORG
 10
0.0
 20
0.0
 30
0.0
  9
$PUCSXDIR
 10
1.0
 20
0.0
 30
0.0
  9
$PUCSYDIR
 10
0.0
 20
1.0
 30
0.0
  9
$PUCSORTHOREF
  2

  9
$PUCSORTHOVIEW
 70
     0
  9
$PUCSORGTOP
 10
0.0
 20
0.0
 30
0.0
  9
$PUCSORGBOTTOM
 10
0.0
 20
0.0
 30
0.0
  9
$PUCSORGLEFT
 10
0.0
 20
0.0
 30
0.0
  9
$PUCSORGRIGHT
 10
0.0
 20
0.0
 30
0.0
  9
$PUCSORGFRONT
 10
0.0
 20
0.0
 30
0.0
  9
$PUCSORGBACK
 10
0.0
 20
0.0
 30
0.0
  9
$USERI1
 70
     0
  9
$USERI2
 70
     0
  9
$USERI3
 70
     0
  9
$USERI4
 70
     0
  9
$USERI5
 70
     0
  9
$USERR1
 40
0.0
  9
$USERR2
 40
0.0
  9
$USERR3
 40
0.0
  9
$USERR4
 40
0.0
  9
$USERR5
 40
0.0
  9
$WORLDVIEW
 70
     1
  9
$SHADEDGE
 70
     3
  9
$SHADEDIF
 70
    70
  9
$TILEMODE
 70
     1
  9
$MAXACTVP
 70
    64
  9
$PINSBASE
 10
0.0
 20
0.0
 30
0.0
  9
$PLIMCHECK
 70
     0
  9
$PEXTMIN
 10
0.0
 20
0.0
 30
0.0
  9
$PEXTMAX
 10
297.0
 20
210.0
 30
0.0
  9
$PLIMMIN
 10
0.0
 20
0.0
  9
$PLIMMAX
 10
12.0
 20
9.0
  9
$UNITMODE
 70
     0
  9
$VISRETAIN
 70
     1
  9
$PLINEGEN
 70
     0
  9
$PSLTSCALE
 70
     1
  9
$TREEDEPTH
 70
  3020
  9
$CMLSTYLE
  2
Standard
  9
$CMLJUST
 70
     0
  9
$CMLSCALE
 40
1.0
  9
$PROXYGRAPHICS
 70
     1
  9
$MEASUREMENT
 70
     0
  9
$CELWEIGHT
370
    -1
  9
$ENDCAPS
280
     0
  9
$JOINSTYLE
280
     0
  9
$LWDISPLAY
290
     0
  9
$INSUNITS
 70
     0
  9
$HYPERLINKBASE
  1

  9
$STYLESHEET
  1

  9
$XEDIT
290
     1
  9
$CEPSNTYPE
380
     0
  9
$PSTYLEMODE
290
     1
  9
$FINGERPRINTGUID
  2
{30246564-376F-4588-8DA2-F7F9D86382B5}
  9
$VERSIONGUID
  2
{F5A0D3B0-9AE1-4694-8009-A5D8FFD3AE1F}
  9
$EXTNAMES
290
     1
  9
$PSVPSCALE
 40
0.0
  9
$OLESTARTUP
290
     0
  0
ENDSEC
  0
SECTION
  2
CLASSES
  0
CLASS
  1
ACDBDICTIONARYWDFLT
  2
AcDbDictionaryWithDefault
  3
AutoCAD 2000
 90
        0
280
     0
281
     0
  0
CLASS
  1
ACDBPLACEHOLDER
  2
AcDbPlaceHolder
  3
AutoCAD 2000
 90
        0
280
     0
281
     0
  0
CLASS
  1
LAYOUT
  2
AcDbLayout
  3
AutoCAD 2000
 90
        0
280
     0
281
     0
  0
ENDSEC
  0
SECTION
  2
TABLES
  0
TABLE
  2
VPORT
  5
8
330
0
100
AcDbSymbolTable
 70
     7
  0
VPORT
  5
93F
330
8
100
AcDbSymbolTableRecord
100
AcDbViewportTableRecord
  2
*Active
 70
     0
 10
0.0
 20
0.0
 11
1.0
 21
1.0
 12
597.2108966131713
 22
547.1266131472089
 13
0.0
 23
0.0
 14
1.0
 24
1.0
 15
0.0
 25
0.0
 16
0.0
 26
0.0
 36
1.0
 17
0.0
 27
0.0
 37
0.0
 40
764.8810898092401
 41
1.461725394896719
 42
50.0
 43
0.0
 44
0.0
 50
0.0
 51
0.0
 71
     0
 72
   100
 73
     1
 74
     1
 75
     0
 76
     0
 77
     0
 78
     0
281
     0
 65
     1
110
0.0
120
0.0
130
0.0
111
1.0
121
0.0
131
0.0
112
0.0
122
1.0
132
0.0
 79
     0
146
0.0
  0
ENDTAB
  0
TABLE
  2
LTYPE
  5
5
330
0
100
AcDbSymbolTable
 70
     5
  0
LTYPE
  5
13
330
5
100
AcDbSymbolTableRecord
100
AcDbLinetypeTableRecord
  2
ByBlock
 70
     0
  3

 72
    65
 73
     0
 40
0.0
  0
LTYPE
  5
14
330
5
100
AcDbSymbolTableRecord
100
AcDbLinetypeTableRecord
  2
ByLayer
 70
     0
  3

 72
    65
 73
     0
 40
0.0
  0
LTYPE
  5
15
330
5
100
AcDbSymbolTableRecord
100
AcDbLinetypeTableRecord
  2
CONTINUOUS
 70
     0
  3
Solid line
 72
    65
 73
     0
 40
0.0
  0
LTYPE
  5
22
330
5
100
AcDbSymbolTableRecord
100
AcDbLinetypeTableRecord
  2
HIDDEN
 70
     0
  3
------------------------
 72
    65
 73
     2
 40
12.6
 49
8.4
 74
     0
 49
-4.2
 74
     0
  0
LTYPE
  5
23
330
5
100
AcDbSymbolTableRecord
100
AcDbLinetypeTableRecord
  2
DOT
 70
     0
  3
････････････････････････
 72
    65
 73
     2
 40
8.0
 49
6.0
 74
     0
 49
-2.0
 74
     0
  0
LTYPE
  5
24
330
5
100
AcDbSymbolTableRecord
100
AcDbLinetypeTableRecord
  2
DASHDOT
 70
     0
  3
--･--･--･--･--･--･--･--
 72
    65
 73
     4
 40
50.5
 49
30.0
 74
     0
 49
-9.0
 74
     0
 49
2.5
 74
     0
 49
-9.0
 74
     0
  0
LTYPE
  5
25
330
5
100
AcDbSymbolTableRecord
100
AcDbLinetypeTableRecord
  2
DIVIDE
 70
     0
  3
--･･--･･--･･--･･--･･--
 72
    65
 73
     6
 40
58.0
 49
30.0
 74
     0
 49
-9.0
 74
     0
 49
2.5
 74
     0
 49
-5.0
 74
     0
 49
2.5
 74
     0
 49
-9.0
 74
     0
  0
ENDTAB
  0
TABLE
  2
LAYER
  5
2
330
0
100
AcDbSymbolTable
 70
     3
  0
LAYER
  5
10
330
2
100
AcDbSymbolTableRecord
100
AcDbLayerTableRecord
  2
0
 70
     0
 62
     7
  6
CONTINUOUS
370
    -3
390
F
  0
LAYER
  5
26
330
2
100
AcDbSymbolTableRecord
100
AcDbLayerTableRecord
  2
1
 70
     0
 62
     7
  6
CONTINUOUS
370
    -3
390
F
  0
LAYER
  5
522
330
2
100
AcDbSymbolTableRecord
100
AcDbLayerTableRecord
  2
Defpoints
 70
     0
 62
     7
  6
CONTINUOUS
290
     0
370
    -3
390
F
  0
ENDTAB
  0
TABLE
  2
STYLE
  5
3
330
0
100
AcDbSymbolTable
 70
     2
  0
STYLE
  5
11
330
3
100
AcDbSymbolTableRecord
100
AcDbTextStyleTableRecord
  2
STANDARD
 70
     0
 40
0.0
 41
1.0
 50
0.0
 71
     0
 42
0.2
  3
TXT
  4

  0
STYLE
  5
27
330
3
100
AcDbSymbolTableRecord
100
AcDbTextStyleTableRecord
  2
KANJI
 70
     0
 40
0.0
 41
1.0
 50
0.0
 71
     0
 42
0.2
  3
TXT
  4
BIGFONT
  0
ENDTAB
  0
TABLE
  2
VIEW
  5
6
330
0
100
AcDbSymbolTable
 70
     0
  0
ENDTAB
  0
TABLE
  2
UCS
  5
7
330
0
100
AcDbSymbolTable
 70
     0
  0
ENDTAB
  0
TABLE
  2
APPID
  5
9
330
0
100
AcDbSymbolTable
 70
     1
  0
APPID
  5
12
330
9
100
AcDbSymbolTableRecord
100
AcDbRegAppTableRecord
  2
ACAD
 70
     0
  0
ENDTAB
  0
TABLE
  2
DIMSTYLE
  5
A
330
0
100
AcDbSymbolTable
 70
     1
100
AcDbDimStyleTable
 71
     1
340
8E5
  0
DIMSTYLE
105
8E5
330
A
100
AcDbSymbolTableRecord
100
AcDbDimStyleTableRecord
  2
Standard
 70
     0
340
11
  0
ENDTAB
  0
TABLE
  2
BLOCK_RECORD
  5
1
330
0
100
AcDbSymbolTable
 70
    16
  0
BLOCK_RECORD
  5
1E
330
1
100
AcDbSymbolTableRecord
100
AcDbBlockTableRecord
  2
*Model_Space
340
21
  0
BLOCK_RECORD
  5
1A
330
1
100
AcDbSymbolTableRecord
100
AcDbBlockTableRecord
  2
*Paper_Space
340
1D
  0
BLOCK_RECORD
  5
2B
330
1
100
AcDbSymbolTableRecord
100
AcDbBlockTableRecord
  2
*D0
340
0
  0
BLOCK_RECORD
  5
36
330
1
100
AcDbSymbolTableRecord
100
AcDbBlockTableRecord
  2
*D1
340
0
  0
BLOCK_RECORD
  5
3F
330
1
100
AcDbSymbolTableRecord
100
AcDbBlockTableRecord
  2
*D2
340
0
  0
BLOCK_RECORD
  5
48
330
1
100
AcDbSymbolTableRecord
100
AcDbBlockTableRecord
  2
*D3
340
0
  0
BLOCK_RECORD
  5
53
330
1
100
AcDbSymbolTableRecord
100
AcDbBlockTableRecord
  2
*D4
340
0
  0
BLOCK_RECORD
  5
5E
330
1
100
AcDbSymbolTableRecord
100
AcDbBlockTableRecord
  2
*D5
340
0
  0
BLOCK_RECORD
  5
69
330
1
100
AcDbSymbolTableRecord
100
AcDbBlockTableRecord
  2
*D6
340
0
  0
BLOCK_RECORD
  5
74
330
1
100
AcDbSymbolTableRecord
100
AcDbBlockTableRecord
  2
*D7
340
0
  0
BLOCK_RECORD
  5
523
330
1
100
AcDbSymbolTableRecord
100
AcDbBlockTableRecord
  2
*D8
340
0
  0
BLOCK_RECORD
  5
53B
330
1
100
AcDbSymbolTableRecord
100
AcDbBlockTableRecord
  2
*D9
340
0
  0
BLOCK_RECORD
  5
54A
330
1
100
AcDbSymbolTableRecord
100
AcDbBlockTableRecord
  2
*D10
340
0
  0
BLOCK_RECORD
  5
6E3
330
1
100
AcDbSymbolTableRecord
100
AcDbBlockTableRecord
  2
*D11
340
0
  0
BLOCK_RECORD
  5
6EF
330
1
100
AcDbSymbolTableRecord
100
AcDbBlockTableRecord
  2
*D12
340
0
  0
BLOCK_RECORD
  5
6FB
330
1
100
AcDbSymbolTableRecord
100
AcDbBlockTableRecord
  2
*D13
340
0
  0
BLOCK_RECORD
  5
8C8
330
1
100
AcDbSymbolTableRecord
100
AcDbBlockTableRecord
  2
*D14
340
0
  0
BLOCK_RECORD
  5
8D4
330
1
100
AcDbSymbolTableRecord
100
AcDbBlockTableRecord
  2
*D15
340
0
  0
ENDTAB
  0
ENDSEC
  0
SECTION
  2
BLOCKS
  0
BLOCK
  5
1F
330
1E
100
AcDbEntity
  8
0
100
AcDbBlockBegin
  2
*Model_Space
 70
     0
 10
0.0
 20
0.0
 30
0.0
  3
*Model_Space
  1

  0
ENDBLK
  5
20
330
1E
100
AcDbEntity
  8
0
100
AcDbBlockEnd
  0
BLOCK
  5
1B
330
1A
100
AcDbEntity
 67
     1
  8
0
100
AcDbBlockBegin
  2
*Paper_Space
 70
     0
 10
0.0
 20
0.0
 30
0.0
  3
*Paper_Space
  1

  0
ENDBLK
  5
1C
330
1A
100
AcDbEntity
 67
     1
  8
0
100
AcDbBlockEnd
  0
BLOCK
  5
2C
330
2B
100
AcDbEntity
  8
1
  6
Continuous
 62
     7
100
AcDbBlockBegin
  2
*D0
 70
     1
 10
0.0
 20
0.0
 30
0.0
  3
*D0
  1

  0
LINE
  5
2D
330
2B
100
AcDbEntity
  8
1
  6
Continuous
 62
     7
100
AcDbLine
 10
210.0
 20
610.7499999999999
 30
0.0
 11
350.0
 21
610.7499999999999
 31
0.0
  0
LINE
  5
2E
330
2B
100
AcDbEntity
  8
1
  6
Continuous
 62
     7
100
AcDbLine
 10
210.0
 20
620.75
 30
0.0
 11
210.0
 21
609.4999999999999
 31
0.0
  0
LINE
  5
2F
330
2B
100
AcDbEntity
  8
1
  6
Continuous
 62
     7
100
AcDbLine
 10
350.0
 20
620.75
 30
0.0
 11
350.0
 21
609.4999999999999
 31
0.0
  0
LINE
  5
30
330
2B
100
AcDbEntity
  8
1
  6
Continuous
 62
     7
100
AcDbLine
 10
210.0
 20
610.7499999999999
 30
0.0
 11
229.318517
 21
615.9263809999999
 31
0.0
  0
LINE
  5
31
330
2B
100
AcDbEntity
  8
1
  6
Continuous
 62
     7
100
AcDbLine
 10
210.0
 20
610.7499999999999
 30
0.0
 11
229.318517
 21
605.573619
 31
0.0
  0
LINE
  5
32
330
2B
100
AcDbEntity
  8
1
  6
Continuous
 62
     7
100
AcDbLine
 10
350.0
 20
610.7499999999999
 30
0.0
 11
330.681483
 21
605.573619
 31
0.0
  0
LINE
  5
33
330
2B
100
AcDbEntity
  8
1
  6
Continuous
 62
     7
100
AcDbLine
 10
350.0
 20
610.7499999999999
 30
0.0
 11
330.681483
 21
615.9263809999999
 31
0.0
  0
TEXT
  5
34
330
2B
100
AcDbEntity
  8
1
  6
Continuous
 62
     7
100
AcDbText
 10
265.0
 20
610.7499999999999
 30
0.0
 40
20.0
  1
140
 41
0.5
  7
KANJI
100
AcDbText
  0
ENDBLK
  5
35
330
2B
100
AcDbEntity
  8
0
100
AcDbBlockEnd
  0
BLOCK
  5
37
330
36
100
AcDbEntity
  8
1
  6
Continuous
 62
     7
100
AcDbBlockBegin
  2
*D1
 70
     1
 10
0.0
 20
0.0
 30
0.0
  3
*D1
  1

  0
LINE
  5
38
330
36
100
AcDbEntity
  8
1
  6
Continuous
 62
     7
100
AcDbLine
 10
220.0
 20
437.25
 30
0.0
 11
220.0
 21
537.25
 31
0.0
  0
LINE
  5
39
330
36
100
AcDbEntity
  8
1
  6
Continuous
 62
     7
100
AcDbLine
 10
220.0
 20
437.25
 30
0.0
 11
217.41181
 21
446.909258
 31
0.0
  0
LINE
  5
3A
330
36
100
AcDbEntity
  8
1
  6
Continuous
 62
     7
100
AcDbLine
 10
220.0
 20
437.25
 30
0.0
 11
222.58819
 21
446.909258
 31
0.0
  0
LINE
  5
3B
330
36
100
AcDbEntity
  8
1
  6
Continuous
 62
     7
100
AcDbLine
 10
220.0
 20
537.25
 30
0.0
 11
222.58819
 21
527.590742
 31
0.0
  0
LINE
  5
3C
330
36
100
AcDbEntity
  8
1
  6
Continuous
 62
     7
100
AcDbLine
 10
220.0
 20
537.25
 30
0.0
 11
217.41181
 21
527.590742
 31
0.0
  0
TEXT
  5
3D
330
36
100
AcDbEntity
  8
1
  6
Continuous
 62
     7
100
AcDbText
 10
220.0
 20
472.25
 30
0.0
 40
20.0
  1
100
 50
90.0
 41
0.5
  7
KANJI
100
AcDbText
  0
ENDBLK
  5
3E
330
36
100
AcDbEntity
  8
0
100
AcDbBlockEnd
  0
BLOCK
  5
40
330
3F
100
AcDbEntity
  8
1
  6
Continuous
 62
     7
100
AcDbBlockBegin
  2
*D2
 70
     1
 10
0.0
 20
0.0
 30
0.0
  3
*D2
  1

  0
LINE
  5
41
330
3F
100
AcDbEntity
  8
1
  6
Continuous
 62
     7
100
AcDbLine
 10
340.0
 20
477.2499999999999
 30
0.0
 11
340.0
 21
537.25
 31
0.0
  0
LINE
  5
42
330
3F
100
AcDbEntity
  8
1
  6
Continuous
 62
     7
100
AcDbLine
 10
340.0
 20
477.2499999999999
 30
0.0
 11
334.823619
 21
496.5685169999999
 31
0.0
  0
LINE
  5
43
330
3F
100
AcDbEntity
  8
1
  6
Continuous
 62
     7
100
AcDbLine
 10
340.0
 20
477.2499999999999
 30
0.0
 11
345.176381
 21
496.5685169999999
 31
0.0
  0
LINE
  5
44
330
3F
100
AcDbEntity
  8
1
  6
Continuous
 62
     7
100
AcDbLine
 10
340.0
 20
537.25
 30
0.0
 11
345.176381
 21
517.931483
 31
0.0
  0
LINE
  5
45
330
3F
100
AcDbEntity
  8
1
  6
Continuous
 62
     7
100
AcDbLine
 10
340.0
 20
537.25
 30
0.0
 11
334.823619
 21
517.931483
 31
0.0
  0
TEXT
  5
46
330
3F
100
AcDbEntity
  8
1
  6
Continuous
 62
     7
100
AcDbText
 10
340.0
 20
497.25
 30
0.0
 40
20.0
  1
60
 50
90.0
 41
0.5
  7
KANJI
100
AcDbText
  0
ENDBLK
  5
47
330
3F
100
AcDbEntity
  8
0
100
AcDbBlockEnd
  0
BLOCK
  5
49
330
48
100
AcDbEntity
  8
1
  6
Continuous
 62
     7
100
AcDbBlockBegin
  2
*D3
 70
     1
 10
0.0
 20
0.0
 30
0.0
  3
*D3
  1

  0
LINE
  5
4A
330
48
100
AcDbEntity
  8
1
  6
Continuous
 62
     7
100
AcDbLine
 10
1120.0
 20
300.0
 30
0.0
 11
1120.0
 21
654.4999999999999
 31
0.0
  0
LINE
  5
4B
330
48
100
AcDbEntity
  8
1
  6
Continuous
 62
     7
100
AcDbLine
 10
1130.0
 20
300.0
 30
0.0
 11
1085.0
 21
300.0
 31
0.0
  0
LINE
  5
4C
330
48
100
AcDbEntity
  8
1
  6
Continuous
 62
     7
100
AcDbLine
 10
1130.0
 20
654.4999999999999
 30
0.0
 11
1085.0
 21
654.4999999999999
 31
0.0
  0
LINE
  5
4D
330
48
100
AcDbEntity
  8
1
  6
Continuous
 62
     7
100
AcDbLine
 10
1120.0
 20
300.0
 30
0.0
 11
1114.823619
 21
319.318517
 31
0.0
  0
LINE
  5
4E
330
48
100
AcDbEntity
  8
1
  6
Continuous
 62
     7
100
AcDbLine
 10
1120.0
 20
300.0
 30
0.0
 11
1125.176380999999
 21
319.318517
 31
0.0
  0
LINE
  5
4F
330
48
100
AcDbEntity
  8
1
  6
Continuous
 62
     7
100
AcDbLine
 10
1120.0
 20
654.4999999999999
 30
0.0
 11
1125.176380999999
 21
635.1814829999999
 31
0.0
  0
LINE
  5
50
330
48
100
AcDbEntity
  8
1
  6
Continuous
 62
     7
100
AcDbLine
 10
1120.0
 20
654.4999999999999
 30
0.0
 11
1114.823619
 21
635.1814829999999
 31
0.0
  0
TEXT
  5
51
330
48
100
AcDbEntity
  8
1
  6
Continuous
 62
     7
100
AcDbText
 10
1120.0
 20
452.2499999999999
 30
0.0
 40
20.0
  1
354.5
 50
90.0
 41
0.543478
  7
KANJI
100
AcDbText
  0
ENDBLK
  5
52
330
48
100
AcDbEntity
  8
0
100
AcDbBlockEnd
  0
BLOCK
  5
54
330
53
100
AcDbEntity
  8
1
  6
Continuous
 62
     7
100
AcDbBlockBegin
  2
*D4
 70
     1
 10
0.0
 20
0.0
 30
0.0
  3
*D4
  1

  0
LINE
  5
55
330
53
100
AcDbEntity
  8
1
  6
Continuous
 62
     7
100
AcDbLine
 10
1075.0
 20
680.0
 30
0.0
 11
685.0
 21
680.0
 31
0.0
  0
LINE
  5
56
330
53
100
AcDbEntity
  8
1
  6
Continuous
 62
     7
100
AcDbLine
 10
1075.0
 20
690.0
 30
0.0
 11
1075.0
 21
664.5
 31
0.0
  0
LINE
  5
57
330
53
100
AcDbEntity
  8
1
  6
Continuous
 62
     7
100
AcDbLine
 10
685.0
 20
690.0
 30
0.0
 11
685.0
 21
664.5
 31
0.0
  0
LINE
  5
58
330
53
100
AcDbEntity
  8
1
  6
Continuous
 62
     7
100
AcDbLine
 10
1075.0
 20
680.0
 30
0.0
 11
1055.681483
 21
674.823619
 31
0.0
  0
LINE
  5
59
330
53
100
AcDbEntity
  8
1
  6
Continuous
 62
     7
100
AcDbLine
 10
1075.0
 20
680.0
 30
0.0
 11
1055.681483
 21
685.176381
 31
0.0
  0
LINE
  5
5A
330
53
100
AcDbEntity
  8
1
  6
Continuous
 62
     7
100
AcDbLine
 10
685.0
 20
680.0
 30
0.0
 11
704.318517
 21
685.176381
 31
0.0
  0
LINE
  5
5B
330
53
100
AcDbEntity
  8
1
  6
Continuous
 62
     7
100
AcDbLine
 10
685.0
 20
680.0
 30
0.0
 11
704.318517
 21
674.823619
 31
0.0
  0
TEXT
  5
5C
330
53
100
AcDbEntity
  8
1
  6
Continuous
 62
     7
100
AcDbText
 10
865.0
 20
680.0
 30
0.0
 40
20.0
  1
390
 41
0.5
  7
KANJI
100
AcDbText
  0
ENDBLK
  5
5D
330
53
100
AcDbEntity
  8
0
100
AcDbBlockEnd
  0
BLOCK
  5
5F
330
5E
100
AcDbEntity
  8
1
  6
Continuous
 62
     7
100
AcDbBlockBegin
  2
*D5
 70
     1
 10
0.0
 20
0.0
 30
0.0
  3
*D5
  1

  0
LINE
  5
60
330
5E
100
AcDbEntity
  8
1
  6
Continuous
 62
     7
100
AcDbLine
 10
540.0
 20
680.0
 30
0.0
 11
614.2
 21
680.0
 31
0.0
  0
LINE
  5
61
330
5E
100
AcDbEntity
  8
1
  6
Continuous
 62
     7
100
AcDbLine
 10
540.0
 20
690.0
 30
0.0
 11
540.0
 21
664.5
 31
0.0
  0
LINE
  5
62
330
5E
100
AcDbEntity
  8
1
  6
Continuous
 62
     7
100
AcDbLine
 10
614.2
 20
690.0
 30
0.0
 11
614.2
 21
664.5
 31
0.0
  0
LINE
  5
63
330
5E
100
AcDbEntity
  8
1
  6
Continuous
 62
     7
100
AcDbLine
 10
540.0
 20
680.0
 30
0.0
 11
559.318517
 21
685.176381
 31
0.0
  0
LINE
  5
64
330
5E
100
AcDbEntity
  8
1
  6
Continuous
 62
     7
100
AcDbLine
 10
540.0
 20
680.0
 30
0.0
 11
559.318517
 21
674.823619
 31
0.0
  0
LINE
  5
65
330
5E
100
AcDbEntity
  8
1
  6
Continuous
 62
     7
100
AcDbLine
 10
614.2
 20
680.0
 30
0.0
 11
594.8814829999999
 21
674.823619
 31
0.0
  0
LINE
  5
66
330
5E
100
AcDbEntity
  8
1
  6
Continuous
 62
     7
100
AcDbLine
 10
614.2
 20
680.0
 30
0.0
 11
594.8814829999999
 21
685.176381
 31
0.0
  0
TEXT
  5
67
330
5E
100
AcDbEntity
  8
1
  6
Continuous
 62
     7
100
AcDbText
 10
557.1
 20
680.0
 30
0.0
 40
20.0
  1
74.2
 41
0.5555560000000001
  7
KANJI
100
AcDbText
  0
ENDBLK
  5
68
330
5E
100
AcDbEntity
  8
0
100
AcDbBlockEnd
  0
BLOCK
  5
6A
330
69
100
AcDbEntity
  8
1
  6
Continuous
 62
     7
100
AcDbBlockBegin
  2
*D6
 70
     1
 10
0.0
 20
0.0
 30
0.0
  3
*D6
  1

  0
LINE
  5
6B
330
69
100
AcDbEntity
  8
1
  6
Continuous
 62
     7
100
AcDbLine
 10
230.0
 20
410.0
 30
0.0
 11
330.0
 21
410.0
 31
0.0
  0
LINE
  5
6C
330
69
100
AcDbEntity
  8
1
  6
Continuous
 62
     7
100
AcDbLine
 10
230.0
 20
400.0
 30
0.0
 11
230.0
 21
420.0
 31
0.0
  0
LINE
  5
6D
330
69
100
AcDbEntity
  8
1
  6
Continuous
 62
     7
100
AcDbLine
 10
330.0
 20
400.0
 30
0.0
 11
330.0
 21
420.0
 31
0.0
  0
LINE
  5
6E
330
69
100
AcDbEntity
  8
1
  6
Continuous
 62
     7
100
AcDbLine
 10
230.0
 20
410.0
 30
0.0
 11
249.3185169999999
 21
415.176381
 31
0.0
  0
LINE
  5
6F
330
69
100
AcDbEntity
  8
1
  6
Continuous
 62
     7
100
AcDbLine
 10
230.0
 20
410.0
 30
0.0
 11
249.3185169999999
 21
404.8236189999999
 31
0.0
  0
LINE
  5
70
330
69
100
AcDbEntity
  8
1
  6
Continuous
 62
     7
100
AcDbLine
 10
330.0
 20
410.0
 30
0.0
 11
310.681483
 21
404.8236189999999
 31
0.0
  0
LINE
  5
71
330
69
100
AcDbEntity
  8
1
  6
Continuous
 62
     7
100
AcDbLine
 10
330.0
 20
410.0
 30
0.0
 11
310.681483
 21
415.176381
 31
0.0
  0
TEXT
  5
72
330
69
100
AcDbEntity
  8
1
  6
Continuous
 62
     7
100
AcDbText
 10
265.0
 20
410.0
 30
0.0
 40
20.0
  1
100
 41
0.5
  7
KANJI
100
AcDbText
  0
ENDBLK
  5
73
330
69
100
AcDbEntity
  8
0
100
AcDbBlockEnd
  0
BLOCK
  5
75
330
74
100
AcDbEntity
  8
1
  6
Continuous
 62
     7
100
AcDbBlockBegin
  2
*D7
 70
     1
 10
0.0
 20
0.0
 30
0.0
  3
*D7
  1

  0
LINE
  5
76
330
74
100
AcDbEntity
  8
1
  6
Continuous
 62
     7
100
AcDbLine
 10
150.0
 20
477.2499999999999
 30
0.0
 11
150.0
 21
597.25
 31
0.0
  0
LINE
  5
77
330
74
100
AcDbEntity
  8
1
  6
Continuous
 62
     7
100
AcDbLine
 10
140.0
 20
477.2499999999999
 30
0.0
 11
180.0
 21
477.2499999999999
 31
0.0
  0
LINE
  5
78
330
74
100
AcDbEntity
  8
1
  6
Continuous
 62
     7
100
AcDbLine
 10
140.0
 20
597.25
 30
0.0
 11
180.0
 21
597.25
 31
0.0
  0
LINE
  5
79
330
74
100
AcDbEntity
  8
1
  6
Continuous
 62
     7
100
AcDbLine
 10
150.0
 20
477.2499999999999
 30
0.0
 11
144.823619
 21
496.5685169999999
 31
0.0
  0
LINE
  5
7A
330
74
100
AcDbEntity
  8
1
  6
Continuous
 62
     7
100
AcDbLine
 10
150.0
 20
477.2499999999999
 30
0.0
 11
155.1763809999999
 21
496.5685169999999
 31
0.0
  0
LINE
  5
7B
330
74
100
AcDbEntity
  8
1
  6
Continuous
 62
     7
100
AcDbLine
 10
150.0
 20
597.25
 30
0.0
 11
155.1763809999999
 21
577.9314829999999
 31
0.0
  0
LINE
  5
7C
330
74
100
AcDbEntity
  8
1
  6
Continuous
 62
     7
100
AcDbLine
 10
150.0
 20
597.25
 30
0.0
 11
144.823619
 21
577.9314829999999
 31
0.0
  0
TEXT
  5
7D
330
74
100
AcDbEntity
  8
1
  6
Continuous
 62
     7
100
AcDbText
 10
150.0
 20
522.25
 30
0.0
 40
20.0
  1
120
 50
90.0
 41
0.5
  7
KANJI
100
AcDbText
  0
ENDBLK
  5
7E
330
74
100
AcDbEntity
  8
0
100
AcDbBlockEnd
  0
BLOCK
  5
52C
330
523
100
AcDbEntity
  8
0
100
AcDbBlockBegin
  2
*D8
 70
     1
 10
0.0
 20
0.0
 30
0.0
  3
*D8
  1

  0
LINE
  5
524
330
523
100
AcDbEntity
  8
1
  6
Continuous
 62
     0
370
    -2
100
AcDbLine
 10
210.0
 20
609.4999999999999
 30
0.0
 11
210.0
 21
610.7499999999999
 31
0.0
  0
LINE
  5
525
330
523
100
AcDbEntity
  8
1
  6
Continuous
 62
     0
370
    -2
100
AcDbLine
 10
350.0
 20
609.4999999999999
 30
0.0
 11
350.0
 21
610.7499999999999
 31
0.0
  0
LINE
  5
526
330
523
100
AcDbEntity
  8
1
  6
Continuous
 62
     0
370
    -2
100
AcDbLine
 10
211.0
 20
610.7499999999999
 30
0.0
 11
349.0
 21
610.7499999999999
 31
0.0
  0
SOLID
  5
527
330
523
100
AcDbEntity
  8
1
  6
Continuous
 62
     0
100
AcDbTrace
 10
211.0
 20
610.9166666666666
 30
0.0
 11
211.0
 21
610.5833333333333
 31
0.0
 12
210.0
 22
610.7499999999999
 32
0.0
 13
210.0
 23
610.7499999999999
 33
0.0
  0
SOLID
  5
528
330
523
100
AcDbEntity
  8
1
  6
Continuous
 62
     0
100
AcDbTrace
 10
349.0
 20
610.9166666666666
 30
0.0
 11
349.0
 21
610.5833333333333
 31
0.0
 12
350.0
 22
610.7499999999999
 32
0.0
 13
350.0
 23
610.7499999999999
 33
0.0
  0
POINT
  5
529
330
523
100
AcDbEntity
  8
Defpoints
  6
Continuous
 62
     0
100
AcDbPoint
 10
210.0
 20
609.4999999999999
 30
0.0
  0
POINT
  5
52A
330
523
100
AcDbEntity
  8
Defpoints
  6
Continuous
 62
     0
100
AcDbPoint
 10
350.0
 20
609.4999999999999
 30
0.0
  0
POINT
  5
52B
330
523
100
AcDbEntity
  8
Defpoints
  6
Continuous
 62
     0
100
AcDbPoint
 10
350.0
 20
610.7499999999999
 30
0.0
  0
ENDBLK
  5
52D
330
523
100
AcDbEntity
  8
0
100
AcDbBlockEnd
  0
BLOCK
  5
542
330
53B
100
AcDbEntity
  8
0
100
AcDbBlockBegin
  2
*D9
 70
     1
 10
0.0
 20
0.0
 30
0.0
  3
*D9
  1

  0
LINE
  5
53C
330
53B
100
AcDbEntity
  8
1
  6
Continuous
 62
     0
370
    -2
100
AcDbLine
 10
220.0
 20
438.25
 30
0.0
 11
220.0
 21
536.2499999999999
 31
0.0
  0
SOLID
  5
53D
330
53B
100
AcDbEntity
  8
1
  6
Continuous
 62
     0
100
AcDbTrace
 10
219.8333333333333
 20
438.25
 30
0.0
 11
220.1666666666666
 21
438.25
 31
0.0
 12
220.0
 22
437.25
 32
0.0
 13
220.0
 23
437.25
 33
0.0
  0
SOLID
  5
53E
330
53B
100
AcDbEntity
  8
1
  6
Continuous
 62
     0
100
AcDbTrace
 10
219.8333333333333
 20
536.2499999999999
 30
0.0
 11
220.1666666666667
 21
536.2499999999999
 31
0.0
 12
220.0
 22
537.25
 32
0.0
 13
220.0
 23
537.25
 33
0.0
  0
POINT
  5
53F
330
53B
100
AcDbEntity
  8
Defpoints
  6
Continuous
 62
     0
100
AcDbPoint
 10
220.0
 20
437.25
 30
0.0
  0
POINT
  5
540
330
53B
100
AcDbEntity
  8
Defpoints
  6
Continuous
 62
     0
100
AcDbPoint
 10
220.0
 20
537.25
 30
0.0
  0
POINT
  5
541
330
53B
100
AcDbEntity
  8
Defpoints
  6
Continuous
 62
     0
100
AcDbPoint
 10
220.0
 20
537.25
 30
0.0
  0
ENDBLK
  5
543
330
53B
100
AcDbEntity
  8
0
100
AcDbBlockEnd
  0
BLOCK
  5
551
330
54A
100
AcDbEntity
  8
0
100
AcDbBlockBegin
  2
*D10
 70
     1
 10
0.0
 20
0.0
 30
0.0
  3
*D10
  1

  0
LINE
  5
54B
330
54A
100
AcDbEntity
  8
1
  6
Continuous
 62
     0
370
    -2
100
AcDbLine
 10
340.0
 20
478.2499999999999
 30
0.0
 11
340.0
 21
536.2499999999999
 31
0.0
  0
SOLID
  5
54C
330
54A
100
AcDbEntity
  8
1
  6
Continuous
 62
     0
100
AcDbTrace
 10
339.8333333333333
 20
478.2499999999999
 30
0.0
 11
340.1666666666666
 21
478.2499999999999
 31
0.0
 12
340.0
 22
477.2499999999999
 32
0.0
 13
340.0
 23
477.2499999999999
 33
0.0
  0
SOLID
  5
54D
330
54A
100
AcDbEntity
  8
1
  6
Continuous
 62
     0
100
AcDbTrace
 10
339.8333333333333
 20
536.2499999999999
 30
0.0
 11
340.1666666666666
 21
536.2499999999999
 31
0.0
 12
340.0
 22
537.25
 32
0.0
 13
340.0
 23
537.25
 33
0.0
  0
POINT
  5
54E
330
54A
100
AcDbEntity
  8
Defpoints
  6
Continuous
 62
     0
100
AcDbPoint
 10
340.0
 20
477.2499999999999
 30
0.0
  0
POINT
  5
54F
330
54A
100
AcDbEntity
  8
Defpoints
  6
Continuous
 62
     0
100
AcDbPoint
 10
340.0
 20
537.25
 30
0.0
  0
POINT
  5
550
330
54A
100
AcDbEntity
  8
Defpoints
  6
Continuous
 62
     0
100
AcDbPoint
 10
340.0
 20
537.25
 30
0.0
  0
ENDBLK
  5
552
330
54A
100
AcDbEntity
  8
0
100
AcDbBlockEnd
  0
BLOCK
  5
6EC
330
6E3
100
AcDbEntity
  8
0
100
AcDbBlockBegin
  2
*D11
 70
     1
 10
0.0
 20
0.0
 30
0.0
  3
*D11
  1

  0
LINE
  5
6E4
330
6E3
100
AcDbEntity
  8
1
  6
Continuous
 62
     0
370
    -2
100
AcDbLine
 10
1085.0
 20
300.0
 30
0.0
 11
1120.0
 21
300.0
 31
0.0
  0
LINE
  5
6E5
330
6E3
100
AcDbEntity
  8
1
  6
Continuous
 62
     0
370
    -2
100
AcDbLine
 10
1085.0
 20
654.4999999999999
 30
0.0
 11
1120.0
 21
654.4999999999999
 31
0.0
  0
LINE
  5
6E6
330
6E3
100
AcDbEntity
  8
1
  6
Continuous
 62
     0
370
    -2
100
AcDbLine
 10
1120.0
 20
301.0
 30
0.0
 11
1120.0
 21
653.5
 31
0.0
  0
SOLID
  5
6E7
330
6E3
100
AcDbEntity
  8
1
  6
Continuous
 62
     0
100
AcDbTrace
 10
1119.833333333333
 20
301.0
 30
0.0
 11
1120.166666666666
 21
301.0
 31
0.0
 12
1120.0
 22
300.0
 32
0.0
 13
1120.0
 23
300.0
 33
0.0
  0
SOLID
  5
6E8
330
6E3
100
AcDbEntity
  8
1
  6
Continuous
 62
     0
100
AcDbTrace
 10
1119.833333333333
 20
653.5
 30
0.0
 11
1120.166666666666
 21
653.5
 31
0.0
 12
1120.0
 22
654.4999999999999
 32
0.0
 13
1120.0
 23
654.4999999999999
 33
0.0
  0
POINT
  5
6E9
330
6E3
100
AcDbEntity
  8
Defpoints
  6
Continuous
 62
     0
100
AcDbPoint
 10
1085.0
 20
300.0
 30
0.0
  0
POINT
  5
6EA
330
6E3
100
AcDbEntity
  8
Defpoints
  6
Continuous
 62
     0
100
AcDbPoint
 10
1085.0
 20
654.4999999999999
 30
0.0
  0
POINT
  5
6EB
330
6E3
100
AcDbEntity
  8
Defpoints
  6
Continuous
 62
     0
100
AcDbPoint
 10
1120.0
 20
654.4999999999999
 30
0.0
  0
ENDBLK
  5
6ED
330
6E3
100
AcDbEntity
  8
0
100
AcDbBlockEnd
  0
BLOCK
  5
6F8
330
6EF
100
AcDbEntity
  8
0
100
AcDbBlockBegin
  2
*D12
 70
     1
 10
0.0
 20
0.0
 30
0.0
  3
*D12
  1

  0
LINE
  5
6F0
330
6EF
100
AcDbEntity
  8
1
  6
Continuous
 62
     0
370
    -2
100
AcDbLine
 10
1075.0
 20
664.5
 30
0.0
 11
1075.0
 21
680.0
 31
0.0
  0
LINE
  5
6F1
330
6EF
100
AcDbEntity
  8
1
  6
Continuous
 62
     0
370
    -2
100
AcDbLine
 10
685.0
 20
664.5
 30
0.0
 11
685.0
 21
680.0
 31
0.0
  0
LINE
  5
6F2
330
6EF
100
AcDbEntity
  8
1
  6
Continuous
 62
     0
370
    -2
100
AcDbLine
 10
1074.0
 20
680.0
 30
0.0
 11
686.0
 21
680.0
 31
0.0
  0
SOLID
  5
6F3
330
6EF
100
AcDbEntity
  8
1
  6
Continuous
 62
     0
100
AcDbTrace
 10
1074.0
 20
680.1666666666666
 30
0.0
 11
1074.0
 21
679.8333333333333
 31
0.0
 12
1075.0
 22
680.0
 32
0.0
 13
1075.0
 23
680.0
 33
0.0
  0
SOLID
  5
6F4
330
6EF
100
AcDbEntity
  8
1
  6
Continuous
 62
     0
100
AcDbTrace
 10
686.0
 20
680.1666666666666
 30
0.0
 11
686.0
 21
679.8333333333333
 31
0.0
 12
685.0
 22
680.0
 32
0.0
 13
685.0
 23
680.0
 33
0.0
  0
POINT
  5
6F5
330
6EF
100
AcDbEntity
  8
Defpoints
  6
Continuous
 62
     0
100
AcDbPoint
 10
1075.0
 20
664.5
 30
0.0
  0
POINT
  5
6F6
330
6EF
100
AcDbEntity
  8
Defpoints
  6
Continuous
 62
     0
100
AcDbPoint
 10
685.0
 20
664.5
 30
0.0
  0
POINT
  5
6F7
330
6EF
100
AcDbEntity
  8
Defpoints
  6
Continuous
 62
     0
100
AcDbPoint
 10
685.0
 20
680.0
 30
0.0
  0
ENDBLK
  5
6F9
330
6EF
100
AcDbEntity
  8
0
100
AcDbBlockEnd
  0
BLOCK
  5
704
330
6FB
100
AcDbEntity
  8
0
100
AcDbBlockBegin
  2
*D13
 70
     1
 10
0.0
 20
0.0
 30
0.0
  3
*D13
  1

  0
LINE
  5
6FC
330
6FB
100
AcDbEntity
  8
1
  6
Continuous
 62
     0
370
    -2
100
AcDbLine
 10
540.0
 20
664.5
 30
0.0
 11
540.0
 21
680.0
 31
0.0
  0
LINE
  5
6FD
330
6FB
100
AcDbEntity
  8
1
  6
Continuous
 62
     0
370
    -2
100
AcDbLine
 10
614.2
 20
664.5
 30
0.0
 11
614.2
 21
680.0
 31
0.0
  0
LINE
  5
6FE
330
6FB
100
AcDbEntity
  8
1
  6
Continuous
 62
     0
370
    -2
100
AcDbLine
 10
541.0
 20
680.0
 30
0.0
 11
613.2
 21
680.0
 31
0.0
  0
SOLID
  5
6FF
330
6FB
100
AcDbEntity
  8
1
  6
Continuous
 62
     0
100
AcDbTrace
 10
541.0
 20
680.1666666666666
 30
0.0
 11
541.0
 21
679.8333333333333
 31
0.0
 12
540.0
 22
680.0
 32
0.0
 13
540.0
 23
680.0
 33
0.0
  0
SOLID
  5
700
330
6FB
100
AcDbEntity
  8
1
  6
Continuous
 62
     0
100
AcDbTrace
 10
613.2
 20
680.1666666666666
 30
0.0
 11
613.2
 21
679.8333333333333
 31
0.0
 12
614.2
 22
680.0
 32
0.0
 13
614.2
 23
680.0
 33
0.0
  0
POINT
  5
701
330
6FB
100
AcDbEntity
  8
Defpoints
  6
Continuous
 62
     0
100
AcDbPoint
 10
540.0
 20
664.5
 30
0.0
  0
POINT
  5
702
330
6FB
100
AcDbEntity
  8
Defpoints
  6
Continuous
 62
     0
100
AcDbPoint
 10
614.2
 20
664.5
 30
0.0
  0
POINT
  5
703
330
6FB
100
AcDbEntity
  8
Defpoints
  6
Continuous
 62
     0
100
AcDbPoint
 10
614.2
 20
680.0
 30
0.0
  0
ENDBLK
  5
705
330
6FB
100
AcDbEntity
  8
0
100
AcDbBlockEnd
  0
BLOCK
  5
8D1
330
8C8
100
AcDbEntity
  8
0
100
AcDbBlockBegin
  2
*D14
 70
     1
 10
0.0
 20
0.0
 30
0.0
  3
*D14
  1

  0
LINE
  5
8C9
330
8C8
100
AcDbEntity
  8
1
  6
Continuous
 62
     0
370
    -2
100
AcDbLine
 10
230.0
 20
420.0
 30
0.0
 11
230.0
 21
410.0
 31
0.0
  0
LINE
  5
8CA
330
8C8
100
AcDbEntity
  8
1
  6
Continuous
 62
     0
370
    -2
100
AcDbLine
 10
330.0
 20
420.0
 30
0.0
 11
330.0
 21
410.0
 31
0.0
  0
LINE
  5
8CB
330
8C8
100
AcDbEntity
  8
1
  6
Continuous
 62
     0
370
    -2
100
AcDbLine
 10
231.0
 20
410.0
 30
0.0
 11
329.0
 21
410.0
 31
0.0
  0
SOLID
  5
8CC
330
8C8
100
AcDbEntity
  8
1
  6
Continuous
 62
     0
100
AcDbTrace
 10
231.0
 20
410.1666666666666
 30
0.0
 11
231.0
 21
409.8333333333333
 31
0.0
 12
230.0
 22
410.0
 32
0.0
 13
230.0
 23
410.0
 33
0.0
  0
SOLID
  5
8CD
330
8C8
100
AcDbEntity
  8
1
  6
Continuous
 62
     0
100
AcDbTrace
 10
329.0
 20
410.1666666666666
 30
0.0
 11
329.0
 21
409.8333333333333
 31
0.0
 12
330.0
 22
410.0
 32
0.0
 13
330.0
 23
410.0
 33
0.0
  0
POINT
  5
8CE
330
8C8
100
AcDbEntity
  8
Defpoints
  6
Continuous
 62
     0
100
AcDbPoint
 10
230.0
 20
420.0
 30
0.0
  0
POINT
  5
8CF
330
8C8
100
AcDbEntity
  8
Defpoints
  6
Continuous
 62
     0
100
AcDbPoint
 10
330.0
 20
420.0
 30
0.0
  0
POINT
  5
8D0
330
8C8
100
AcDbEntity
  8
Defpoints
  6
Continuous
 62
     0
100
AcDbPoint
 10
330.0
 20
410.0
 30
0.0
  0
ENDBLK
  5
8D2
330
8C8
100
AcDbEntity
  8
0
100
AcDbBlockEnd
  0
BLOCK
  5
8DD
330
8D4
100
AcDbEntity
  8
0
100
AcDbBlockBegin
  2
*D15
 70
     1
 10
0.0
 20
0.0
 30
0.0
  3
*D15
  1

  0
LINE
  5
8D5
330
8D4
100
AcDbEntity
  8
1
  6
Continuous
 62
     0
370
    -2
100
AcDbLine
 10
180.0
 20
477.2499999999999
 30
0.0
 11
150.0
 21
477.2499999999999
 31
0.0
  0
LINE
  5
8D6
330
8D4
100
AcDbEntity
  8
1
  6
Continuous
 62
     0
370
    -2
100
AcDbLine
 10
180.0
 20
597.25
 30
0.0
 11
150.0
 21
597.25
 31
0.0
  0
LINE
  5
8D7
330
8D4
100
AcDbEntity
  8
1
  6
Continuous
 62
     0
370
    -2
100
AcDbLine
 10
150.0
 20
478.2499999999999
 30
0.0
 11
150.0
 21
596.25
 31
0.0
  0
SOLID
  5
8D8
330
8D4
100
AcDbEntity
  8
1
  6
Continuous
 62
     0
100
AcDbTrace
 10
149.8333333333333
 20
478.2499999999999
 30
0.0
 11
150.1666666666666
 21
478.2499999999999
 31
0.0
 12
150.0
 22
477.2499999999999
 32
0.0
 13
150.0
 23
477.2499999999999
 33
0.0
  0
SOLID
  5
8D9
330
8D4
100
AcDbEntity
  8
1
  6
Continuous
 62
     0
100
AcDbTrace
 10
149.8333333333333
 20
596.25
 30
0.0
 11
150.1666666666666
 21
596.25
 31
0.0
 12
150.0
 22
597.25
 32
0.0
 13
150.0
 23
597.25
 33
0.0
  0
POINT
  5
8DA
330
8D4
100
AcDbEntity
  8
Defpoints
  6
Continuous
 62
     0
100
AcDbPoint
 10
180.0
 20
477.2499999999999
 30
0.0
  0
POINT
  5
8DB
330
8D4
100
AcDbEntity
  8
Defpoints
  6
Continuous
 62
     0
100
AcDbPoint
 10
180.0
 20
597.25
 30
0.0
  0
POINT
  5
8DC
330
8D4
100
AcDbEntity
  8
Defpoints
  6
Continuous
 62
     0
100
AcDbPoint
 10
150.0
 20
597.25
 30
0.0
  0
ENDBLK
  5
8DE
330
8D4
100
AcDbEntity
  8
0
100
AcDbBlockEnd
  0
ENDSEC
  0
SECTION
  2
ENTITIES
  0
ARC
  5
BF
330
1E
100
AcDbEntity
  8
1
  6
Continuous
 62
     7
100
AcDbCircle
 10
253.5
 20
294.4999999999999
 30
0.0
 40
1.5
100
AcDbArc
 50
180.0
 51
0.0
  0
ARC
  5
C0
330
1E
100
AcDbEntity
  8
1
  6
Continuous
 62
     7
100
AcDbCircle
 10
306.4999999999999
 20
294.4999999999999
 30
0.0
 40
1.5
100
AcDbArc
 50
180.0
 51
0.0
  0
LINE
  5
C1
330
1E
100
AcDbEntity
  8
1
  6
Continuous
 62
     7
100
AcDbLine
 10
255.0
 20
295.0
 30
0.0
 11
305.0
 21
295.0
 31
0.0
  0
ARC
  5
C2
330
1E
100
AcDbEntity
  8
1
  6
Continuous
 62
     7
100
AcDbCircle
 10
253.5
 20
310.4999999999999
 30
0.0
 40
1.5
100
AcDbArc
 50
0.0
 51
180.0
  0
ARC
  5
C3
330
1E
100
AcDbEntity
  8
1
  6
Continuous
 62
     7
100
AcDbCircle
 10
306.4999999999999
 20
310.4999999999999
 30
0.0
 40
1.5
100
AcDbArc
 50
0.0
 51
180.0
  0
LINE
  5
C4
330
1E
100
AcDbEntity
  8
1
  6
Continuous
 62
     7
100
AcDbLine
 10
252.0
 20
294.4999999999999
 30
0.0
 11
252.0
 21
310.499999
 31
0.0
  0
LINE
  5
C5
330
1E
100
AcDbEntity
  8
1
  6
Continuous
 62
     7
100
AcDbLine
 10
255.0
 20
310.4999999999999
 30
0.0
 11
255.0
 21
294.4999989999999
 31
0.0
  0
LINE
  5
C6
330
1E
100
AcDbEntity
  8
1
  6
Continuous
 62
     7
100
AcDbLine
 10
305.0
 20
294.4999999999999
 30
0.0
 11
305.0
 21
310.4999999999999
 31
0.0
  0
LINE
  5
C7
330
1E
100
AcDbEntity
  8
1
  6
Continuous
 62
     7
100
AcDbLine
 10
308.0
 20
310.4999999999999
 30
0.0
 11
308.0
 21
294.4999989999999
 31
0.0
  0
LINE
  5
C8
330
1E
100
AcDbEntity
  8
1
  6
Continuous
 62
     7
100
AcDbLine
 10
248.4999999999999
 20
310.0
 30
0.0
 11
252.0
 21
310.0
 31
0.0
  0
ARC
  5
C9
330
1E
100
AcDbEntity
  8
1
  6
Continuous
 62
     7
100
AcDbCircle
 10
248.4999999999999
 20
309.0
 30
0.0
 40
1.0
100
AcDbArc
 50
90.0
 51
180.0
  0
LINE
  5
CA
330
1E
100
AcDbEntity
  8
1
  6
Continuous
 62
     7
100
AcDbLine
 10
247.5
 20
296.0
 30
0.0
 11
247.5
 21
309.0
 31
0.0
  0
LINE
  5
CB
330
1E
100
AcDbEntity
  8
1
  6
Continuous
 62
     7
100
AcDbLine
 10
252.0
 20
295.0
 30
0.0
 11
248.4999999999999
 21
295.0
 31
0.0
  0
ARC
  5
CC
330
1E
100
AcDbEntity
  8
1
  6
Continuous
 62
     7
100
AcDbCircle
 10
248.4999999999999
 20
296.0
 30
0.0
 40
1.0
100
AcDbArc
 50
180.0
 51
270.0
  0
LINE
  5
CD
330
1E
100
AcDbEntity
  8
1
  6
Continuous
 62
     7
100
AcDbLine
 10
308.0
 20
295.0
 30
0.0
 11
311.5
 21
295.0
 31
0.0
  0
ARC
  5
CE
330
1E
100
AcDbEntity
  8
1
  6
Continuous
 62
     7
100
AcDbCircle
 10
311.5
 20
296.0
 30
0.0
 40
1.0
100
AcDbArc
 50
270.0
 51
0.0
  0
LINE
  5
CF
330
1E
100
AcDbEntity
  8
1
  6
Continuous
 62
     7
100
AcDbLine
 10
312.5
 20
296.0
 30
0.0
 11
312.5
 21
309.0
 31
0.0
  0
LINE
  5
D0
330
1E
100
AcDbEntity
  8
1
  6
Continuous
 62
     7
100
AcDbLine
 10
311.5
 20
310.0
 30
0.0
 11
308.0
 21
310.0
 31
0.0
  0
ARC
  5
D1
330
1E
100
AcDbEntity
  8
1
  6
Continuous
 62
     7
100
AcDbCircle
 10
311.5
 20
309.0
 30
0.0
 40
1.0
100
AcDbArc
 50
0.0
 51
90.0
  0
LINE
  5
D2
330
1E
100
AcDbEntity
  8
1
  6
Continuous
 62
     7
100
AcDbLine
 10
255.0
 20
310.0
 30
0.0
 11
305.0
 21
310.0
 31
0.0
  0
LINE
  5
D3
330
1E
100
AcDbEntity
  8
1
  6
Continuous
 62
     7
100
AcDbLine
 10
257.6999999999999
 20
310.0
 30
0.0
 11
257.6999999999999
 21
302.4999999999999
 31
0.0
  0
LINE
  5
D4
330
1E
100
AcDbEntity
  8
1
  6
Continuous
 62
     7
100
AcDbLine
 10
302.3
 20
310.0
 30
0.0
 11
302.3
 21
302.4999999999999
 31
0.0
  0
ARC
  5
D5
330
1E
100
AcDbEntity
  8
1
  6
Continuous
 62
     7
100
AcDbCircle
 10
280.0
 20
325.0
 30
0.0
 40
6.0
100
AcDbArc
 50
180.0
 51
0.0
  0
ARC
  5
D6
330
1E
100
AcDbEntity
  8
1
  6
Continuous
 62
     7
100
AcDbCircle
 10
853.5
 20
294.4999999999999
 30
0.0
 40
1.5
100
AcDbArc
 50
180.0
 51
0.0
  0
LINE
  5
D7
330
1E
100
AcDbEntity
  8
1
  6
Continuous
 62
     7
100
AcDbLine
 10
852.0
 20
294.4999999999999
 30
0.0
 11
852.0
 21
300.0
 31
0.0
  0
LINE
  5
D8
330
1E
100
AcDbEntity
  8
1
  6
Continuous
 62
     7
100
AcDbLine
 10
855.0
 20
294.4999999999999
 30
0.0
 11
855.0
 21
300.0
 31
0.0
  0
ARC
  5
D9
330
1E
100
AcDbEntity
  8
1
  6
Continuous
 62
     7
100
AcDbCircle
 10
906.4999999999999
 20
294.4999999999999
 30
0.0
 40
1.5
100
AcDbArc
 50
180.0
 51
0.0
  0
LINE
  5
DA
330
1E
100
AcDbEntity
  8
1
  6
Continuous
 62
     7
100
AcDbLine
 10
905.0
 20
294.4999999999999
 30
0.0
 11
905.0
 21
300.0
 31
0.0
  0
LINE
  5
DB
330
1E
100
AcDbEntity
  8
1
  6
Continuous
 62
     7
100
AcDbLine
 10
908.0
 20
294.4999999999999
 30
0.0
 11
908.0
 21
300.0
 31
0.0
  0
LINE
  5
DC
330
1E
100
AcDbEntity
  8
1
  6
Continuous
 62
     7
100
AcDbLine
 10
847.4999999999999
 20
300.0
 30
0.0
 11
847.4999999999999
 21
296.0
 31
0.0
  0
LINE
  5
DD
330
1E
100
AcDbEntity
  8
1
  6
Continuous
 62
     7
100
AcDbLine
 10
848.4999999999999
 20
295.0
 30
0.0
 11
852.0
 21
295.0
 31
0.0
  0
ARC
  5
DE
330
1E
100
AcDbEntity
  8
1
  6
Continuous
 62
     7
100
AcDbCircle
 10
848.4999999999999
 20
296.0
 30
0.0
 40
1.0
100
AcDbArc
 50
180.0
 51
270.0
  0
LINE
  5
DF
330
1E
100
AcDbEntity
  8
1
  6
Continuous
 62
     7
100
AcDbLine
 10
908.0
 20
295.0
 30
0.0
 11
911.5
 21
295.0
 31
0.0
  0
LINE
  5
E0
330
1E
100
AcDbEntity
  8
1
  6
Continuous
 62
     7
100
AcDbLine
 10
912.5
 20
296.0
 30
0.0
 11
912.5
 21
300.0
 31
0.0
  0
ARC
  5
E1
330
1E
100
AcDbEntity
  8
1
  6
Continuous
 62
     7
100
AcDbCircle
 10
911.5
 20
296.0
 30
0.0
 40
1.0
100
AcDbArc
 50
270.0
 51
0.0
  0
LINE
  5
E2
330
1E
100
AcDbEntity
  8
1
  6
Continuous
 62
     7
100
AcDbLine
 10
855.0
 20
295.0
 30
0.0
 11
905.0
 21
295.0
 31
0.0
  0
LINE
  5
E3
330
1E
100
AcDbEntity
  8
1
  6
Continuous
 62
     7
100
AcDbLine
 10
883.75
 20
771.0
 30
0.0
 11
883.75
 21
771.4999999999999
 31
0.0
  0
LINE
  5
E4
330
1E
100
AcDbEntity
  8
1
  6
Continuous
 62
     7
100
AcDbLine
 10
883.75
 20
771.4999999999999
 30
0.0
 11
876.2500000000001
 21
771.4999999999999
 31
0.0
  0
LINE
  5
E5
330
1E
100
AcDbEntity
  8
1
  6
Continuous
 62
     7
100
AcDbLine
 10
876.2500000000001
 20
771.4999999999999
 30
0.0
 11
876.2500000000001
 21
771.0
 31
0.0
  0
ARC
  5
E6
330
1E
100
AcDbEntity
  8
1
  6
Continuous
 62
     7
100
AcDbCircle
 10
881.25
 20
771.4999999999999
 30
0.0
 40
1.5
100
AcDbArc
 50
0.0
 51
90.0
  0
ARC
  5
E7
330
1E
100
AcDbEntity
  8
1
  6
Continuous
 62
     7
100
AcDbCircle
 10
878.7499999999999
 20
771.4999999999999
 30
0.0
 40
1.5
100
AcDbArc
 50
90.0
 51
180.0
  0
LINE
  5
E8
330
1E
100
AcDbEntity
  8
1
  6
Continuous
 62
     7
100
AcDbLine
 10
878.7499999999999
 20
773.0
 30
0.0
 11
881.25
 21
773.0
 31
0.0
  0
ARC
  5
E9
330
1E
100
AcDbEntity
  8
1
  6
Continuous
 62
     7
100
AcDbCircle
 10
880.0
 20
806.6071429999999
 30
0.0
 40
6.892857000000001
100
AcDbArc
 50
29.487126
 51
150.512874
  0
LINE
  5
EA
330
1E
100
AcDbEntity
  8
1
  6
Continuous
 62
     7
100
AcDbLine
 10
847.4999999999999
 20
810.0
 30
0.0
 11
912.5
 21
810.0
 31
0.0
  0
LINE
  5
EB
330
1E
100
AcDbEntity
  8
1
  6
Continuous
 62
     7
100
AcDbLine
 10
844.5825759999999
 20
813.0
 30
0.0
 11
847.4999999999999
 21
813.0
 31
0.0
  0
LINE
  5
EC
330
1E
100
AcDbEntity
  8
1
  6
Continuous
 62
     7
100
AcDbLine
 10
847.4999999999999
 20
813.0
 30
0.0
 11
847.4999999999999
 21
808.0
 31
0.0
  0
LINE
  5
ED
330
1E
100
AcDbEntity
  8
1
  6
Continuous
 62
     7
100
AcDbLine
 10
912.5
 20
808.0
 30
0.0
 11
912.5
 21
813.0
 31
0.0
  0
LINE
  5
EE
330
1E
100
AcDbEntity
  8
1
  6
Continuous
 62
     7
100
AcDbLine
 10
912.5
 20
813.0
 30
0.0
 11
915.4174239999999
 21
813.0
 31
0.0
  0
ARC
  5
EF
330
1E
100
AcDbEntity
  8
1
  6
Continuous
 62
     7
100
AcDbCircle
 10
865.3
 20
811.5
 30
0.0
 40
2.0
100
AcDbArc
 50
90.0
 51
180.0
  0
ARC
  5
F0
330
1E
100
AcDbEntity
  8
1
  6
Continuous
 62
     7
100
AcDbCircle
 10
866.6999999999999
 20
811.5
 30
0.0
 40
2.0
100
AcDbArc
 50
0.0
 51
90.0
  0
LINE
  5
F1
330
1E
100
AcDbEntity
  8
1
  6
Continuous
 62
     7
100
AcDbLine
 10
865.3
 20
813.4999999999999
 30
0.0
 11
866.6999999999999
 21
813.4999999999999
 31
0.0
  0
LINE
  5
F2
330
1E
100
AcDbEntity
  8
1
  6
Continuous
 62
     7
100
AcDbLine
 10
863.2999999999999
 20
810.0
 30
0.0
 11
863.2999999999999
 21
811.4999989999999
 31
0.0
  0
LINE
  5
F3
330
1E
100
AcDbEntity
  8
1
  6
Continuous
 62
     7
100
AcDbLine
 10
868.7000000000001
 20
810.0
 30
0.0
 11
868.7000000000001
 21
811.5
 31
0.0
  0
LINE
  5
F4
330
1E
100
AcDbEntity
  8
1
  6
Continuous
 62
     7
100
AcDbLine
 10
863.2999999999999
 20
811.5000009999999
 30
0.0
 11
868.7000000000001
 21
811.5
 31
0.0
  0
LINE
  5
F5
330
1E
100
AcDbEntity
  8
1
  6
Continuous
 62
     7
100
AcDbLine
 10
863.2999999999999
 20
810.7499999999999
 30
0.0
 11
868.7000000000001
 21
810.7499999999999
 31
0.0
  0
ARC
  5
F6
330
1E
100
AcDbEntity
  8
1
  6
Continuous
 62
     7
100
AcDbCircle
 10
851.2999999999999
 20
811.5
 30
0.0
 40
2.0
100
AcDbArc
 50
90.0
 51
180.0
  0
ARC
  5
F7
330
1E
100
AcDbEntity
  8
1
  6
Continuous
 62
     7
100
AcDbCircle
 10
852.7000000000001
 20
811.5
 30
0.0
 40
2.0
100
AcDbArc
 50
0.0
 51
90.0
  0
LINE
  5
F8
330
1E
100
AcDbEntity
  8
1
  6
Continuous
 62
     7
100
AcDbLine
 10
851.2999999999999
 20
813.4999999999999
 30
0.0
 11
852.7000000000001
 21
813.4999999999999
 31
0.0
  0
LINE
  5
F9
330
1E
100
AcDbEntity
  8
1
  6
Continuous
 62
     7
100
AcDbLine
 10
849.3
 20
810.0
 30
0.0
 11
849.3
 21
811.4999989999999
 31
0.0
  0
LINE
  5
FA
330
1E
100
AcDbEntity
  8
1
  6
Continuous
 62
     7
100
AcDbLine
 10
854.7
 20
810.0
 30
0.0
 11
854.7
 21
811.5
 31
0.0
  0
LINE
  5
FB
330
1E
100
AcDbEntity
  8
1
  6
Continuous
 62
     7
100
AcDbLine
 10
849.3
 20
811.5000009999999
 30
0.0
 11
854.7
 21
811.5
 31
0.0
  0
LINE
  5
FC
330
1E
100
AcDbEntity
  8
1
  6
Continuous
 62
     7
100
AcDbLine
 10
849.3
 20
810.7499999999999
 30
0.0
 11
854.7
 21
810.7499999999999
 31
0.0
  0
ARC
  5
FD
330
1E
100
AcDbEntity
  8
1
  6
Continuous
 62
     7
100
AcDbCircle
 10
893.2999999999999
 20
811.5
 30
0.0
 40
2.0
100
AcDbArc
 50
90.0
 51
180.0
  0
ARC
  5
FE
330
1E
100
AcDbEntity
  8
1
  6
Continuous
 62
     7
100
AcDbCircle
 10
894.7
 20
811.5
 30
0.0
 40
2.0
100
AcDbArc
 50
0.0
 51
90.0
  0
LINE
  5
FF
330
1E
100
AcDbEntity
  8
1
  6
Continuous
 62
     7
100
AcDbLine
 10
893.2999999999999
 20
813.4999999999999
 30
0.0
 11
894.7
 21
813.4999999999999
 31
0.0
  0
LINE
  5
100
330
1E
100
AcDbEntity
  8
1
  6
Continuous
 62
     7
100
AcDbLine
 10
891.3
 20
810.0
 30
0.0
 11
891.3
 21
811.4999989999999
 31
0.0
  0
LINE
  5
101
330
1E
100
AcDbEntity
  8
1
  6
Continuous
 62
     7
100
AcDbLine
 10
896.7
 20
810.0
 30
0.0
 11
896.7
 21
811.5
 31
0.0
  0
LINE
  5
102
330
1E
100
AcDbEntity
  8
1
  6
Continuous
 62
     7
100
AcDbLine
 10
891.3
 20
811.5000009999999
 30
0.0
 11
896.7
 21
811.5
 31
0.0
  0
LINE
  5
103
330
1E
100
AcDbEntity
  8
1
  6
Continuous
 62
     7
100
AcDbLine
 10
891.3
 20
810.7499999999999
 30
0.0
 11
896.7
 21
810.7499999999999
 31
0.0
  0
ARC
  5
104
330
1E
100
AcDbEntity
  8
1
  6
Continuous
 62
     7
100
AcDbCircle
 10
907.3
 20
811.5
 30
0.0
 40
2.0
100
AcDbArc
 50
90.0
 51
180.0
  0
ARC
  5
105
330
1E
100
AcDbEntity
  8
1
  6
Continuous
 62
     7
100
AcDbCircle
 10
908.7000000000001
 20
811.5
 30
0.0
 40
2.0
100
AcDbArc
 50
0.0
 51
90.0
  0
LINE
  5
106
330
1E
100
AcDbEntity
  8
1
  6
Continuous
 62
     7
100
AcDbLine
 10
907.3
 20
813.4999999999999
 30
0.0
 11
908.7000000000001
 21
813.4999999999999
 31
0.0
  0
LINE
  5
107
330
1E
100
AcDbEntity
  8
1
  6
Continuous
 62
     7
100
AcDbLine
 10
905.2999999999999
 20
810.0
 30
0.0
 11
905.2999999999999
 21
811.4999989999999
 31
0.0
  0
LINE
  5
108
330
1E
100
AcDbEntity
  8
1
  6
Continuous
 62
     7
100
AcDbLine
 10
910.7000000000001
 20
810.0
 30
0.0
 11
910.7000000000001
 21
811.5
 31
0.0
  0
LINE
  5
109
330
1E
100
AcDbEntity
  8
1
  6
Continuous
 62
     7
100
AcDbLine
 10
905.2999999999999
 20
811.5000009999999
 30
0.0
 11
910.7000000000001
 21
811.5
 31
0.0
  0
LINE
  5
10A
330
1E
100
AcDbEntity
  8
1
  6
Continuous
 62
     7
100
AcDbLine
 10
905.2999999999999
 20
810.7499999999999
 30
0.0
 11
910.7000000000001
 21
810.7499999999999
 31
0.0
  0
LINE
  5
10B
330
1E
100
AcDbEntity
  8
1
  6
Continuous
 62
     7
100
AcDbLine
 10
855.0
 20
818.0
 30
0.0
 11
905.0
 21
818.0
 31
0.0
  0
LINE
  5
10C
330
1E
100
AcDbEntity
  8
1
  6
Continuous
 62
     7
100
AcDbLine
 10
847.4999999999999
 20
817.0
 30
0.0
 11
847.4999999999999
 21
813.0
 31
0.0
  0
LINE
  5
10D
330
1E
100
AcDbEntity
  8
1
  6
Continuous
 62
     7
100
AcDbLine
 10
852.0
 20
818.0
 30
0.0
 11
848.4999999999999
 21
818.0
 31
0.0
  0
ARC
  5
10E
330
1E
100
AcDbEntity
  8
1
  6
Continuous
 62
     7
100
AcDbCircle
 10
848.4999999999999
 20
817.0
 30
0.0
 40
1.0
100
AcDbArc
 50
90.0
 51
180.0
  0
LINE
  5
10F
330
1E
100
AcDbEntity
  8
1
  6
Continuous
 62
     7
100
AcDbLine
 10
908.0
 20
818.0
 30
0.0
 11
911.5
 21
818.0
 31
0.0
  0
LINE
  5
110
330
1E
100
AcDbEntity
  8
1
  6
Continuous
 62
     7
100
AcDbLine
 10
912.5
 20
813.0
 30
0.0
 11
912.5
 21
817.0
 31
0.0
  0
ARC
  5
111
330
1E
100
AcDbEntity
  8
1
  6
Continuous
 62
     7
100
AcDbCircle
 10
911.5
 20
817.0
 30
0.0
 40
1.0
100
AcDbArc
 50
0.0
 51
90.0
  0
ARC
  5
112
330
1E
100
AcDbEntity
  8
1
  6
Continuous
 62
     7
100
AcDbCircle
 10
853.5
 20
818.5
 30
0.0
 40
1.5
100
AcDbArc
 50
0.0
 51
180.0
  0
LINE
  5
113
330
1E
100
AcDbEntity
  8
1
  6
Continuous
 62
     7
100
AcDbLine
 10
852.0
 20
813.4999999999999
 30
0.0
 11
852.0
 21
818.5
 31
0.0
  0
LINE
  5
114
330
1E
100
AcDbEntity
  8
1
  6
Continuous
 62
     7
100
AcDbLine
 10
855.0
 20
818.5
 30
0.0
 11
855.0
 21
810.0
 31
0.0
  0
ARC
  5
115
330
1E
100
AcDbEntity
  8
1
  6
Continuous
 62
     7
100
AcDbCircle
 10
906.4999999999999
 20
818.5
 30
0.0
 40
1.5
100
AcDbArc
 50
0.0
 51
180.0
  0
LINE
  5
116
330
1E
100
AcDbEntity
  8
1
  6
Continuous
 62
     7
100
AcDbLine
 10
908.0
 20
813.4999999999999
 30
0.0
 11
908.0
 21
818.5
 31
0.0
  0
LINE
  5
117
330
1E
100
AcDbEntity
  8
1
  6
Continuous
 62
     7
100
AcDbLine
 10
905.0
 20
818.5
 30
0.0
 11
905.0
 21
810.0
 31
0.0
  0
LINE
  5
118
330
1E
100
AcDbEntity
  8
1
  6
Continuous
 62
     7
100
AcDbLine
 10
733.4999999999999
 20
300.0
 30
0.0
 11
733.4999999999999
 21
295.0
 31
0.0
  0
LINE
  5
119
330
1E
100
AcDbEntity
  8
1
  6
Continuous
 62
     7
100
AcDbLine
 10
733.4999999999999
 20
295.0
 30
0.0
 11
746.4999999999999
 21
295.0
 31
0.0
  0
LINE
  5
11A
330
1E
100
AcDbEntity
  8
1
  6
Continuous
 62
     7
100
AcDbLine
 10
746.4999999999999
 20
295.0
 30
0.0
 11
746.4999999999999
 21
300.0
 31
0.0
  0
LINE
  5
11B
330
1E
100
AcDbEntity
  8
1
  6
Continuous
 62
     7
100
AcDbLine
 10
1026.5
 20
300.0
 30
0.0
 11
1026.5
 21
295.0
 31
0.0
  0
LINE
  5
11C
330
1E
100
AcDbEntity
  8
1
  6
Continuous
 62
     7
100
AcDbLine
 10
1026.5
 20
295.0
 30
0.0
 11
1013.5
 21
295.0
 31
0.0
  0
LINE
  5
11D
330
1E
100
AcDbEntity
  8
1
  6
Continuous
 62
     7
100
AcDbLine
 10
1013.5
 20
295.0
 30
0.0
 11
1013.5
 21
300.0
 31
0.0
  0
ARC
  5
11E
330
1E
100
AcDbEntity
  8
1
  6
Continuous
 62
     7
100
AcDbCircle
 10
688.4999999999999
 20
651.0
 30
0.0
 40
3.5
100
AcDbArc
 50
90.0
 51
180.0
  0
LINE
  5
11F
330
1E
100
AcDbEntity
  8
1
  6
Continuous
 62
     7
100
AcDbLine
 10
1071.5
 20
654.4999999999999
 30
0.0
 11
688.4999999999999
 21
654.4999999999999
 31
0.0
  0
ARC
  5
120
330
1E
100
AcDbEntity
  8
1
  6
Continuous
 62
     7
100
AcDbCircle
 10
1071.5
 20
651.0
 30
0.0
 40
3.5
100
AcDbArc
 50
0.0
 51
90.0
  0
LINE
  5
121
330
1E
100
AcDbEntity
  8
1
  6
Continuous
 62
     7
100
AcDbLine
 10
1075.0
 20
303.5
 30
0.0
 11
1075.0
 21
651.0
 31
0.0
  0
ARC
  5
122
330
1E
100
AcDbEntity
  8
1
  6
Continuous
 62
     7
100
AcDbCircle
 10
1071.5
 20
303.5
 30
0.0
 40
3.5
100
AcDbArc
 50
270.0
 51
0.0
  0
LINE
  5
123
330
1E
100
AcDbEntity
  8
1
  6
Continuous
 62
     7
100
AcDbLine
 10
688.4999999999999
 20
300.0
 30
0.0
 11
1071.5
 21
300.0
 31
0.0
  0
LINE
  5
124
330
1E
100
AcDbEntity
  8
1
  6
Continuous
 62
     7
100
AcDbLine
 10
685.0
 20
651.0
 30
0.0
 11
685.0
 21
303.5
 31
0.0
  0
ARC
  5
125
330
1E
100
AcDbEntity
  8
1
  6
Continuous
 62
     7
100
AcDbCircle
 10
688.4999999999999
 20
303.5
 30
0.0
 40
3.5
100
AcDbArc
 50
180.0
 51
270.0
  0
LINE
  5
126
330
1E
100
AcDbEntity
  8
1
  6
Continuous
 62
     7
100
AcDbLine
 10
688.4999999999999
 20
647.5
 30
0.0
 11
1071.5
 21
647.5
 31
0.0
  0
LINE
  5
127
330
1E
100
AcDbEntity
  8
1
  6
Continuous
 62
     7
100
AcDbLine
 10
688.4999999999999
 20
307.0
 30
0.0
 11
1071.5
 21
307.0
 31
0.0
  0
LINE
  5
128
330
1E
100
AcDbEntity
  8
1
  6
Continuous
 62
     7
100
AcDbLine
 10
685.0
 20
340.0
 30
0.0
 11
1075.0
 21
340.0
 31
0.0
  0
LINE
  5
129
330
1E
100
AcDbEntity
  8
1
  6
Continuous
 62
     7
100
AcDbLine
 10
979.0
 20
338.0
 30
0.0
 11
979.0
 21
336.6
 31
0.0
  0
LINE
  5
12A
330
1E
100
AcDbEntity
  8
1
  6
Continuous
 62
     7
100
AcDbLine
 10
979.0
 20
336.6
 30
0.0
 11
1069.0
 21
336.6
 31
0.0
  0
LINE
  5
12B
330
1E
100
AcDbEntity
  8
1
  6
Continuous
 62
     7
100
AcDbLine
 10
1069.0
 20
336.6
 30
0.0
 11
1069.0
 21
338.0
 31
0.0
  0
LINE
  5
12C
330
1E
100
AcDbEntity
  8
1
  6
Continuous
 62
     7
100
AcDbLine
 10
1069.0
 20
338.0
 30
0.0
 11
979.0
 21
338.0
 31
0.0
  0
CIRCLE
  5
12D
330
1E
100
AcDbEntity
  8
1
  6
Continuous
 62
     7
100
AcDbCircle
 10
1065.599999999999
 20
337.3
 30
0.0
 40
0.7
  0
CIRCLE
  5
12E
330
1E
100
AcDbEntity
  8
1
  6
Continuous
 62
     7
100
AcDbCircle
 10
1063.4
 20
337.3
 30
0.0
 40
0.7
  0
CIRCLE
  5
12F
330
1E
100
AcDbEntity
  8
1
  6
Continuous
 62
     7
100
AcDbCircle
 10
1061.2
 20
337.3
 30
0.0
 40
0.7
  0
CIRCLE
  5
130
330
1E
100
AcDbEntity
  8
1
  6
Continuous
 62
     7
100
AcDbCircle
 10
1059.0
 20
337.3
 30
0.0
 40
0.7
  0
CIRCLE
  5
131
330
1E
100
AcDbEntity
  8
1
  6
Continuous
 62
     7
100
AcDbCircle
 10
1056.799999999999
 20
337.3
 30
0.0
 40
0.7
  0
CIRCLE
  5
132
330
1E
100
AcDbEntity
  8
1
  6
Continuous
 62
     7
100
AcDbCircle
 10
1054.599999999999
 20
337.3
 30
0.0
 40
0.7
  0
CIRCLE
  5
133
330
1E
100
AcDbEntity
  8
1
  6
Continuous
 62
     7
100
AcDbCircle
 10
1052.4
 20
337.3
 30
0.0
 40
0.7
  0
CIRCLE
  5
134
330
1E
100
AcDbEntity
  8
1
  6
Continuous
 62
     7
100
AcDbCircle
 10
1050.2
 20
337.3
 30
0.0
 40
0.7
  0
CIRCLE
  5
135
330
1E
100
AcDbEntity
  8
1
  6
Continuous
 62
     7
100
AcDbCircle
 10
1048.0
 20
337.3
 30
0.0
 40
0.7
  0
CIRCLE
  5
136
330
1E
100
AcDbEntity
  8
1
  6
Continuous
 62
     7
100
AcDbCircle
 10
1045.8
 20
337.3
 30
0.0
 40
0.7
  0
CIRCLE
  5
137
330
1E
100
AcDbEntity
  8
1
  6
Continuous
 62
     7
100
AcDbCircle
 10
1043.6
 20
337.3
 30
0.0
 40
0.7
  0
CIRCLE
  5
138
330
1E
100
AcDbEntity
  8
1
  6
Continuous
 62
     7
100
AcDbCircle
 10
1041.4
 20
337.3
 30
0.0
 40
0.7
  0
CIRCLE
  5
139
330
1E
100
AcDbEntity
  8
1
  6
Continuous
 62
     7
100
AcDbCircle
 10
1039.2
 20
337.3
 30
0.0
 40
0.7
  0
CIRCLE
  5
13A
330
1E
100
AcDbEntity
  8
1
  6
Continuous
 62
     7
100
AcDbCircle
 10
1037.0
 20
337.3
 30
0.0
 40
0.7
  0
CIRCLE
  5
13B
330
1E
100
AcDbEntity
  8
1
  6
Continuous
 62
     7
100
AcDbCircle
 10
1034.799999999999
 20
337.3
 30
0.0
 40
0.7
  0
CIRCLE
  5
13C
330
1E
100
AcDbEntity
  8
1
  6
Continuous
 62
     7
100
AcDbCircle
 10
1032.599999999999
 20
337.3
 30
0.0
 40
0.7
  0
CIRCLE
  5
13D
330
1E
100
AcDbEntity
  8
1
  6
Continuous
 62
     7
100
AcDbCircle
 10
1030.399999999999
 20
337.3
 30
0.0
 40
0.7
  0
CIRCLE
  5
13E
330
1E
100
AcDbEntity
  8
1
  6
Continuous
 62
     7
100
AcDbCircle
 10
1028.2
 20
337.3
 30
0.0
 40
0.7
  0
CIRCLE
  5
13F
330
1E
100
AcDbEntity
  8
1
  6
Continuous
 62
     7
100
AcDbCircle
 10
1026.0
 20
337.3
 30
0.0
 40
0.7
  0
CIRCLE
  5
140
330
1E
100
AcDbEntity
  8
1
  6
Continuous
 62
     7
100
AcDbCircle
 10
1023.8
 20
337.3
 30
0.0
 40
0.7
  0
LINE
  5
141
330
1E
100
AcDbEntity
  8
1
  6
Continuous
 62
     7
100
AcDbLine
 10
979.0
 20
335.8
 30
0.0
 11
979.0
 21
334.3999999999999
 31
0.0
  0
LINE
  5
142
330
1E
100
AcDbEntity
  8
1
  6
Continuous
 62
     7
100
AcDbLine
 10
979.0
 20
334.3999999999999
 30
0.0
 11
1069.0
 21
334.3999999999999
 31
0.0
  0
LINE
  5
143
330
1E
100
AcDbEntity
  8
1
  6
Continuous
 62
     7
100
AcDbLine
 10
1069.0
 20
334.3999999999999
 30
0.0
 11
1069.0
 21
335.8
 31
0.0
  0
LINE
  5
144
330
1E
100
AcDbEntity
  8
1
  6
Continuous
 62
     7
100
AcDbLine
 10
1069.0
 20
335.8
 30
0.0
 11
979.0
 21
335.8
 31
0.0
  0
CIRCLE
  5
145
330
1E
100
AcDbEntity
  8
1
  6
Continuous
 62
     7
100
AcDbCircle
 10
1065.599999999999
 20
335.1
 30
0.0
 40
0.7
  0
CIRCLE
  5
146
330
1E
100
AcDbEntity
  8
1
  6
Continuous
 62
     7
100
AcDbCircle
 10
1063.4
 20
335.1
 30
0.0
 40
0.7
  0
CIRCLE
  5
147
330
1E
100
AcDbEntity
  8
1
  6
Continuous
 62
     7
100
AcDbCircle
 10
1061.2
 20
335.1
 30
0.0
 40
0.7
  0
CIRCLE
  5
148
330
1E
100
AcDbEntity
  8
1
  6
Continuous
 62
     7
100
AcDbCircle
 10
1059.0
 20
335.1
 30
0.0
 40
0.7
  0
CIRCLE
  5
149
330
1E
100
AcDbEntity
  8
1
  6
Continuous
 62
     7
100
AcDbCircle
 10
1056.799999999999
 20
335.1
 30
0.0
 40
0.7
  0
CIRCLE
  5
14A
330
1E
100
AcDbEntity
  8
1
  6
Continuous
 62
     7
100
AcDbCircle
 10
1054.599999999999
 20
335.1
 30
0.0
 40
0.7
  0
CIRCLE
  5
14B
330
1E
100
AcDbEntity
  8
1
  6
Continuous
 62
     7
100
AcDbCircle
 10
1052.4
 20
335.1
 30
0.0
 40
0.7
  0
CIRCLE
  5
14C
330
1E
100
AcDbEntity
  8
1
  6
Continuous
 62
     7
100
AcDbCircle
 10
1050.2
 20
335.1
 30
0.0
 40
0.7
  0
CIRCLE
  5
14D
330
1E
100
AcDbEntity
  8
1
  6
Continuous
 62
     7
100
AcDbCircle
 10
1048.0
 20
335.1
 30
0.0
 40
0.7
  0
CIRCLE
  5
14E
330
1E
100
AcDbEntity
  8
1
  6
Continuous
 62
     7
100
AcDbCircle
 10
1045.8
 20
335.1
 30
0.0
 40
0.7
  0
CIRCLE
  5
14F
330
1E
100
AcDbEntity
  8
1
  6
Continuous
 62
     7
100
AcDbCircle
 10
1043.6
 20
335.1
 30
0.0
 40
0.7
  0
CIRCLE
  5
150
330
1E
100
AcDbEntity
  8
1
  6
Continuous
 62
     7
100
AcDbCircle
 10
1041.4
 20
335.1
 30
0.0
 40
0.7
  0
CIRCLE
  5
151
330
1E
100
AcDbEntity
  8
1
  6
Continuous
 62
     7
100
AcDbCircle
 10
1039.2
 20
335.1
 30
0.0
 40
0.7
  0
CIRCLE
  5
152
330
1E
100
AcDbEntity
  8
1
  6
Continuous
 62
     7
100
AcDbCircle
 10
1037.0
 20
335.1
 30
0.0
 40
0.7
  0
CIRCLE
  5
153
330
1E
100
AcDbEntity
  8
1
  6
Continuous
 62
     7
100
AcDbCircle
 10
1034.799999999999
 20
335.1
 30
0.0
 40
0.7
  0
CIRCLE
  5
154
330
1E
100
AcDbEntity
  8
1
  6
Continuous
 62
     7
100
AcDbCircle
 10
1032.599999999999
 20
335.1
 30
0.0
 40
0.7
  0
CIRCLE
  5
155
330
1E
100
AcDbEntity
  8
1
  6
Continuous
 62
     7
100
AcDbCircle
 10
1030.399999999999
 20
335.1
 30
0.0
 40
0.7
  0
CIRCLE
  5
156
330
1E
100
AcDbEntity
  8
1
  6
Continuous
 62
     7
100
AcDbCircle
 10
1028.2
 20
335.1
 30
0.0
 40
0.7
  0
CIRCLE
  5
157
330
1E
100
AcDbEntity
  8
1
  6
Continuous
 62
     7
100
AcDbCircle
 10
1026.0
 20
335.1
 30
0.0
 40
0.7
  0
CIRCLE
  5
158
330
1E
100
AcDbEntity
  8
1
  6
Continuous
 62
     7
100
AcDbCircle
 10
1023.8
 20
335.1
 30
0.0
 40
0.7
  0
LINE
  5
159
330
1E
100
AcDbEntity
  8
1
  6
Continuous
 62
     7
100
AcDbLine
 10
979.0
 20
333.6
 30
0.0
 11
979.0
 21
332.2
 31
0.0
  0
LINE
  5
15A
330
1E
100
AcDbEntity
  8
1
  6
Continuous
 62
     7
100
AcDbLine
 10
979.0
 20
332.2
 30
0.0
 11
1069.0
 21
332.2
 31
0.0
  0
LINE
  5
15B
330
1E
100
AcDbEntity
  8
1
  6
Continuous
 62
     7
100
AcDbLine
 10
1069.0
 20
332.2
 30
0.0
 11
1069.0
 21
333.6
 31
0.0
  0
LINE
  5
15C
330
1E
100
AcDbEntity
  8
1
  6
Continuous
 62
     7
100
AcDbLine
 10
1069.0
 20
333.6
 30
0.0
 11
979.0
 21
333.6
 31
0.0
  0
CIRCLE
  5
15D
330
1E
100
AcDbEntity
  8
1
  6
Continuous
 62
     7
100
AcDbCircle
 10
1065.599999999999
 20
332.8999999999999
 30
0.0
 40
0.7
  0
CIRCLE
  5
15E
330
1E
100
AcDbEntity
  8
1
  6
Continuous
 62
     7
100
AcDbCircle
 10
1063.4
 20
332.8999999999999
 30
0.0
 40
0.7
  0
CIRCLE
  5
15F
330
1E
100
AcDbEntity
  8
1
  6
Continuous
 62
     7
100
AcDbCircle
 10
1061.2
 20
332.8999999999999
 30
0.0
 40
0.7
  0
CIRCLE
  5
160
330
1E
100
AcDbEntity
  8
1
  6
Continuous
 62
     7
100
AcDbCircle
 10
1059.0
 20
332.8999999999999
 30
0.0
 40
0.7
  0
CIRCLE
  5
161
330
1E
100
AcDbEntity
  8
1
  6
Continuous
 62
     7
100
AcDbCircle
 10
1056.799999999999
 20
332.8999999999999
 30
0.0
 40
0.7
  0
CIRCLE
  5
162
330
1E
100
AcDbEntity
  8
1
  6
Continuous
 62
     7
100
AcDbCircle
 10
1054.599999999999
 20
332.8999999999999
 30
0.0
 40
0.7
  0
CIRCLE
  5
163
330
1E
100
AcDbEntity
  8
1
  6
Continuous
 62
     7
100
AcDbCircle
 10
1052.4
 20
332.8999999999999
 30
0.0
 40
0.7
  0
CIRCLE
  5
164
330
1E
100
AcDbEntity
  8
1
  6
Continuous
 62
     7
100
AcDbCircle
 10
1050.2
 20
332.8999999999999
 30
0.0
 40
0.7
  0
CIRCLE
  5
165
330
1E
100
AcDbEntity
  8
1
  6
Continuous
 62
     7
100
AcDbCircle
 10
1048.0
 20
332.8999999999999
 30
0.0
 40
0.7
  0
CIRCLE
  5
166
330
1E
100
AcDbEntity
  8
1
  6
Continuous
 62
     7
100
AcDbCircle
 10
1045.8
 20
332.8999999999999
 30
0.0
 40
0.7
  0
CIRCLE
  5
167
330
1E
100
AcDbEntity
  8
1
  6
Continuous
 62
     7
100
AcDbCircle
 10
1043.6
 20
332.8999999999999
 30
0.0
 40
0.7
  0
CIRCLE
  5
168
330
1E
100
AcDbEntity
  8
1
  6
Continuous
 62
     7
100
AcDbCircle
 10
1041.4
 20
332.8999999999999
 30
0.0
 40
0.7
  0
CIRCLE
  5
169
330
1E
100
AcDbEntity
  8
1
  6
Continuous
 62
     7
100
AcDbCircle
 10
1039.2
 20
332.8999999999999
 30
0.0
 40
0.7
  0
CIRCLE
  5
16A
330
1E
100
AcDbEntity
  8
1
  6
Continuous
 62
     7
100
AcDbCircle
 10
1037.0
 20
332.8999999999999
 30
0.0
 40
0.7
  0
CIRCLE
  5
16B
330
1E
100
AcDbEntity
  8
1
  6
Continuous
 62
     7
100
AcDbCircle
 10
1034.799999999999
 20
332.8999999999999
 30
0.0
 40
0.7
  0
CIRCLE
  5
16C
330
1E
100
AcDbEntity
  8
1
  6
Continuous
 62
     7
100
AcDbCircle
 10
1032.599999999999
 20
332.8999999999999
 30
0.0
 40
0.7
  0
CIRCLE
  5
16D
330
1E
100
AcDbEntity
  8
1
  6
Continuous
 62
     7
100
AcDbCircle
 10
1030.399999999999
 20
332.8999999999999
 30
0.0
 40
0.7
  0
CIRCLE
  5
16E
330
1E
100
AcDbEntity
  8
1
  6
Continuous
 62
     7
100
AcDbCircle
 10
1028.2
 20
332.8999999999999
 30
0.0
 40
0.7
  0
CIRCLE
  5
16F
330
1E
100
AcDbEntity
  8
1
  6
Continuous
 62
     7
100
AcDbCircle
 10
1026.0
 20
332.8999999999999
 30
0.0
 40
0.7
  0
CIRCLE
  5
170
330
1E
100
AcDbEntity
  8
1
  6
Continuous
 62
     7
100
AcDbCircle
 10
1023.8
 20
332.8999999999999
 30
0.0
 40
0.7
  0
LINE
  5
171
330
1E
100
AcDbEntity
  8
1
  6
Continuous
 62
     7
100
AcDbLine
 10
979.0
 20
331.4
 30
0.0
 11
979.0
 21
330.0
 31
0.0
  0
LINE
  5
172
330
1E
100
AcDbEntity
  8
1
  6
Continuous
 62
     7
100
AcDbLine
 10
979.0
 20
330.0
 30
0.0
 11
1069.0
 21
330.0
 31
0.0
  0
LINE
  5
173
330
1E
100
AcDbEntity
  8
1
  6
Continuous
 62
     7
100
AcDbLine
 10
1069.0
 20
330.0
 30
0.0
 11
1069.0
 21
331.4
 31
0.0
  0
LINE
  5
174
330
1E
100
AcDbEntity
  8
1
  6
Continuous
 62
     7
100
AcDbLine
 10
1069.0
 20
331.4
 30
0.0
 11
979.0
 21
331.4
 31
0.0
  0
CIRCLE
  5
175
330
1E
100
AcDbEntity
  8
1
  6
Continuous
 62
     7
100
AcDbCircle
 10
1065.599999999999
 20
330.6999999999999
 30
0.0
 40
0.7
  0
CIRCLE
  5
176
330
1E
100
AcDbEntity
  8
1
  6
Continuous
 62
     7
100
AcDbCircle
 10
1063.4
 20
330.6999999999999
 30
0.0
 40
0.7
  0
CIRCLE
  5
177
330
1E
100
AcDbEntity
  8
1
  6
Continuous
 62
     7
100
AcDbCircle
 10
1061.2
 20
330.6999999999999
 30
0.0
 40
0.7
  0
CIRCLE
  5
178
330
1E
100
AcDbEntity
  8
1
  6
Continuous
 62
     7
100
AcDbCircle
 10
1059.0
 20
330.6999999999999
 30
0.0
 40
0.7
  0
CIRCLE
  5
179
330
1E
100
AcDbEntity
  8
1
  6
Continuous
 62
     7
100
AcDbCircle
 10
1056.799999999999
 20
330.6999999999999
 30
0.0
 40
0.7
  0
CIRCLE
  5
17A
330
1E
100
AcDbEntity
  8
1
  6
Continuous
 62
     7
100
AcDbCircle
 10
1054.599999999999
 20
330.6999999999999
 30
0.0
 40
0.7
  0
CIRCLE
  5
17B
330
1E
100
AcDbEntity
  8
1
  6
Continuous
 62
     7
100
AcDbCircle
 10
1052.4
 20
330.6999999999999
 30
0.0
 40
0.7
  0
CIRCLE
  5
17C
330
1E
100
AcDbEntity
  8
1
  6
Continuous
 62
     7
100
AcDbCircle
 10
1050.2
 20
330.6999999999999
 30
0.0
 40
0.7
  0
CIRCLE
  5
17D
330
1E
100
AcDbEntity
  8
1
  6
Continuous
 62
     7
100
AcDbCircle
 10
1048.0
 20
330.6999999999999
 30
0.0
 40
0.7
  0
CIRCLE
  5
17E
330
1E
100
AcDbEntity
  8
1
  6
Continuous
 62
     7
100
AcDbCircle
 10
1045.8
 20
330.6999999999999
 30
0.0
 40
0.7
  0
CIRCLE
  5
17F
330
1E
100
AcDbEntity
  8
1
  6
Continuous
 62
     7
100
AcDbCircle
 10
1043.6
 20
330.6999999999999
 30
0.0
 40
0.7
  0
CIRCLE
  5
180
330
1E
100
AcDbEntity
  8
1
  6
Continuous
 62
     7
100
AcDbCircle
 10
1041.4
 20
330.6999999999999
 30
0.0
 40
0.7
  0
CIRCLE
  5
181
330
1E
100
AcDbEntity
  8
1
  6
Continuous
 62
     7
100
AcDbCircle
 10
1039.2
 20
330.6999999999999
 30
0.0
 40
0.7
  0
CIRCLE
  5
182
330
1E
100
AcDbEntity
  8
1
  6
Continuous
 62
     7
100
AcDbCircle
 10
1037.0
 20
330.6999999999999
 30
0.0
 40
0.7
  0
CIRCLE
  5
183
330
1E
100
AcDbEntity
  8
1
  6
Continuous
 62
     7
100
AcDbCircle
 10
1034.799999999999
 20
330.6999999999999
 30
0.0
 40
0.7
  0
CIRCLE
  5
184
330
1E
100
AcDbEntity
  8
1
  6
Continuous
 62
     7
100
AcDbCircle
 10
1032.599999999999
 20
330.6999999999999
 30
0.0
 40
0.7
  0
CIRCLE
  5
185
330
1E
100
AcDbEntity
  8
1
  6
Continuous
 62
     7
100
AcDbCircle
 10
1030.399999999999
 20
330.6999999999999
 30
0.0
 40
0.7
  0
CIRCLE
  5
186
330
1E
100
AcDbEntity
  8
1
  6
Continuous
 62
     7
100
AcDbCircle
 10
1028.2
 20
330.6999999999999
 30
0.0
 40
0.7
  0
CIRCLE
  5
187
330
1E
100
AcDbEntity
  8
1
  6
Continuous
 62
     7
100
AcDbCircle
 10
1026.0
 20
330.6999999999999
 30
0.0
 40
0.7
  0
CIRCLE
  5
188
330
1E
100
AcDbEntity
  8
1
  6
Continuous
 62
     7
100
AcDbCircle
 10
1023.8
 20
330.6999999999999
 30
0.0
 40
0.7
  0
LINE
  5
189
330
1E
100
AcDbEntity
  8
1
  6
Continuous
 62
     7
100
AcDbLine
 10
979.0
 20
329.1999999999999
 30
0.0
 11
979.0
 21
327.8
 31
0.0
  0
LINE
  5
18A
330
1E
100
AcDbEntity
  8
1
  6
Continuous
 62
     7
100
AcDbLine
 10
979.0
 20
327.8
 30
0.0
 11
1069.0
 21
327.8
 31
0.0
  0
LINE
  5
18B
330
1E
100
AcDbEntity
  8
1
  6
Continuous
 62
     7
100
AcDbLine
 10
1069.0
 20
327.8
 30
0.0
 11
1069.0
 21
329.1999999999999
 31
0.0
  0
LINE
  5
18C
330
1E
100
AcDbEntity
  8
1
  6
Continuous
 62
     7
100
AcDbLine
 10
1069.0
 20
329.1999999999999
 30
0.0
 11
979.0
 21
329.1999999999999
 31
0.0
  0
CIRCLE
  5
18D
330
1E
100
AcDbEntity
  8
1
  6
Continuous
 62
     7
100
AcDbCircle
 10
1065.599999999999
 20
328.5
 30
0.0
 40
0.7
  0
CIRCLE
  5
18E
330
1E
100
AcDbEntity
  8
1
  6
Continuous
 62
     7
100
AcDbCircle
 10
1063.4
 20
328.5
 30
0.0
 40
0.7
  0
CIRCLE
  5
18F
330
1E
100
AcDbEntity
  8
1
  6
Continuous
 62
     7
100
AcDbCircle
 10
1061.2
 20
328.5
 30
0.0
 40
0.7
  0
CIRCLE
  5
190
330
1E
100
AcDbEntity
  8
1
  6
Continuous
 62
     7
100
AcDbCircle
 10
1059.0
 20
328.5
 30
0.0
 40
0.7
  0
CIRCLE
  5
191
330
1E
100
AcDbEntity
  8
1
  6
Continuous
 62
     7
100
AcDbCircle
 10
1056.799999999999
 20
328.5
 30
0.0
 40
0.7
  0
CIRCLE
  5
192
330
1E
100
AcDbEntity
  8
1
  6
Continuous
 62
     7
100
AcDbCircle
 10
1054.599999999999
 20
328.5
 30
0.0
 40
0.7
  0
CIRCLE
  5
193
330
1E
100
AcDbEntity
  8
1
  6
Continuous
 62
     7
100
AcDbCircle
 10
1052.4
 20
328.5
 30
0.0
 40
0.7
  0
CIRCLE
  5
194
330
1E
100
AcDbEntity
  8
1
  6
Continuous
 62
     7
100
AcDbCircle
 10
1050.2
 20
328.5
 30
0.0
 40
0.7
  0
CIRCLE
  5
195
330
1E
100
AcDbEntity
  8
1
  6
Continuous
 62
     7
100
AcDbCircle
 10
1048.0
 20
328.5
 30
0.0
 40
0.7
  0
CIRCLE
  5
196
330
1E
100
AcDbEntity
  8
1
  6
Continuous
 62
     7
100
AcDbCircle
 10
1045.8
 20
328.5
 30
0.0
 40
0.7
  0
CIRCLE
  5
197
330
1E
100
AcDbEntity
  8
1
  6
Continuous
 62
     7
100
AcDbCircle
 10
1043.6
 20
328.5
 30
0.0
 40
0.7
  0
CIRCLE
  5
198
330
1E
100
AcDbEntity
  8
1
  6
Continuous
 62
     7
100
AcDbCircle
 10
1041.4
 20
328.5
 30
0.0
 40
0.7
  0
CIRCLE
  5
199
330
1E
100
AcDbEntity
  8
1
  6
Continuous
 62
     7
100
AcDbCircle
 10
1039.2
 20
328.5
 30
0.0
 40
0.7
  0
CIRCLE
  5
19A
330
1E
100
AcDbEntity
  8
1
  6
Continuous
 62
     7
100
AcDbCircle
 10
1037.0
 20
328.5
 30
0.0
 40
0.7
  0
CIRCLE
  5
19B
330
1E
100
AcDbEntity
  8
1
  6
Continuous
 62
     7
100
AcDbCircle
 10
1034.799999999999
 20
328.5
 30
0.0
 40
0.7
  0
CIRCLE
  5
19C
330
1E
100
AcDbEntity
  8
1
  6
Continuous
 62
     7
100
AcDbCircle
 10
1032.599999999999
 20
328.5
 30
0.0
 40
0.7
  0
CIRCLE
  5
19D
330
1E
100
AcDbEntity
  8
1
  6
Continuous
 62
     7
100
AcDbCircle
 10
1030.399999999999
 20
328.5
 30
0.0
 40
0.7
  0
CIRCLE
  5
19E
330
1E
100
AcDbEntity
  8
1
  6
Continuous
 62
     7
100
AcDbCircle
 10
1028.2
 20
328.5
 30
0.0
 40
0.7
  0
CIRCLE
  5
19F
330
1E
100
AcDbEntity
  8
1
  6
Continuous
 62
     7
100
AcDbCircle
 10
1026.0
 20
328.5
 30
0.0
 40
0.7
  0
CIRCLE
  5
1A0
330
1E
100
AcDbEntity
  8
1
  6
Continuous
 62
     7
100
AcDbCircle
 10
1023.8
 20
328.5
 30
0.0
 40
0.7
  0
LINE
  5
1A1
330
1E
100
AcDbEntity
  8
1
  6
Continuous
 62
     7
100
AcDbLine
 10
979.0
 20
327.0
 30
0.0
 11
979.0
 21
325.6
 31
0.0
  0
LINE
  5
1A2
330
1E
100
AcDbEntity
  8
1
  6
Continuous
 62
     7
100
AcDbLine
 10
979.0
 20
325.6
 30
0.0
 11
1069.0
 21
325.6
 31
0.0
  0
LINE
  5
1A3
330
1E
100
AcDbEntity
  8
1
  6
Continuous
 62
     7
100
AcDbLine
 10
1069.0
 20
325.6
 30
0.0
 11
1069.0
 21
327.0
 31
0.0
  0
LINE
  5
1A4
330
1E
100
AcDbEntity
  8
1
  6
Continuous
 62
     7
100
AcDbLine
 10
1069.0
 20
327.0
 30
0.0
 11
979.0
 21
327.0
 31
0.0
  0
CIRCLE
  5
1A5
330
1E
100
AcDbEntity
  8
1
  6
Continuous
 62
     7
100
AcDbCircle
 10
1065.599999999999
 20
326.3
 30
0.0
 40
0.7
  0
CIRCLE
  5
1A6
330
1E
100
AcDbEntity
  8
1
  6
Continuous
 62
     7
100
AcDbCircle
 10
1063.4
 20
326.3
 30
0.0
 40
0.7
  0
CIRCLE
  5
1A7
330
1E
100
AcDbEntity
  8
1
  6
Continuous
 62
     7
100
AcDbCircle
 10
1061.2
 20
326.3
 30
0.0
 40
0.7
  0
CIRCLE
  5
1A8
330
1E
100
AcDbEntity
  8
1
  6
Continuous
 62
     7
100
AcDbCircle
 10
1059.0
 20
326.3
 30
0.0
 40
0.7
  0
CIRCLE
  5
1A9
330
1E
100
AcDbEntity
  8
1
  6
Continuous
 62
     7
100
AcDbCircle
 10
1056.799999999999
 20
326.3
 30
0.0
 40
0.7
  0
CIRCLE
  5
1AA
330
1E
100
AcDbEntity
  8
1
  6
Continuous
 62
     7
100
AcDbCircle
 10
1054.599999999999
 20
326.3
 30
0.0
 40
0.7
  0
CIRCLE
  5
1AB
330
1E
100
AcDbEntity
  8
1
  6
Continuous
 62
     7
100
AcDbCircle
 10
1052.4
 20
326.3
 30
0.0
 40
0.7
  0
CIRCLE
  5
1AC
330
1E
100
AcDbEntity
  8
1
  6
Continuous
 62
     7
100
AcDbCircle
 10
1050.2
 20
326.3
 30
0.0
 40
0.7
  0
CIRCLE
  5
1AD
330
1E
100
AcDbEntity
  8
1
  6
Continuous
 62
     7
100
AcDbCircle
 10
1048.0
 20
326.3
 30
0.0
 40
0.7
  0
CIRCLE
  5
1AE
330
1E
100
AcDbEntity
  8
1
  6
Continuous
 62
     7
100
AcDbCircle
 10
1045.8
 20
326.3
 30
0.0
 40
0.7
  0
CIRCLE
  5
1AF
330
1E
100
AcDbEntity
  8
1
  6
Continuous
 62
     7
100
AcDbCircle
 10
1043.6
 20
326.3
 30
0.0
 40
0.7
  0
CIRCLE
  5
1B0
330
1E
100
AcDbEntity
  8
1
  6
Continuous
 62
     7
100
AcDbCircle
 10
1041.4
 20
326.3
 30
0.0
 40
0.7
  0
CIRCLE
  5
1B1
330
1E
100
AcDbEntity
  8
1
  6
Continuous
 62
     7
100
AcDbCircle
 10
1039.2
 20
326.3
 30
0.0
 40
0.7
  0
CIRCLE
  5
1B2
330
1E
100
AcDbEntity
  8
1
  6
Continuous
 62
     7
100
AcDbCircle
 10
1037.0
 20
326.3
 30
0.0
 40
0.7
  0
CIRCLE
  5
1B3
330
1E
100
AcDbEntity
  8
1
  6
Continuous
 62
     7
100
AcDbCircle
 10
1034.799999999999
 20
326.3
 30
0.0
 40
0.7
  0
CIRCLE
  5
1B4
330
1E
100
AcDbEntity
  8
1
  6
Continuous
 62
     7
100
AcDbCircle
 10
1032.599999999999
 20
326.3
 30
0.0
 40
0.7
  0
CIRCLE
  5
1B5
330
1E
100
AcDbEntity
  8
1
  6
Continuous
 62
     7
100
AcDbCircle
 10
1030.399999999999
 20
326.3
 30
0.0
 40
0.7
  0
CIRCLE
  5
1B6
330
1E
100
AcDbEntity
  8
1
  6
Continuous
 62
     7
100
AcDbCircle
 10
1028.2
 20
326.3
 30
0.0
 40
0.7
  0
CIRCLE
  5
1B7
330
1E
100
AcDbEntity
  8
1
  6
Continuous
 62
     7
100
AcDbCircle
 10
1026.0
 20
326.3
 30
0.0
 40
0.7
  0
CIRCLE
  5
1B8
330
1E
100
AcDbEntity
  8
1
  6
Continuous
 62
     7
100
AcDbCircle
 10
1023.8
 20
326.3
 30
0.0
 40
0.7
  0
LINE
  5
1B9
330
1E
100
AcDbEntity
  8
1
  6
Continuous
 62
     7
100
AcDbLine
 10
979.0
 20
324.8
 30
0.0
 11
979.0
 21
323.3999999999999
 31
0.0
  0
LINE
  5
1BA
330
1E
100
AcDbEntity
  8
1
  6
Continuous
 62
     7
100
AcDbLine
 10
979.0
 20
323.3999999999999
 30
0.0
 11
1069.0
 21
323.3999999999999
 31
0.0
  0
LINE
  5
1BB
330
1E
100
AcDbEntity
  8
1
  6
Continuous
 62
     7
100
AcDbLine
 10
1069.0
 20
323.3999999999999
 30
0.0
 11
1069.0
 21
324.8
 31
0.0
  0
LINE
  5
1BC
330
1E
100
AcDbEntity
  8
1
  6
Continuous
 62
     7
100
AcDbLine
 10
1069.0
 20
324.8
 30
0.0
 11
979.0
 21
324.8
 31
0.0
  0
CIRCLE
  5
1BD
330
1E
100
AcDbEntity
  8
1
  6
Continuous
 62
     7
100
AcDbCircle
 10
1065.599999999999
 20
324.1
 30
0.0
 40
0.7
  0
CIRCLE
  5
1BE
330
1E
100
AcDbEntity
  8
1
  6
Continuous
 62
     7
100
AcDbCircle
 10
1063.4
 20
324.1
 30
0.0
 40
0.7
  0
CIRCLE
  5
1BF
330
1E
100
AcDbEntity
  8
1
  6
Continuous
 62
     7
100
AcDbCircle
 10
1061.2
 20
324.1
 30
0.0
 40
0.7
  0
CIRCLE
  5
1C0
330
1E
100
AcDbEntity
  8
1
  6
Continuous
 62
     7
100
AcDbCircle
 10
1059.0
 20
324.1
 30
0.0
 40
0.7
  0
CIRCLE
  5
1C1
330
1E
100
AcDbEntity
  8
1
  6
Continuous
 62
     7
100
AcDbCircle
 10
1056.799999999999
 20
324.1
 30
0.0
 40
0.7
  0
CIRCLE
  5
1C2
330
1E
100
AcDbEntity
  8
1
  6
Continuous
 62
     7
100
AcDbCircle
 10
1054.599999999999
 20
324.1
 30
0.0
 40
0.7
  0
CIRCLE
  5
1C3
330
1E
100
AcDbEntity
  8
1
  6
Continuous
 62
     7
100
AcDbCircle
 10
1052.4
 20
324.1
 30
0.0
 40
0.7
  0
CIRCLE
  5
1C4
330
1E
100
AcDbEntity
  8
1
  6
Continuous
 62
     7
100
AcDbCircle
 10
1050.2
 20
324.1
 30
0.0
 40
0.7
  0
CIRCLE
  5
1C5
330
1E
100
AcDbEntity
  8
1
  6
Continuous
 62
     7
100
AcDbCircle
 10
1048.0
 20
324.1
 30
0.0
 40
0.7
  0
CIRCLE
  5
1C6
330
1E
100
AcDbEntity
  8
1
  6
Continuous
 62
     7
100
AcDbCircle
 10
1045.8
 20
324.1
 30
0.0
 40
0.7
  0
CIRCLE
  5
1C7
330
1E
100
AcDbEntity
  8
1
  6
Continuous
 62
     7
100
AcDbCircle
 10
1043.6
 20
324.1
 30
0.0
 40
0.7
  0
CIRCLE
  5
1C8
330
1E
100
AcDbEntity
  8
1
  6
Continuous
 62
     7
100
AcDbCircle
 10
1041.4
 20
324.1
 30
0.0
 40
0.7
  0
CIRCLE
  5
1C9
330
1E
100
AcDbEntity
  8
1
  6
Continuous
 62
     7
100
AcDbCircle
 10
1039.2
 20
324.1
 30
0.0
 40
0.7
  0
CIRCLE
  5
1CA
330
1E
100
AcDbEntity
  8
1
  6
Continuous
 62
     7
100
AcDbCircle
 10
1037.0
 20
324.1
 30
0.0
 40
0.7
  0
CIRCLE
  5
1CB
330
1E
100
AcDbEntity
  8
1
  6
Continuous
 62
     7
100
AcDbCircle
 10
1034.799999999999
 20
324.1
 30
0.0
 40
0.7
  0
CIRCLE
  5
1CC
330
1E
100
AcDbEntity
  8
1
  6
Continuous
 62
     7
100
AcDbCircle
 10
1032.599999999999
 20
324.1
 30
0.0
 40
0.7
  0
CIRCLE
  5
1CD
330
1E
100
AcDbEntity
  8
1
  6
Continuous
 62
     7
100
AcDbCircle
 10
1030.399999999999
 20
324.1
 30
0.0
 40
0.7
  0
CIRCLE
  5
1CE
330
1E
100
AcDbEntity
  8
1
  6
Continuous
 62
     7
100
AcDbCircle
 10
1028.2
 20
324.1
 30
0.0
 40
0.7
  0
CIRCLE
  5
1CF
330
1E
100
AcDbEntity
  8
1
  6
Continuous
 62
     7
100
AcDbCircle
 10
1026.0
 20
324.1
 30
0.0
 40
0.7
  0
CIRCLE
  5
1D0
330
1E
100
AcDbEntity
  8
1
  6
Continuous
 62
     7
100
AcDbCircle
 10
1023.8
 20
324.1
 30
0.0
 40
0.7
  0
LINE
  5
1D1
330
1E
100
AcDbEntity
  8
1
  6
Continuous
 62
     7
100
AcDbLine
 10
979.0
 20
322.6
 30
0.0
 11
979.0
 21
321.1999999999999
 31
0.0
  0
LINE
  5
1D2
330
1E
100
AcDbEntity
  8
1
  6
Continuous
 62
     7
100
AcDbLine
 10
979.0
 20
321.1999999999999
 30
0.0
 11
1069.0
 21
321.1999999999999
 31
0.0
  0
LINE
  5
1D3
330
1E
100
AcDbEntity
  8
1
  6
Continuous
 62
     7
100
AcDbLine
 10
1069.0
 20
321.1999999999999
 30
0.0
 11
1069.0
 21
322.6
 31
0.0
  0
LINE
  5
1D4
330
1E
100
AcDbEntity
  8
1
  6
Continuous
 62
     7
100
AcDbLine
 10
1069.0
 20
322.6
 30
0.0
 11
979.0
 21
322.6
 31
0.0
  0
CIRCLE
  5
1D5
330
1E
100
AcDbEntity
  8
1
  6
Continuous
 62
     7
100
AcDbCircle
 10
1065.599999999999
 20
321.8999999999999
 30
0.0
 40
0.7
  0
CIRCLE
  5
1D6
330
1E
100
AcDbEntity
  8
1
  6
Continuous
 62
     7
100
AcDbCircle
 10
1063.4
 20
321.8999999999999
 30
0.0
 40
0.7
  0
CIRCLE
  5
1D7
330
1E
100
AcDbEntity
  8
1
  6
Continuous
 62
     7
100
AcDbCircle
 10
1061.2
 20
321.8999999999999
 30
0.0
 40
0.7
  0
CIRCLE
  5
1D8
330
1E
100
AcDbEntity
  8
1
  6
Continuous
 62
     7
100
AcDbCircle
 10
1059.0
 20
321.8999999999999
 30
0.0
 40
0.7
  0
CIRCLE
  5
1D9
330
1E
100
AcDbEntity
  8
1
  6
Continuous
 62
     7
100
AcDbCircle
 10
1056.799999999999
 20
321.8999999999999
 30
0.0
 40
0.7
  0
CIRCLE
  5
1DA
330
1E
100
AcDbEntity
  8
1
  6
Continuous
 62
     7
100
AcDbCircle
 10
1054.599999999999
 20
321.8999999999999
 30
0.0
 40
0.7
  0
CIRCLE
  5
1DB
330
1E
100
AcDbEntity
  8
1
  6
Continuous
 62
     7
100
AcDbCircle
 10
1052.4
 20
321.8999999999999
 30
0.0
 40
0.7
  0
CIRCLE
  5
1DC
330
1E
100
AcDbEntity
  8
1
  6
Continuous
 62
     7
100
AcDbCircle
 10
1050.2
 20
321.8999999999999
 30
0.0
 40
0.7
  0
CIRCLE
  5
1DD
330
1E
100
AcDbEntity
  8
1
  6
Continuous
 62
     7
100
AcDbCircle
 10
1048.0
 20
321.8999999999999
 30
0.0
 40
0.7
  0
CIRCLE
  5
1DE
330
1E
100
AcDbEntity
  8
1
  6
Continuous
 62
     7
100
AcDbCircle
 10
1045.8
 20
321.8999999999999
 30
0.0
 40
0.7
  0
CIRCLE
  5
1DF
330
1E
100
AcDbEntity
  8
1
  6
Continuous
 62
     7
100
AcDbCircle
 10
1043.6
 20
321.8999999999999
 30
0.0
 40
0.7
  0
CIRCLE
  5
1E0
330
1E
100
AcDbEntity
  8
1
  6
Continuous
 62
     7
100
AcDbCircle
 10
1041.4
 20
321.8999999999999
 30
0.0
 40
0.7
  0
CIRCLE
  5
1E1
330
1E
100
AcDbEntity
  8
1
  6
Continuous
 62
     7
100
AcDbCircle
 10
1039.2
 20
321.8999999999999
 30
0.0
 40
0.7
  0
CIRCLE
  5
1E2
330
1E
100
AcDbEntity
  8
1
  6
Continuous
 62
     7
100
AcDbCircle
 10
1037.0
 20
321.8999999999999
 30
0.0
 40
0.7
  0
CIRCLE
  5
1E3
330
1E
100
AcDbEntity
  8
1
  6
Continuous
 62
     7
100
AcDbCircle
 10
1034.799999999999
 20
321.8999999999999
 30
0.0
 40
0.7
  0
CIRCLE
  5
1E4
330
1E
100
AcDbEntity
  8
1
  6
Continuous
 62
     7
100
AcDbCircle
 10
1032.599999999999
 20
321.8999999999999
 30
0.0
 40
0.7
  0
CIRCLE
  5
1E5
330
1E
100
AcDbEntity
  8
1
  6
Continuous
 62
     7
100
AcDbCircle
 10
1030.399999999999
 20
321.8999999999999
 30
0.0
 40
0.7
  0
CIRCLE
  5
1E6
330
1E
100
AcDbEntity
  8
1
  6
Continuous
 62
     7
100
AcDbCircle
 10
1028.2
 20
321.8999999999999
 30
0.0
 40
0.7
  0
CIRCLE
  5
1E7
330
1E
100
AcDbEntity
  8
1
  6
Continuous
 62
     7
100
AcDbCircle
 10
1026.0
 20
321.8999999999999
 30
0.0
 40
0.7
  0
CIRCLE
  5
1E8
330
1E
100
AcDbEntity
  8
1
  6
Continuous
 62
     7
100
AcDbCircle
 10
1023.8
 20
321.8999999999999
 30
0.0
 40
0.7
  0
LINE
  5
1E9
330
1E
100
AcDbEntity
  8
1
  6
Continuous
 62
     7
100
AcDbLine
 10
979.0
 20
320.3999999999999
 30
0.0
 11
979.0
 21
319.0
 31
0.0
  0
LINE
  5
1EA
330
1E
100
AcDbEntity
  8
1
  6
Continuous
 62
     7
100
AcDbLine
 10
979.0
 20
319.0
 30
0.0
 11
1069.0
 21
319.0
 31
0.0
  0
LINE
  5
1EB
330
1E
100
AcDbEntity
  8
1
  6
Continuous
 62
     7
100
AcDbLine
 10
1069.0
 20
319.0
 30
0.0
 11
1069.0
 21
320.3999999999999
 31
0.0
  0
LINE
  5
1EC
330
1E
100
AcDbEntity
  8
1
  6
Continuous
 62
     7
100
AcDbLine
 10
1069.0
 20
320.3999999999999
 30
0.0
 11
979.0
 21
320.3999999999999
 31
0.0
  0
CIRCLE
  5
1ED
330
1E
100
AcDbEntity
  8
1
  6
Continuous
 62
     7
100
AcDbCircle
 10
1065.599999999999
 20
319.7
 30
0.0
 40
0.7
  0
CIRCLE
  5
1EE
330
1E
100
AcDbEntity
  8
1
  6
Continuous
 62
     7
100
AcDbCircle
 10
1063.4
 20
319.7
 30
0.0
 40
0.7
  0
CIRCLE
  5
1EF
330
1E
100
AcDbEntity
  8
1
  6
Continuous
 62
     7
100
AcDbCircle
 10
1061.2
 20
319.7
 30
0.0
 40
0.7
  0
CIRCLE
  5
1F0
330
1E
100
AcDbEntity
  8
1
  6
Continuous
 62
     7
100
AcDbCircle
 10
1059.0
 20
319.7
 30
0.0
 40
0.7
  0
CIRCLE
  5
1F1
330
1E
100
AcDbEntity
  8
1
  6
Continuous
 62
     7
100
AcDbCircle
 10
1056.799999999999
 20
319.7
 30
0.0
 40
0.7
  0
CIRCLE
  5
1F2
330
1E
100
AcDbEntity
  8
1
  6
Continuous
 62
     7
100
AcDbCircle
 10
1054.599999999999
 20
319.7
 30
0.0
 40
0.7
  0
CIRCLE
  5
1F3
330
1E
100
AcDbEntity
  8
1
  6
Continuous
 62
     7
100
AcDbCircle
 10
1052.4
 20
319.7
 30
0.0
 40
0.7
  0
CIRCLE
  5
1F4
330
1E
100
AcDbEntity
  8
1
  6
Continuous
 62
     7
100
AcDbCircle
 10
1050.2
 20
319.7
 30
0.0
 40
0.7
  0
CIRCLE
  5
1F5
330
1E
100
AcDbEntity
  8
1
  6
Continuous
 62
     7
100
AcDbCircle
 10
1048.0
 20
319.7
 30
0.0
 40
0.7
  0
CIRCLE
  5
1F6
330
1E
100
AcDbEntity
  8
1
  6
Continuous
 62
     7
100
AcDbCircle
 10
1045.8
 20
319.7
 30
0.0
 40
0.7
  0
CIRCLE
  5
1F7
330
1E
100
AcDbEntity
  8
1
  6
Continuous
 62
     7
100
AcDbCircle
 10
1043.6
 20
319.7
 30
0.0
 40
0.7
  0
CIRCLE
  5
1F8
330
1E
100
AcDbEntity
  8
1
  6
Continuous
 62
     7
100
AcDbCircle
 10
1041.4
 20
319.7
 30
0.0
 40
0.7
  0
CIRCLE
  5
1F9
330
1E
100
AcDbEntity
  8
1
  6
Continuous
 62
     7
100
AcDbCircle
 10
1039.2
 20
319.7
 30
0.0
 40
0.7
  0
CIRCLE
  5
1FA
330
1E
100
AcDbEntity
  8
1
  6
Continuous
 62
     7
100
AcDbCircle
 10
1037.0
 20
319.7
 30
0.0
 40
0.7
  0
CIRCLE
  5
1FB
330
1E
100
AcDbEntity
  8
1
  6
Continuous
 62
     7
100
AcDbCircle
 10
1034.799999999999
 20
319.7
 30
0.0
 40
0.7
  0
CIRCLE
  5
1FC
330
1E
100
AcDbEntity
  8
1
  6
Continuous
 62
     7
100
AcDbCircle
 10
1032.599999999999
 20
319.7
 30
0.0
 40
0.7
  0
CIRCLE
  5
1FD
330
1E
100
AcDbEntity
  8
1
  6
Continuous
 62
     7
100
AcDbCircle
 10
1030.399999999999
 20
319.7
 30
0.0
 40
0.7
  0
CIRCLE
  5
1FE
330
1E
100
AcDbEntity
  8
1
  6
Continuous
 62
     7
100
AcDbCircle
 10
1028.2
 20
319.7
 30
0.0
 40
0.7
  0
CIRCLE
  5
1FF
330
1E
100
AcDbEntity
  8
1
  6
Continuous
 62
     7
100
AcDbCircle
 10
1026.0
 20
319.7
 30
0.0
 40
0.7
  0
CIRCLE
  5
200
330
1E
100
AcDbEntity
  8
1
  6
Continuous
 62
     7
100
AcDbCircle
 10
1023.8
 20
319.7
 30
0.0
 40
0.7
  0
LINE
  5
201
330
1E
100
AcDbEntity
  8
1
  6
Continuous
 62
     7
100
AcDbLine
 10
979.0
 20
318.1999999999999
 30
0.0
 11
979.0
 21
316.8
 31
0.0
  0
LINE
  5
202
330
1E
100
AcDbEntity
  8
1
  6
Continuous
 62
     7
100
AcDbLine
 10
979.0
 20
316.8
 30
0.0
 11
1069.0
 21
316.8
 31
0.0
  0
LINE
  5
203
330
1E
100
AcDbEntity
  8
1
  6
Continuous
 62
     7
100
AcDbLine
 10
1069.0
 20
316.8
 30
0.0
 11
1069.0
 21
318.1999999999999
 31
0.0
  0
LINE
  5
204
330
1E
100
AcDbEntity
  8
1
  6
Continuous
 62
     7
100
AcDbLine
 10
1069.0
 20
318.1999999999999
 30
0.0
 11
979.0
 21
318.1999999999999
 31
0.0
  0
CIRCLE
  5
205
330
1E
100
AcDbEntity
  8
1
  6
Continuous
 62
     7
100
AcDbCircle
 10
1065.599999999999
 20
317.5
 30
0.0
 40
0.7
  0
CIRCLE
  5
206
330
1E
100
AcDbEntity
  8
1
  6
Continuous
 62
     7
100
AcDbCircle
 10
1063.4
 20
317.5
 30
0.0
 40
0.7
  0
CIRCLE
  5
207
330
1E
100
AcDbEntity
  8
1
  6
Continuous
 62
     7
100
AcDbCircle
 10
1061.2
 20
317.5
 30
0.0
 40
0.7
  0
CIRCLE
  5
208
330
1E
100
AcDbEntity
  8
1
  6
Continuous
 62
     7
100
AcDbCircle
 10
1059.0
 20
317.5
 30
0.0
 40
0.7
  0
CIRCLE
  5
209
330
1E
100
AcDbEntity
  8
1
  6
Continuous
 62
     7
100
AcDbCircle
 10
1056.799999999999
 20
317.5
 30
0.0
 40
0.7
  0
CIRCLE
  5
20A
330
1E
100
AcDbEntity
  8
1
  6
Continuous
 62
     7
100
AcDbCircle
 10
1054.599999999999
 20
317.5
 30
0.0
 40
0.7
  0
CIRCLE
  5
20B
330
1E
100
AcDbEntity
  8
1
  6
Continuous
 62
     7
100
AcDbCircle
 10
1052.4
 20
317.5
 30
0.0
 40
0.7
  0
CIRCLE
  5
20C
330
1E
100
AcDbEntity
  8
1
  6
Continuous
 62
     7
100
AcDbCircle
 10
1050.2
 20
317.5
 30
0.0
 40
0.7
  0
CIRCLE
  5
20D
330
1E
100
AcDbEntity
  8
1
  6
Continuous
 62
     7
100
AcDbCircle
 10
1048.0
 20
317.5
 30
0.0
 40
0.7
  0
CIRCLE
  5
20E
330
1E
100
AcDbEntity
  8
1
  6
Continuous
 62
     7
100
AcDbCircle
 10
1045.8
 20
317.5
 30
0.0
 40
0.7
  0
CIRCLE
  5
20F
330
1E
100
AcDbEntity
  8
1
  6
Continuous
 62
     7
100
AcDbCircle
 10
1043.6
 20
317.5
 30
0.0
 40
0.7
  0
CIRCLE
  5
210
330
1E
100
AcDbEntity
  8
1
  6
Continuous
 62
     7
100
AcDbCircle
 10
1041.4
 20
317.5
 30
0.0
 40
0.7
  0
CIRCLE
  5
211
330
1E
100
AcDbEntity
  8
1
  6
Continuous
 62
     7
100
AcDbCircle
 10
1039.2
 20
317.5
 30
0.0
 40
0.7
  0
CIRCLE
  5
212
330
1E
100
AcDbEntity
  8
1
  6
Continuous
 62
     7
100
AcDbCircle
 10
1037.0
 20
317.5
 30
0.0
 40
0.7
  0
CIRCLE
  5
213
330
1E
100
AcDbEntity
  8
1
  6
Continuous
 62
     7
100
AcDbCircle
 10
1034.799999999999
 20
317.5
 30
0.0
 40
0.7
  0
CIRCLE
  5
214
330
1E
100
AcDbEntity
  8
1
  6
Continuous
 62
     7
100
AcDbCircle
 10
1032.599999999999
 20
317.5
 30
0.0
 40
0.7
  0
CIRCLE
  5
215
330
1E
100
AcDbEntity
  8
1
  6
Continuous
 62
     7
100
AcDbCircle
 10
1030.399999999999
 20
317.5
 30
0.0
 40
0.7
  0
CIRCLE
  5
216
330
1E
100
AcDbEntity
  8
1
  6
Continuous
 62
     7
100
AcDbCircle
 10
1028.2
 20
317.5
 30
0.0
 40
0.7
  0
CIRCLE
  5
217
330
1E
100
AcDbEntity
  8
1
  6
Continuous
 62
     7
100
AcDbCircle
 10
1026.0
 20
317.5
 30
0.0
 40
0.7
  0
CIRCLE
  5
218
330
1E
100
AcDbEntity
  8
1
  6
Continuous
 62
     7
100
AcDbCircle
 10
1023.8
 20
317.5
 30
0.0
 40
0.7
  0
LINE
  5
219
330
1E
100
AcDbEntity
  8
1
  6
Continuous
 62
     7
100
AcDbLine
 10
979.0
 20
316.0
 30
0.0
 11
979.0
 21
314.6
 31
0.0
  0
LINE
  5
21A
330
1E
100
AcDbEntity
  8
1
  6
Continuous
 62
     7
100
AcDbLine
 10
979.0
 20
314.6
 30
0.0
 11
1069.0
 21
314.6
 31
0.0
  0
LINE
  5
21B
330
1E
100
AcDbEntity
  8
1
  6
Continuous
 62
     7
100
AcDbLine
 10
1069.0
 20
314.6
 30
0.0
 11
1069.0
 21
316.0
 31
0.0
  0
LINE
  5
21C
330
1E
100
AcDbEntity
  8
1
  6
Continuous
 62
     7
100
AcDbLine
 10
1069.0
 20
316.0
 30
0.0
 11
979.0
 21
316.0
 31
0.0
  0
CIRCLE
  5
21D
330
1E
100
AcDbEntity
  8
1
  6
Continuous
 62
     7
100
AcDbCircle
 10
1065.599999999999
 20
315.3
 30
0.0
 40
0.7
  0
CIRCLE
  5
21E
330
1E
100
AcDbEntity
  8
1
  6
Continuous
 62
     7
100
AcDbCircle
 10
1063.4
 20
315.3
 30
0.0
 40
0.7
  0
CIRCLE
  5
21F
330
1E
100
AcDbEntity
  8
1
  6
Continuous
 62
     7
100
AcDbCircle
 10
1061.2
 20
315.3
 30
0.0
 40
0.7
  0
CIRCLE
  5
220
330
1E
100
AcDbEntity
  8
1
  6
Continuous
 62
     7
100
AcDbCircle
 10
1059.0
 20
315.3
 30
0.0
 40
0.7
  0
CIRCLE
  5
221
330
1E
100
AcDbEntity
  8
1
  6
Continuous
 62
     7
100
AcDbCircle
 10
1056.799999999999
 20
315.3
 30
0.0
 40
0.7
  0
CIRCLE
  5
222
330
1E
100
AcDbEntity
  8
1
  6
Continuous
 62
     7
100
AcDbCircle
 10
1054.599999999999
 20
315.3
 30
0.0
 40
0.7
  0
CIRCLE
  5
223
330
1E
100
AcDbEntity
  8
1
  6
Continuous
 62
     7
100
AcDbCircle
 10
1052.4
 20
315.3
 30
0.0
 40
0.7
  0
CIRCLE
  5
224
330
1E
100
AcDbEntity
  8
1
  6
Continuous
 62
     7
100
AcDbCircle
 10
1050.2
 20
315.3
 30
0.0
 40
0.7
  0
CIRCLE
  5
225
330
1E
100
AcDbEntity
  8
1
  6
Continuous
 62
     7
100
AcDbCircle
 10
1048.0
 20
315.3
 30
0.0
 40
0.7
  0
CIRCLE
  5
226
330
1E
100
AcDbEntity
  8
1
  6
Continuous
 62
     7
100
AcDbCircle
 10
1045.8
 20
315.3
 30
0.0
 40
0.7
  0
CIRCLE
  5
227
330
1E
100
AcDbEntity
  8
1
  6
Continuous
 62
     7
100
AcDbCircle
 10
1043.6
 20
315.3
 30
0.0
 40
0.7
  0
CIRCLE
  5
228
330
1E
100
AcDbEntity
  8
1
  6
Continuous
 62
     7
100
AcDbCircle
 10
1041.4
 20
315.3
 30
0.0
 40
0.7
  0
CIRCLE
  5
229
330
1E
100
AcDbEntity
  8
1
  6
Continuous
 62
     7
100
AcDbCircle
 10
1039.2
 20
315.3
 30
0.0
 40
0.7
  0
CIRCLE
  5
22A
330
1E
100
AcDbEntity
  8
1
  6
Continuous
 62
     7
100
AcDbCircle
 10
1037.0
 20
315.3
 30
0.0
 40
0.7
  0
CIRCLE
  5
22B
330
1E
100
AcDbEntity
  8
1
  6
Continuous
 62
     7
100
AcDbCircle
 10
1034.799999999999
 20
315.3
 30
0.0
 40
0.7
  0
CIRCLE
  5
22C
330
1E
100
AcDbEntity
  8
1
  6
Continuous
 62
     7
100
AcDbCircle
 10
1032.599999999999
 20
315.3
 30
0.0
 40
0.7
  0
CIRCLE
  5
22D
330
1E
100
AcDbEntity
  8
1
  6
Continuous
 62
     7
100
AcDbCircle
 10
1030.399999999999
 20
315.3
 30
0.0
 40
0.7
  0
CIRCLE
  5
22E
330
1E
100
AcDbEntity
  8
1
  6
Continuous
 62
     7
100
AcDbCircle
 10
1028.2
 20
315.3
 30
0.0
 40
0.7
  0
CIRCLE
  5
22F
330
1E
100
AcDbEntity
  8
1
  6
Continuous
 62
     7
100
AcDbCircle
 10
1026.0
 20
315.3
 30
0.0
 40
0.7
  0
CIRCLE
  5
230
330
1E
100
AcDbEntity
  8
1
  6
Continuous
 62
     7
100
AcDbCircle
 10
1023.8
 20
315.3
 30
0.0
 40
0.7
  0
LINE
  5
231
330
1E
100
AcDbEntity
  8
1
  6
Continuous
 62
     7
100
AcDbLine
 10
979.0
 20
313.8
 30
0.0
 11
979.0
 21
312.3999999999999
 31
0.0
  0
LINE
  5
232
330
1E
100
AcDbEntity
  8
1
  6
Continuous
 62
     7
100
AcDbLine
 10
979.0
 20
312.3999999999999
 30
0.0
 11
1069.0
 21
312.3999999999999
 31
0.0
  0
LINE
  5
233
330
1E
100
AcDbEntity
  8
1
  6
Continuous
 62
     7
100
AcDbLine
 10
1069.0
 20
312.3999999999999
 30
0.0
 11
1069.0
 21
313.8
 31
0.0
  0
LINE
  5
234
330
1E
100
AcDbEntity
  8
1
  6
Continuous
 62
     7
100
AcDbLine
 10
1069.0
 20
313.8
 30
0.0
 11
979.0
 21
313.8
 31
0.0
  0
CIRCLE
  5
235
330
1E
100
AcDbEntity
  8
1
  6
Continuous
 62
     7
100
AcDbCircle
 10
1065.599999999999
 20
313.1
 30
0.0
 40
0.7
  0
CIRCLE
  5
236
330
1E
100
AcDbEntity
  8
1
  6
Continuous
 62
     7
100
AcDbCircle
 10
1063.4
 20
313.1
 30
0.0
 40
0.7
  0
CIRCLE
  5
237
330
1E
100
AcDbEntity
  8
1
  6
Continuous
 62
     7
100
AcDbCircle
 10
1061.2
 20
313.1
 30
0.0
 40
0.7
  0
CIRCLE
  5
238
330
1E
100
AcDbEntity
  8
1
  6
Continuous
 62
     7
100
AcDbCircle
 10
1059.0
 20
313.1
 30
0.0
 40
0.7
  0
CIRCLE
  5
239
330
1E
100
AcDbEntity
  8
1
  6
Continuous
 62
     7
100
AcDbCircle
 10
1056.799999999999
 20
313.1
 30
0.0
 40
0.7
  0
CIRCLE
  5
23A
330
1E
100
AcDbEntity
  8
1
  6
Continuous
 62
     7
100
AcDbCircle
 10
1054.599999999999
 20
313.1
 30
0.0
 40
0.7
  0
CIRCLE
  5
23B
330
1E
100
AcDbEntity
  8
1
  6
Continuous
 62
     7
100
AcDbCircle
 10
1052.4
 20
313.1
 30
0.0
 40
0.7
  0
CIRCLE
  5
23C
330
1E
100
AcDbEntity
  8
1
  6
Continuous
 62
     7
100
AcDbCircle
 10
1050.2
 20
313.1
 30
0.0
 40
0.7
  0
CIRCLE
  5
23D
330
1E
100
AcDbEntity
  8
1
  6
Continuous
 62
     7
100
AcDbCircle
 10
1048.0
 20
313.1
 30
0.0
 40
0.7
  0
CIRCLE
  5
23E
330
1E
100
AcDbEntity
  8
1
  6
Continuous
 62
     7
100
AcDbCircle
 10
1045.8
 20
313.1
 30
0.0
 40
0.7
  0
CIRCLE
  5
23F
330
1E
100
AcDbEntity
  8
1
  6
Continuous
 62
     7
100
AcDbCircle
 10
1043.6
 20
313.1
 30
0.0
 40
0.7
  0
CIRCLE
  5
240
330
1E
100
AcDbEntity
  8
1
  6
Continuous
 62
     7
100
AcDbCircle
 10
1041.4
 20
313.1
 30
0.0
 40
0.7
  0
CIRCLE
  5
241
330
1E
100
AcDbEntity
  8
1
  6
Continuous
 62
     7
100
AcDbCircle
 10
1039.2
 20
313.1
 30
0.0
 40
0.7
  0
CIRCLE
  5
242
330
1E
100
AcDbEntity
  8
1
  6
Continuous
 62
     7
100
AcDbCircle
 10
1037.0
 20
313.1
 30
0.0
 40
0.7
  0
CIRCLE
  5
243
330
1E
100
AcDbEntity
  8
1
  6
Continuous
 62
     7
100
AcDbCircle
 10
1034.799999999999
 20
313.1
 30
0.0
 40
0.7
  0
CIRCLE
  5
244
330
1E
100
AcDbEntity
  8
1
  6
Continuous
 62
     7
100
AcDbCircle
 10
1032.599999999999
 20
313.1
 30
0.0
 40
0.7
  0
CIRCLE
  5
245
330
1E
100
AcDbEntity
  8
1
  6
Continuous
 62
     7
100
AcDbCircle
 10
1030.399999999999
 20
313.1
 30
0.0
 40
0.7
  0
CIRCLE
  5
246
330
1E
100
AcDbEntity
  8
1
  6
Continuous
 62
     7
100
AcDbCircle
 10
1028.2
 20
313.1
 30
0.0
 40
0.7
  0
CIRCLE
  5
247
330
1E
100
AcDbEntity
  8
1
  6
Continuous
 62
     7
100
AcDbCircle
 10
1026.0
 20
313.1
 30
0.0
 40
0.7
  0
CIRCLE
  5
248
330
1E
100
AcDbEntity
  8
1
  6
Continuous
 62
     7
100
AcDbCircle
 10
1023.8
 20
313.1
 30
0.0
 40
0.7
  0
LINE
  5
249
330
1E
100
AcDbEntity
  8
1
  6
Continuous
 62
     7
100
AcDbLine
 10
781.0
 20
338.0
 30
0.0
 11
781.0
 21
336.6
 31
0.0
  0
LINE
  5
24A
330
1E
100
AcDbEntity
  8
1
  6
Continuous
 62
     7
100
AcDbLine
 10
781.0
 20
336.6
 30
0.0
 11
691.0
 21
336.6
 31
0.0
  0
LINE
  5
24B
330
1E
100
AcDbEntity
  8
1
  6
Continuous
 62
     7
100
AcDbLine
 10
691.0
 20
336.6
 30
0.0
 11
691.0
 21
338.0
 31
0.0
  0
LINE
  5
24C
330
1E
100
AcDbEntity
  8
1
  6
Continuous
 62
     7
100
AcDbLine
 10
691.0
 20
338.0
 30
0.0
 11
781.0
 21
338.0
 31
0.0
  0
CIRCLE
  5
24D
330
1E
100
AcDbEntity
  8
1
  6
Continuous
 62
     7
100
AcDbCircle
 10
694.3999999999999
 20
337.3
 30
0.0
 40
0.7
  0
CIRCLE
  5
24E
330
1E
100
AcDbEntity
  8
1
  6
Continuous
 62
     7
100
AcDbCircle
 10
696.6
 20
337.3
 30
0.0
 40
0.7
  0
CIRCLE
  5
24F
330
1E
100
AcDbEntity
  8
1
  6
Continuous
 62
     7
100
AcDbCircle
 10
698.7999999999999
 20
337.3
 30
0.0
 40
0.7
  0
CIRCLE
  5
250
330
1E
100
AcDbEntity
  8
1
  6
Continuous
 62
     7
100
AcDbCircle
 10
701.0
 20
337.3
 30
0.0
 40
0.7
  0
CIRCLE
  5
251
330
1E
100
AcDbEntity
  8
1
  6
Continuous
 62
     7
100
AcDbCircle
 10
703.2
 20
337.3
 30
0.0
 40
0.7
  0
CIRCLE
  5
252
330
1E
100
AcDbEntity
  8
1
  6
Continuous
 62
     7
100
AcDbCircle
 10
705.4
 20
337.3
 30
0.0
 40
0.7
  0
CIRCLE
  5
253
330
1E
100
AcDbEntity
  8
1
  6
Continuous
 62
     7
100
AcDbCircle
 10
707.6
 20
337.3
 30
0.0
 40
0.7
  0
CIRCLE
  5
254
330
1E
100
AcDbEntity
  8
1
  6
Continuous
 62
     7
100
AcDbCircle
 10
709.7999999999999
 20
337.3
 30
0.0
 40
0.7
  0
CIRCLE
  5
255
330
1E
100
AcDbEntity
  8
1
  6
Continuous
 62
     7
100
AcDbCircle
 10
712.0
 20
337.3
 30
0.0
 40
0.7
  0
CIRCLE
  5
256
330
1E
100
AcDbEntity
  8
1
  6
Continuous
 62
     7
100
AcDbCircle
 10
714.2
 20
337.3
 30
0.0
 40
0.7
  0
CIRCLE
  5
257
330
1E
100
AcDbEntity
  8
1
  6
Continuous
 62
     7
100
AcDbCircle
 10
716.3999999999999
 20
337.3
 30
0.0
 40
0.7
  0
CIRCLE
  5
258
330
1E
100
AcDbEntity
  8
1
  6
Continuous
 62
     7
100
AcDbCircle
 10
718.5999999999999
 20
337.3
 30
0.0
 40
0.7
  0
CIRCLE
  5
259
330
1E
100
AcDbEntity
  8
1
  6
Continuous
 62
     7
100
AcDbCircle
 10
720.7999999999999
 20
337.3
 30
0.0
 40
0.7
  0
CIRCLE
  5
25A
330
1E
100
AcDbEntity
  8
1
  6
Continuous
 62
     7
100
AcDbCircle
 10
723.0
 20
337.3
 30
0.0
 40
0.7
  0
CIRCLE
  5
25B
330
1E
100
AcDbEntity
  8
1
  6
Continuous
 62
     7
100
AcDbCircle
 10
725.2
 20
337.3
 30
0.0
 40
0.7
  0
CIRCLE
  5
25C
330
1E
100
AcDbEntity
  8
1
  6
Continuous
 62
     7
100
AcDbCircle
 10
727.4
 20
337.3
 30
0.0
 40
0.7
  0
CIRCLE
  5
25D
330
1E
100
AcDbEntity
  8
1
  6
Continuous
 62
     7
100
AcDbCircle
 10
729.6
 20
337.3
 30
0.0
 40
0.7
  0
CIRCLE
  5
25E
330
1E
100
AcDbEntity
  8
1
  6
Continuous
 62
     7
100
AcDbCircle
 10
731.7999999999999
 20
337.3
 30
0.0
 40
0.7
  0
CIRCLE
  5
25F
330
1E
100
AcDbEntity
  8
1
  6
Continuous
 62
     7
100
AcDbCircle
 10
734.0
 20
337.3
 30
0.0
 40
0.7
  0
CIRCLE
  5
260
330
1E
100
AcDbEntity
  8
1
  6
Continuous
 62
     7
100
AcDbCircle
 10
736.2
 20
337.3
 30
0.0
 40
0.7
  0
LINE
  5
261
330
1E
100
AcDbEntity
  8
1
  6
Continuous
 62
     7
100
AcDbLine
 10
781.0
 20
335.8
 30
0.0
 11
781.0
 21
334.3999999999999
 31
0.0
  0
LINE
  5
262
330
1E
100
AcDbEntity
  8
1
  6
Continuous
 62
     7
100
AcDbLine
 10
781.0
 20
334.3999999999999
 30
0.0
 11
691.0
 21
334.3999999999999
 31
0.0
  0
LINE
  5
263
330
1E
100
AcDbEntity
  8
1
  6
Continuous
 62
     7
100
AcDbLine
 10
691.0
 20
334.3999999999999
 30
0.0
 11
691.0
 21
335.8
 31
0.0
  0
LINE
  5
264
330
1E
100
AcDbEntity
  8
1
  6
Continuous
 62
     7
100
AcDbLine
 10
691.0
 20
335.8
 30
0.0
 11
781.0
 21
335.8
 31
0.0
  0
CIRCLE
  5
265
330
1E
100
AcDbEntity
  8
1
  6
Continuous
 62
     7
100
AcDbCircle
 10
694.3999999999999
 20
335.1
 30
0.0
 40
0.7
  0
CIRCLE
  5
266
330
1E
100
AcDbEntity
  8
1
  6
Continuous
 62
     7
100
AcDbCircle
 10
696.6
 20
335.1
 30
0.0
 40
0.7
  0
CIRCLE
  5
267
330
1E
100
AcDbEntity
  8
1
  6
Continuous
 62
     7
100
AcDbCircle
 10
698.7999999999999
 20
335.1
 30
0.0
 40
0.7
  0
CIRCLE
  5
268
330
1E
100
AcDbEntity
  8
1
  6
Continuous
 62
     7
100
AcDbCircle
 10
701.0
 20
335.1
 30
0.0
 40
0.7
  0
CIRCLE
  5
269
330
1E
100
AcDbEntity
  8
1
  6
Continuous
 62
     7
100
AcDbCircle
 10
703.2
 20
335.1
 30
0.0
 40
0.7
  0
CIRCLE
  5
26A
330
1E
100
AcDbEntity
  8
1
  6
Continuous
 62
     7
100
AcDbCircle
 10
705.4
 20
335.1
 30
0.0
 40
0.7
  0
CIRCLE
  5
26B
330
1E
100
AcDbEntity
  8
1
  6
Continuous
 62
     7
100
AcDbCircle
 10
707.6
 20
335.1
 30
0.0
 40
0.7
  0
CIRCLE
  5
26C
330
1E
100
AcDbEntity
  8
1
  6
Continuous
 62
     7
100
AcDbCircle
 10
709.7999999999999
 20
335.1
 30
0.0
 40
0.7
  0
CIRCLE
  5
26D
330
1E
100
AcDbEntity
  8
1
  6
Continuous
 62
     7
100
AcDbCircle
 10
712.0
 20
335.1
 30
0.0
 40
0.7
  0
CIRCLE
  5
26E
330
1E
100
AcDbEntity
  8
1
  6
Continuous
 62
     7
100
AcDbCircle
 10
714.2
 20
335.1
 30
0.0
 40
0.7
  0
CIRCLE
  5
26F
330
1E
100
AcDbEntity
  8
1
  6
Continuous
 62
     7
100
AcDbCircle
 10
716.3999999999999
 20
335.1
 30
0.0
 40
0.7
  0
CIRCLE
  5
270
330
1E
100
AcDbEntity
  8
1
  6
Continuous
 62
     7
100
AcDbCircle
 10
718.5999999999999
 20
335.1
 30
0.0
 40
0.7
  0
CIRCLE
  5
271
330
1E
100
AcDbEntity
  8
1
  6
Continuous
 62
     7
100
AcDbCircle
 10
720.7999999999999
 20
335.1
 30
0.0
 40
0.7
  0
CIRCLE
  5
272
330
1E
100
AcDbEntity
  8
1
  6
Continuous
 62
     7
100
AcDbCircle
 10
723.0
 20
335.1
 30
0.0
 40
0.7
  0
CIRCLE
  5
273
330
1E
100
AcDbEntity
  8
1
  6
Continuous
 62
     7
100
AcDbCircle
 10
725.2
 20
335.1
 30
0.0
 40
0.7
  0
CIRCLE
  5
274
330
1E
100
AcDbEntity
  8
1
  6
Continuous
 62
     7
100
AcDbCircle
 10
727.4
 20
335.1
 30
0.0
 40
0.7
  0
CIRCLE
  5
275
330
1E
100
AcDbEntity
  8
1
  6
Continuous
 62
     7
100
AcDbCircle
 10
729.6
 20
335.1
 30
0.0
 40
0.7
  0
CIRCLE
  5
276
330
1E
100
AcDbEntity
  8
1
  6
Continuous
 62
     7
100
AcDbCircle
 10
731.7999999999999
 20
335.1
 30
0.0
 40
0.7
  0
CIRCLE
  5
277
330
1E
100
AcDbEntity
  8
1
  6
Continuous
 62
     7
100
AcDbCircle
 10
734.0
 20
335.1
 30
0.0
 40
0.7
  0
CIRCLE
  5
278
330
1E
100
AcDbEntity
  8
1
  6
Continuous
 62
     7
100
AcDbCircle
 10
736.2
 20
335.1
 30
0.0
 40
0.7
  0
LINE
  5
279
330
1E
100
AcDbEntity
  8
1
  6
Continuous
 62
     7
100
AcDbLine
 10
781.0
 20
333.6
 30
0.0
 11
781.0
 21
332.2
 31
0.0
  0
LINE
  5
27A
330
1E
100
AcDbEntity
  8
1
  6
Continuous
 62
     7
100
AcDbLine
 10
781.0
 20
332.2
 30
0.0
 11
691.0
 21
332.2
 31
0.0
  0
LINE
  5
27B
330
1E
100
AcDbEntity
  8
1
  6
Continuous
 62
     7
100
AcDbLine
 10
691.0
 20
332.2
 30
0.0
 11
691.0
 21
333.6
 31
0.0
  0
LINE
  5
27C
330
1E
100
AcDbEntity
  8
1
  6
Continuous
 62
     7
100
AcDbLine
 10
691.0
 20
333.6
 30
0.0
 11
781.0
 21
333.6
 31
0.0
  0
CIRCLE
  5
27D
330
1E
100
AcDbEntity
  8
1
  6
Continuous
 62
     7
100
AcDbCircle
 10
694.3999999999999
 20
332.8999999999999
 30
0.0
 40
0.7
  0
CIRCLE
  5
27E
330
1E
100
AcDbEntity
  8
1
  6
Continuous
 62
     7
100
AcDbCircle
 10
696.6
 20
332.8999999999999
 30
0.0
 40
0.7
  0
CIRCLE
  5
27F
330
1E
100
AcDbEntity
  8
1
  6
Continuous
 62
     7
100
AcDbCircle
 10
698.7999999999999
 20
332.8999999999999
 30
0.0
 40
0.7
  0
CIRCLE
  5
280
330
1E
100
AcDbEntity
  8
1
  6
Continuous
 62
     7
100
AcDbCircle
 10
701.0
 20
332.8999999999999
 30
0.0
 40
0.7
  0
CIRCLE
  5
281
330
1E
100
AcDbEntity
  8
1
  6
Continuous
 62
     7
100
AcDbCircle
 10
703.2
 20
332.8999999999999
 30
0.0
 40
0.7
  0
CIRCLE
  5
282
330
1E
100
AcDbEntity
  8
1
  6
Continuous
 62
     7
100
AcDbCircle
 10
705.4
 20
332.8999999999999
 30
0.0
 40
0.7
  0
CIRCLE
  5
283
330
1E
100
AcDbEntity
  8
1
  6
Continuous
 62
     7
100
AcDbCircle
 10
707.6
 20
332.8999999999999
 30
0.0
 40
0.7
  0
CIRCLE
  5
284
330
1E
100
AcDbEntity
  8
1
  6
Continuous
 62
     7
100
AcDbCircle
 10
709.7999999999999
 20
332.8999999999999
 30
0.0
 40
0.7
  0
CIRCLE
  5
285
330
1E
100
AcDbEntity
  8
1
  6
Continuous
 62
     7
100
AcDbCircle
 10
712.0
 20
332.8999999999999
 30
0.0
 40
0.7
  0
CIRCLE
  5
286
330
1E
100
AcDbEntity
  8
1
  6
Continuous
 62
     7
100
AcDbCircle
 10
714.2
 20
332.8999999999999
 30
0.0
 40
0.7
  0
CIRCLE
  5
287
330
1E
100
AcDbEntity
  8
1
  6
Continuous
 62
     7
100
AcDbCircle
 10
716.3999999999999
 20
332.8999999999999
 30
0.0
 40
0.7
  0
CIRCLE
  5
288
330
1E
100
AcDbEntity
  8
1
  6
Continuous
 62
     7
100
AcDbCircle
 10
718.5999999999999
 20
332.8999999999999
 30
0.0
 40
0.7
  0
CIRCLE
  5
289
330
1E
100
AcDbEntity
  8
1
  6
Continuous
 62
     7
100
AcDbCircle
 10
720.7999999999999
 20
332.8999999999999
 30
0.0
 40
0.7
  0
CIRCLE
  5
28A
330
1E
100
AcDbEntity
  8
1
  6
Continuous
 62
     7
100
AcDbCircle
 10
723.0
 20
332.8999999999999
 30
0.0
 40
0.7
  0
CIRCLE
  5
28B
330
1E
100
AcDbEntity
  8
1
  6
Continuous
 62
     7
100
AcDbCircle
 10
725.2
 20
332.8999999999999
 30
0.0
 40
0.7
  0
CIRCLE
  5
28C
330
1E
100
AcDbEntity
  8
1
  6
Continuous
 62
     7
100
AcDbCircle
 10
727.4
 20
332.8999999999999
 30
0.0
 40
0.7
  0
CIRCLE
  5
28D
330
1E
100
AcDbEntity
  8
1
  6
Continuous
 62
     7
100
AcDbCircle
 10
729.6
 20
332.8999999999999
 30
0.0
 40
0.7
  0
CIRCLE
  5
28E
330
1E
100
AcDbEntity
  8
1
  6
Continuous
 62
     7
100
AcDbCircle
 10
731.7999999999999
 20
332.8999999999999
 30
0.0
 40
0.7
  0
CIRCLE
  5
28F
330
1E
100
AcDbEntity
  8
1
  6
Continuous
 62
     7
100
AcDbCircle
 10
734.0
 20
332.8999999999999
 30
0.0
 40
0.7
  0
CIRCLE
  5
290
330
1E
100
AcDbEntity
  8
1
  6
Continuous
 62
     7
100
AcDbCircle
 10
736.2
 20
332.8999999999999
 30
0.0
 40
0.7
  0
LINE
  5
291
330
1E
100
AcDbEntity
  8
1
  6
Continuous
 62
     7
100
AcDbLine
 10
781.0
 20
331.4
 30
0.0
 11
781.0
 21
330.0
 31
0.0
  0
LINE
  5
292
330
1E
100
AcDbEntity
  8
1
  6
Continuous
 62
     7
100
AcDbLine
 10
781.0
 20
330.0
 30
0.0
 11
691.0
 21
330.0
 31
0.0
  0
LINE
  5
293
330
1E
100
AcDbEntity
  8
1
  6
Continuous
 62
     7
100
AcDbLine
 10
691.0
 20
330.0
 30
0.0
 11
691.0
 21
331.4
 31
0.0
  0
LINE
  5
294
330
1E
100
AcDbEntity
  8
1
  6
Continuous
 62
     7
100
AcDbLine
 10
691.0
 20
331.4
 30
0.0
 11
781.0
 21
331.4
 31
0.0
  0
CIRCLE
  5
295
330
1E
100
AcDbEntity
  8
1
  6
Continuous
 62
     7
100
AcDbCircle
 10
694.3999999999999
 20
330.6999999999999
 30
0.0
 40
0.7
  0
CIRCLE
  5
296
330
1E
100
AcDbEntity
  8
1
  6
Continuous
 62
     7
100
AcDbCircle
 10
696.6
 20
330.6999999999999
 30
0.0
 40
0.7
  0
CIRCLE
  5
297
330
1E
100
AcDbEntity
  8
1
  6
Continuous
 62
     7
100
AcDbCircle
 10
698.7999999999999
 20
330.6999999999999
 30
0.0
 40
0.7
  0
CIRCLE
  5
298
330
1E
100
AcDbEntity
  8
1
  6
Continuous
 62
     7
100
AcDbCircle
 10
701.0
 20
330.6999999999999
 30
0.0
 40
0.7
  0
CIRCLE
  5
299
330
1E
100
AcDbEntity
  8
1
  6
Continuous
 62
     7
100
AcDbCircle
 10
703.2
 20
330.6999999999999
 30
0.0
 40
0.7
  0
CIRCLE
  5
29A
330
1E
100
AcDbEntity
  8
1
  6
Continuous
 62
     7
100
AcDbCircle
 10
705.4
 20
330.6999999999999
 30
0.0
 40
0.7
  0
CIRCLE
  5
29B
330
1E
100
AcDbEntity
  8
1
  6
Continuous
 62
     7
100
AcDbCircle
 10
707.6
 20
330.6999999999999
 30
0.0
 40
0.7
  0
CIRCLE
  5
29C
330
1E
100
AcDbEntity
  8
1
  6
Continuous
 62
     7
100
AcDbCircle
 10
709.7999999999999
 20
330.6999999999999
 30
0.0
 40
0.7
  0
CIRCLE
  5
29D
330
1E
100
AcDbEntity
  8
1
  6
Continuous
 62
     7
100
AcDbCircle
 10
712.0
 20
330.6999999999999
 30
0.0
 40
0.7
  0
CIRCLE
  5
29E
330
1E
100
AcDbEntity
  8
1
  6
Continuous
 62
     7
100
AcDbCircle
 10
714.2
 20
330.6999999999999
 30
0.0
 40
0.7
  0
CIRCLE
  5
29F
330
1E
100
AcDbEntity
  8
1
  6
Continuous
 62
     7
100
AcDbCircle
 10
716.3999999999999
 20
330.6999999999999
 30
0.0
 40
0.7
  0
CIRCLE
  5
2A0
330
1E
100
AcDbEntity
  8
1
  6
Continuous
 62
     7
100
AcDbCircle
 10
718.5999999999999
 20
330.6999999999999
 30
0.0
 40
0.7
  0
CIRCLE
  5
2A1
330
1E
100
AcDbEntity
  8
1
  6
Continuous
 62
     7
100
AcDbCircle
 10
720.7999999999999
 20
330.6999999999999
 30
0.0
 40
0.7
  0
CIRCLE
  5
2A2
330
1E
100
AcDbEntity
  8
1
  6
Continuous
 62
     7
100
AcDbCircle
 10
723.0
 20
330.6999999999999
 30
0.0
 40
0.7
  0
CIRCLE
  5
2A3
330
1E
100
AcDbEntity
  8
1
  6
Continuous
 62
     7
100
AcDbCircle
 10
725.2
 20
330.6999999999999
 30
0.0
 40
0.7
  0
CIRCLE
  5
2A4
330
1E
100
AcDbEntity
  8
1
  6
Continuous
 62
     7
100
AcDbCircle
 10
727.4
 20
330.6999999999999
 30
0.0
 40
0.7
  0
CIRCLE
  5
2A5
330
1E
100
AcDbEntity
  8
1
  6
Continuous
 62
     7
100
AcDbCircle
 10
729.6
 20
330.6999999999999
 30
0.0
 40
0.7
  0
CIRCLE
  5
2A6
330
1E
100
AcDbEntity
  8
1
  6
Continuous
 62
     7
100
AcDbCircle
 10
731.7999999999999
 20
330.6999999999999
 30
0.0
 40
0.7
  0
CIRCLE
  5
2A7
330
1E
100
AcDbEntity
  8
1
  6
Continuous
 62
     7
100
AcDbCircle
 10
734.0
 20
330.6999999999999
 30
0.0
 40
0.7
  0
CIRCLE
  5
2A8
330
1E
100
AcDbEntity
  8
1
  6
Continuous
 62
     7
100
AcDbCircle
 10
736.2
 20
330.6999999999999
 30
0.0
 40
0.7
  0
LINE
  5
2A9
330
1E
100
AcDbEntity
  8
1
  6
Continuous
 62
     7
100
AcDbLine
 10
781.0
 20
329.1999999999999
 30
0.0
 11
781.0
 21
327.8
 31
0.0
  0
LINE
  5
2AA
330
1E
100
AcDbEntity
  8
1
  6
Continuous
 62
     7
100
AcDbLine
 10
781.0
 20
327.8
 30
0.0
 11
691.0
 21
327.8
 31
0.0
  0
LINE
  5
2AB
330
1E
100
AcDbEntity
  8
1
  6
Continuous
 62
     7
100
AcDbLine
 10
691.0
 20
327.8
 30
0.0
 11
691.0
 21
329.1999999999999
 31
0.0
  0
LINE
  5
2AC
330
1E
100
AcDbEntity
  8
1
  6
Continuous
 62
     7
100
AcDbLine
 10
691.0
 20
329.1999999999999
 30
0.0
 11
781.0
 21
329.1999999999999
 31
0.0
  0
CIRCLE
  5
2AD
330
1E
100
AcDbEntity
  8
1
  6
Continuous
 62
     7
100
AcDbCircle
 10
694.3999999999999
 20
328.5
 30
0.0
 40
0.7
  0
CIRCLE
  5
2AE
330
1E
100
AcDbEntity
  8
1
  6
Continuous
 62
     7
100
AcDbCircle
 10
696.6
 20
328.5
 30
0.0
 40
0.7
  0
CIRCLE
  5
2AF
330
1E
100
AcDbEntity
  8
1
  6
Continuous
 62
     7
100
AcDbCircle
 10
698.7999999999999
 20
328.5
 30
0.0
 40
0.7
  0
CIRCLE
  5
2B0
330
1E
100
AcDbEntity
  8
1
  6
Continuous
 62
     7
100
AcDbCircle
 10
701.0
 20
328.5
 30
0.0
 40
0.7
  0
CIRCLE
  5
2B1
330
1E
100
AcDbEntity
  8
1
  6
Continuous
 62
     7
100
AcDbCircle
 10
703.2
 20
328.5
 30
0.0
 40
0.7
  0
CIRCLE
  5
2B2
330
1E
100
AcDbEntity
  8
1
  6
Continuous
 62
     7
100
AcDbCircle
 10
705.4
 20
328.5
 30
0.0
 40
0.7
  0
CIRCLE
  5
2B3
330
1E
100
AcDbEntity
  8
1
  6
Continuous
 62
     7
100
AcDbCircle
 10
707.6
 20
328.5
 30
0.0
 40
0.7
  0
CIRCLE
  5
2B4
330
1E
100
AcDbEntity
  8
1
  6
Continuous
 62
     7
100
AcDbCircle
 10
709.7999999999999
 20
328.5
 30
0.0
 40
0.7
  0
CIRCLE
  5
2B5
330
1E
100
AcDbEntity
  8
1
  6
Continuous
 62
     7
100
AcDbCircle
 10
712.0
 20
328.5
 30
0.0
 40
0.7
  0
CIRCLE
  5
2B6
330
1E
100
AcDbEntity
  8
1
  6
Continuous
 62
     7
100
AcDbCircle
 10
714.2
 20
328.5
 30
0.0
 40
0.7
  0
CIRCLE
  5
2B7
330
1E
100
AcDbEntity
  8
1
  6
Continuous
 62
     7
100
AcDbCircle
 10
716.3999999999999
 20
328.5
 30
0.0
 40
0.7
  0
CIRCLE
  5
2B8
330
1E
100
AcDbEntity
  8
1
  6
Continuous
 62
     7
100
AcDbCircle
 10
718.5999999999999
 20
328.5
 30
0.0
 40
0.7
  0
CIRCLE
  5
2B9
330
1E
100
AcDbEntity
  8
1
  6
Continuous
 62
     7
100
AcDbCircle
 10
720.7999999999999
 20
328.5
 30
0.0
 40
0.7
  0
CIRCLE
  5
2BA
330
1E
100
AcDbEntity
  8
1
  6
Continuous
 62
     7
100
AcDbCircle
 10
723.0
 20
328.5
 30
0.0
 40
0.7
  0
CIRCLE
  5
2BB
330
1E
100
AcDbEntity
  8
1
  6
Continuous
 62
     7
100
AcDbCircle
 10
725.2
 20
328.5
 30
0.0
 40
0.7
  0
CIRCLE
  5
2BC
330
1E
100
AcDbEntity
  8
1
  6
Continuous
 62
     7
100
AcDbCircle
 10
727.4
 20
328.5
 30
0.0
 40
0.7
  0
CIRCLE
  5
2BD
330
1E
100
AcDbEntity
  8
1
  6
Continuous
 62
     7
100
AcDbCircle
 10
729.6
 20
328.5
 30
0.0
 40
0.7
  0
CIRCLE
  5
2BE
330
1E
100
AcDbEntity
  8
1
  6
Continuous
 62
     7
100
AcDbCircle
 10
731.7999999999999
 20
328.5
 30
0.0
 40
0.7
  0
CIRCLE
  5
2BF
330
1E
100
AcDbEntity
  8
1
  6
Continuous
 62
     7
100
AcDbCircle
 10
734.0
 20
328.5
 30
0.0
 40
0.7
  0
CIRCLE
  5
2C0
330
1E
100
AcDbEntity
  8
1
  6
Continuous
 62
     7
100
AcDbCircle
 10
736.2
 20
328.5
 30
0.0
 40
0.7
  0
LINE
  5
2C1
330
1E
100
AcDbEntity
  8
1
  6
Continuous
 62
     7
100
AcDbLine
 10
781.0
 20
327.0
 30
0.0
 11
781.0
 21
325.6
 31
0.0
  0
LINE
  5
2C2
330
1E
100
AcDbEntity
  8
1
  6
Continuous
 62
     7
100
AcDbLine
 10
781.0
 20
325.6
 30
0.0
 11
691.0
 21
325.6
 31
0.0
  0
LINE
  5
2C3
330
1E
100
AcDbEntity
  8
1
  6
Continuous
 62
     7
100
AcDbLine
 10
691.0
 20
325.6
 30
0.0
 11
691.0
 21
327.0
 31
0.0
  0
LINE
  5
2C4
330
1E
100
AcDbEntity
  8
1
  6
Continuous
 62
     7
100
AcDbLine
 10
691.0
 20
327.0
 30
0.0
 11
781.0
 21
327.0
 31
0.0
  0
CIRCLE
  5
2C5
330
1E
100
AcDbEntity
  8
1
  6
Continuous
 62
     7
100
AcDbCircle
 10
694.3999999999999
 20
326.3
 30
0.0
 40
0.7
  0
CIRCLE
  5
2C6
330
1E
100
AcDbEntity
  8
1
  6
Continuous
 62
     7
100
AcDbCircle
 10
696.6
 20
326.3
 30
0.0
 40
0.7
  0
CIRCLE
  5
2C7
330
1E
100
AcDbEntity
  8
1
  6
Continuous
 62
     7
100
AcDbCircle
 10
698.7999999999999
 20
326.3
 30
0.0
 40
0.7
  0
CIRCLE
  5
2C8
330
1E
100
AcDbEntity
  8
1
  6
Continuous
 62
     7
100
AcDbCircle
 10
701.0
 20
326.3
 30
0.0
 40
0.7
  0
CIRCLE
  5
2C9
330
1E
100
AcDbEntity
  8
1
  6
Continuous
 62
     7
100
AcDbCircle
 10
703.2
 20
326.3
 30
0.0
 40
0.7
  0
CIRCLE
  5
2CA
330
1E
100
AcDbEntity
  8
1
  6
Continuous
 62
     7
100
AcDbCircle
 10
705.4
 20
326.3
 30
0.0
 40
0.7
  0
CIRCLE
  5
2CB
330
1E
100
AcDbEntity
  8
1
  6
Continuous
 62
     7
100
AcDbCircle
 10
707.6
 20
326.3
 30
0.0
 40
0.7
  0
CIRCLE
  5
2CC
330
1E
100
AcDbEntity
  8
1
  6
Continuous
 62
     7
100
AcDbCircle
 10
709.7999999999999
 20
326.3
 30
0.0
 40
0.7
  0
CIRCLE
  5
2CD
330
1E
100
AcDbEntity
  8
1
  6
Continuous
 62
     7
100
AcDbCircle
 10
712.0
 20
326.3
 30
0.0
 40
0.7
  0
CIRCLE
  5
2CE
330
1E
100
AcDbEntity
  8
1
  6
Continuous
 62
     7
100
AcDbCircle
 10
714.2
 20
326.3
 30
0.0
 40
0.7
  0
CIRCLE
  5
2CF
330
1E
100
AcDbEntity
  8
1
  6
Continuous
 62
     7
100
AcDbCircle
 10
716.3999999999999
 20
326.3
 30
0.0
 40
0.7
  0
CIRCLE
  5
2D0
330
1E
100
AcDbEntity
  8
1
  6
Continuous
 62
     7
100
AcDbCircle
 10
718.5999999999999
 20
326.3
 30
0.0
 40
0.7
  0
CIRCLE
  5
2D1
330
1E
100
AcDbEntity
  8
1
  6
Continuous
 62
     7
100
AcDbCircle
 10
720.7999999999999
 20
326.3
 30
0.0
 40
0.7
  0
CIRCLE
  5
2D2
330
1E
100
AcDbEntity
  8
1
  6
Continuous
 62
     7
100
AcDbCircle
 10
723.0
 20
326.3
 30
0.0
 40
0.7
  0
CIRCLE
  5
2D3
330
1E
100
AcDbEntity
  8
1
  6
Continuous
 62
     7
100
AcDbCircle
 10
725.2
 20
326.3
 30
0.0
 40
0.7
  0
CIRCLE
  5
2D4
330
1E
100
AcDbEntity
  8
1
  6
Continuous
 62
     7
100
AcDbCircle
 10
727.4
 20
326.3
 30
0.0
 40
0.7
  0
CIRCLE
  5
2D5
330
1E
100
AcDbEntity
  8
1
  6
Continuous
 62
     7
100
AcDbCircle
 10
729.6
 20
326.3
 30
0.0
 40
0.7
  0
CIRCLE
  5
2D6
330
1E
100
AcDbEntity
  8
1
  6
Continuous
 62
     7
100
AcDbCircle
 10
731.7999999999999
 20
326.3
 30
0.0
 40
0.7
  0
CIRCLE
  5
2D7
330
1E
100
AcDbEntity
  8
1
  6
Continuous
 62
     7
100
AcDbCircle
 10
734.0
 20
326.3
 30
0.0
 40
0.7
  0
CIRCLE
  5
2D8
330
1E
100
AcDbEntity
  8
1
  6
Continuous
 62
     7
100
AcDbCircle
 10
736.2
 20
326.3
 30
0.0
 40
0.7
  0
LINE
  5
2D9
330
1E
100
AcDbEntity
  8
1
  6
Continuous
 62
     7
100
AcDbLine
 10
781.0
 20
324.8
 30
0.0
 11
781.0
 21
323.3999999999999
 31
0.0
  0
LINE
  5
2DA
330
1E
100
AcDbEntity
  8
1
  6
Continuous
 62
     7
100
AcDbLine
 10
781.0
 20
323.3999999999999
 30
0.0
 11
691.0
 21
323.3999999999999
 31
0.0
  0
LINE
  5
2DB
330
1E
100
AcDbEntity
  8
1
  6
Continuous
 62
     7
100
AcDbLine
 10
691.0
 20
323.3999999999999
 30
0.0
 11
691.0
 21
324.8
 31
0.0
  0
LINE
  5
2DC
330
1E
100
AcDbEntity
  8
1
  6
Continuous
 62
     7
100
AcDbLine
 10
691.0
 20
324.8
 30
0.0
 11
781.0
 21
324.8
 31
0.0
  0
CIRCLE
  5
2DD
330
1E
100
AcDbEntity
  8
1
  6
Continuous
 62
     7
100
AcDbCircle
 10
694.3999999999999
 20
324.1
 30
0.0
 40
0.7
  0
CIRCLE
  5
2DE
330
1E
100
AcDbEntity
  8
1
  6
Continuous
 62
     7
100
AcDbCircle
 10
696.6
 20
324.1
 30
0.0
 40
0.7
  0
CIRCLE
  5
2DF
330
1E
100
AcDbEntity
  8
1
  6
Continuous
 62
     7
100
AcDbCircle
 10
698.7999999999999
 20
324.1
 30
0.0
 40
0.7
  0
CIRCLE
  5
2E0
330
1E
100
AcDbEntity
  8
1
  6
Continuous
 62
     7
100
AcDbCircle
 10
701.0
 20
324.1
 30
0.0
 40
0.7
  0
CIRCLE
  5
2E1
330
1E
100
AcDbEntity
  8
1
  6
Continuous
 62
     7
100
AcDbCircle
 10
703.2
 20
324.1
 30
0.0
 40
0.7
  0
CIRCLE
  5
2E2
330
1E
100
AcDbEntity
  8
1
  6
Continuous
 62
     7
100
AcDbCircle
 10
705.4
 20
324.1
 30
0.0
 40
0.7
  0
CIRCLE
  5
2E3
330
1E
100
AcDbEntity
  8
1
  6
Continuous
 62
     7
100
AcDbCircle
 10
707.6
 20
324.1
 30
0.0
 40
0.7
  0
CIRCLE
  5
2E4
330
1E
100
AcDbEntity
  8
1
  6
Continuous
 62
     7
100
AcDbCircle
 10
709.7999999999999
 20
324.1
 30
0.0
 40
0.7
  0
CIRCLE
  5
2E5
330
1E
100
AcDbEntity
  8
1
  6
Continuous
 62
     7
100
AcDbCircle
 10
712.0
 20
324.1
 30
0.0
 40
0.7
  0
CIRCLE
  5
2E6
330
1E
100
AcDbEntity
  8
1
  6
Continuous
 62
     7
100
AcDbCircle
 10
714.2
 20
324.1
 30
0.0
 40
0.7
  0
CIRCLE
  5
2E7
330
1E
100
AcDbEntity
  8
1
  6
Continuous
 62
     7
100
AcDbCircle
 10
716.3999999999999
 20
324.1
 30
0.0
 40
0.7
  0
CIRCLE
  5
2E8
330
1E
100
AcDbEntity
  8
1
  6
Continuous
 62
     7
100
AcDbCircle
 10
718.5999999999999
 20
324.1
 30
0.0
 40
0.7
  0
CIRCLE
  5
2E9
330
1E
100
AcDbEntity
  8
1
  6
Continuous
 62
     7
100
AcDbCircle
 10
720.7999999999999
 20
324.1
 30
0.0
 40
0.7
  0
CIRCLE
  5
2EA
330
1E
100
AcDbEntity
  8
1
  6
Continuous
 62
     7
100
AcDbCircle
 10
723.0
 20
324.1
 30
0.0
 40
0.7
  0
CIRCLE
  5
2EB
330
1E
100
AcDbEntity
  8
1
  6
Continuous
 62
     7
100
AcDbCircle
 10
725.2
 20
324.1
 30
0.0
 40
0.7
  0
CIRCLE
  5
2EC
330
1E
100
AcDbEntity
  8
1
  6
Continuous
 62
     7
100
AcDbCircle
 10
727.4
 20
324.1
 30
0.0
 40
0.7
  0
CIRCLE
  5
2ED
330
1E
100
AcDbEntity
  8
1
  6
Continuous
 62
     7
100
AcDbCircle
 10
729.6
 20
324.1
 30
0.0
 40
0.7
  0
CIRCLE
  5
2EE
330
1E
100
AcDbEntity
  8
1
  6
Continuous
 62
     7
100
AcDbCircle
 10
731.7999999999999
 20
324.1
 30
0.0
 40
0.7
  0
CIRCLE
  5
2EF
330
1E
100
AcDbEntity
  8
1
  6
Continuous
 62
     7
100
AcDbCircle
 10
734.0
 20
324.1
 30
0.0
 40
0.7
  0
CIRCLE
  5
2F0
330
1E
100
AcDbEntity
  8
1
  6
Continuous
 62
     7
100
AcDbCircle
 10
736.2
 20
324.1
 30
0.0
 40
0.7
  0
LINE
  5
2F1
330
1E
100
AcDbEntity
  8
1
  6
Continuous
 62
     7
100
AcDbLine
 10
781.0
 20
322.6
 30
0.0
 11
781.0
 21
321.1999999999999
 31
0.0
  0
LINE
  5
2F2
330
1E
100
AcDbEntity
  8
1
  6
Continuous
 62
     7
100
AcDbLine
 10
781.0
 20
321.1999999999999
 30
0.0
 11
691.0
 21
321.1999999999999
 31
0.0
  0
LINE
  5
2F3
330
1E
100
AcDbEntity
  8
1
  6
Continuous
 62
     7
100
AcDbLine
 10
691.0
 20
321.1999999999999
 30
0.0
 11
691.0
 21
322.6
 31
0.0
  0
LINE
  5
2F4
330
1E
100
AcDbEntity
  8
1
  6
Continuous
 62
     7
100
AcDbLine
 10
691.0
 20
322.6
 30
0.0
 11
781.0
 21
322.6
 31
0.0
  0
CIRCLE
  5
2F5
330
1E
100
AcDbEntity
  8
1
  6
Continuous
 62
     7
100
AcDbCircle
 10
694.3999999999999
 20
321.8999999999999
 30
0.0
 40
0.7
  0
CIRCLE
  5
2F6
330
1E
100
AcDbEntity
  8
1
  6
Continuous
 62
     7
100
AcDbCircle
 10
696.6
 20
321.8999999999999
 30
0.0
 40
0.7
  0
CIRCLE
  5
2F7
330
1E
100
AcDbEntity
  8
1
  6
Continuous
 62
     7
100
AcDbCircle
 10
698.7999999999999
 20
321.8999999999999
 30
0.0
 40
0.7
  0
CIRCLE
  5
2F8
330
1E
100
AcDbEntity
  8
1
  6
Continuous
 62
     7
100
AcDbCircle
 10
701.0
 20
321.8999999999999
 30
0.0
 40
0.7
  0
CIRCLE
  5
2F9
330
1E
100
AcDbEntity
  8
1
  6
Continuous
 62
     7
100
AcDbCircle
 10
703.2
 20
321.8999999999999
 30
0.0
 40
0.7
  0
CIRCLE
  5
2FA
330
1E
100
AcDbEntity
  8
1
  6
Continuous
 62
     7
100
AcDbCircle
 10
705.4
 20
321.8999999999999
 30
0.0
 40
0.7
  0
CIRCLE
  5
2FB
330
1E
100
AcDbEntity
  8
1
  6
Continuous
 62
     7
100
AcDbCircle
 10
707.6
 20
321.8999999999999
 30
0.0
 40
0.7
  0
CIRCLE
  5
2FC
330
1E
100
AcDbEntity
  8
1
  6
Continuous
 62
     7
100
AcDbCircle
 10
709.7999999999999
 20
321.8999999999999
 30
0.0
 40
0.7
  0
CIRCLE
  5
2FD
330
1E
100
AcDbEntity
  8
1
  6
Continuous
 62
     7
100
AcDbCircle
 10
712.0
 20
321.8999999999999
 30
0.0
 40
0.7
  0
CIRCLE
  5
2FE
330
1E
100
AcDbEntity
  8
1
  6
Continuous
 62
     7
100
AcDbCircle
 10
714.2
 20
321.8999999999999
 30
0.0
 40
0.7
  0
CIRCLE
  5
2FF
330
1E
100
AcDbEntity
  8
1
  6
Continuous
 62
     7
100
AcDbCircle
 10
716.3999999999999
 20
321.8999999999999
 30
0.0
 40
0.7
  0
CIRCLE
  5
300
330
1E
100
AcDbEntity
  8
1
  6
Continuous
 62
     7
100
AcDbCircle
 10
718.5999999999999
 20
321.8999999999999
 30
0.0
 40
0.7
  0
CIRCLE
  5
301
330
1E
100
AcDbEntity
  8
1
  6
Continuous
 62
     7
100
AcDbCircle
 10
720.7999999999999
 20
321.8999999999999
 30
0.0
 40
0.7
  0
CIRCLE
  5
302
330
1E
100
AcDbEntity
  8
1
  6
Continuous
 62
     7
100
AcDbCircle
 10
723.0
 20
321.8999999999999
 30
0.0
 40
0.7
  0
CIRCLE
  5
303
330
1E
100
AcDbEntity
  8
1
  6
Continuous
 62
     7
100
AcDbCircle
 10
725.2
 20
321.8999999999999
 30
0.0
 40
0.7
  0
CIRCLE
  5
304
330
1E
100
AcDbEntity
  8
1
  6
Continuous
 62
     7
100
AcDbCircle
 10
727.4
 20
321.8999999999999
 30
0.0
 40
0.7
  0
CIRCLE
  5
305
330
1E
100
AcDbEntity
  8
1
  6
Continuous
 62
     7
100
AcDbCircle
 10
729.6
 20
321.8999999999999
 30
0.0
 40
0.7
  0
CIRCLE
  5
306
330
1E
100
AcDbEntity
  8
1
  6
Continuous
 62
     7
100
AcDbCircle
 10
731.7999999999999
 20
321.8999999999999
 30
0.0
 40
0.7
  0
CIRCLE
  5
307
330
1E
100
AcDbEntity
  8
1
  6
Continuous
 62
     7
100
AcDbCircle
 10
734.0
 20
321.8999999999999
 30
0.0
 40
0.7
  0
CIRCLE
  5
308
330
1E
100
AcDbEntity
  8
1
  6
Continuous
 62
     7
100
AcDbCircle
 10
736.2
 20
321.8999999999999
 30
0.0
 40
0.7
  0
LINE
  5
309
330
1E
100
AcDbEntity
  8
1
  6
Continuous
 62
     7
100
AcDbLine
 10
781.0
 20
320.3999999999999
 30
0.0
 11
781.0
 21
319.0
 31
0.0
  0
LINE
  5
30A
330
1E
100
AcDbEntity
  8
1
  6
Continuous
 62
     7
100
AcDbLine
 10
781.0
 20
319.0
 30
0.0
 11
691.0
 21
319.0
 31
0.0
  0
LINE
  5
30B
330
1E
100
AcDbEntity
  8
1
  6
Continuous
 62
     7
100
AcDbLine
 10
691.0
 20
319.0
 30
0.0
 11
691.0
 21
320.3999999999999
 31
0.0
  0
LINE
  5
30C
330
1E
100
AcDbEntity
  8
1
  6
Continuous
 62
     7
100
AcDbLine
 10
691.0
 20
320.3999999999999
 30
0.0
 11
781.0
 21
320.3999999999999
 31
0.0
  0
CIRCLE
  5
30D
330
1E
100
AcDbEntity
  8
1
  6
Continuous
 62
     7
100
AcDbCircle
 10
694.3999999999999
 20
319.7
 30
0.0
 40
0.7
  0
CIRCLE
  5
30E
330
1E
100
AcDbEntity
  8
1
  6
Continuous
 62
     7
100
AcDbCircle
 10
696.6
 20
319.7
 30
0.0
 40
0.7
  0
CIRCLE
  5
30F
330
1E
100
AcDbEntity
  8
1
  6
Continuous
 62
     7
100
AcDbCircle
 10
698.7999999999999
 20
319.7
 30
0.0
 40
0.7
  0
CIRCLE
  5
310
330
1E
100
AcDbEntity
  8
1
  6
Continuous
 62
     7
100
AcDbCircle
 10
701.0
 20
319.7
 30
0.0
 40
0.7
  0
CIRCLE
  5
311
330
1E
100
AcDbEntity
  8
1
  6
Continuous
 62
     7
100
AcDbCircle
 10
703.2
 20
319.7
 30
0.0
 40
0.7
  0
CIRCLE
  5
312
330
1E
100
AcDbEntity
  8
1
  6
Continuous
 62
     7
100
AcDbCircle
 10
705.4
 20
319.7
 30
0.0
 40
0.7
  0
CIRCLE
  5
313
330
1E
100
AcDbEntity
  8
1
  6
Continuous
 62
     7
100
AcDbCircle
 10
707.6
 20
319.7
 30
0.0
 40
0.7
  0
CIRCLE
  5
314
330
1E
100
AcDbEntity
  8
1
  6
Continuous
 62
     7
100
AcDbCircle
 10
709.7999999999999
 20
319.7
 30
0.0
 40
0.7
  0
CIRCLE
  5
315
330
1E
100
AcDbEntity
  8
1
  6
Continuous
 62
     7
100
AcDbCircle
 10
712.0
 20
319.7
 30
0.0
 40
0.7
  0
CIRCLE
  5
316
330
1E
100
AcDbEntity
  8
1
  6
Continuous
 62
     7
100
AcDbCircle
 10
714.2
 20
319.7
 30
0.0
 40
0.7
  0
CIRCLE
  5
317
330
1E
100
AcDbEntity
  8
1
  6
Continuous
 62
     7
100
AcDbCircle
 10
716.3999999999999
 20
319.7
 30
0.0
 40
0.7
  0
CIRCLE
  5
318
330
1E
100
AcDbEntity
  8
1
  6
Continuous
 62
     7
100
AcDbCircle
 10
718.5999999999999
 20
319.7
 30
0.0
 40
0.7
  0
CIRCLE
  5
319
330
1E
100
AcDbEntity
  8
1
  6
Continuous
 62
     7
100
AcDbCircle
 10
720.7999999999999
 20
319.7
 30
0.0
 40
0.7
  0
CIRCLE
  5
31A
330
1E
100
AcDbEntity
  8
1
  6
Continuous
 62
     7
100
AcDbCircle
 10
723.0
 20
319.7
 30
0.0
 40
0.7
  0
CIRCLE
  5
31B
330
1E
100
AcDbEntity
  8
1
  6
Continuous
 62
     7
100
AcDbCircle
 10
725.2
 20
319.7
 30
0.0
 40
0.7
  0
CIRCLE
  5
31C
330
1E
100
AcDbEntity
  8
1
  6
Continuous
 62
     7
100
AcDbCircle
 10
727.4
 20
319.7
 30
0.0
 40
0.7
  0
CIRCLE
  5
31D
330
1E
100
AcDbEntity
  8
1
  6
Continuous
 62
     7
100
AcDbCircle
 10
729.6
 20
319.7
 30
0.0
 40
0.7
  0
CIRCLE
  5
31E
330
1E
100
AcDbEntity
  8
1
  6
Continuous
 62
     7
100
AcDbCircle
 10
731.7999999999999
 20
319.7
 30
0.0
 40
0.7
  0
CIRCLE
  5
31F
330
1E
100
AcDbEntity
  8
1
  6
Continuous
 62
     7
100
AcDbCircle
 10
734.0
 20
319.7
 30
0.0
 40
0.7
  0
CIRCLE
  5
320
330
1E
100
AcDbEntity
  8
1
  6
Continuous
 62
     7
100
AcDbCircle
 10
736.2
 20
319.7
 30
0.0
 40
0.7
  0
LINE
  5
321
330
1E
100
AcDbEntity
  8
1
  6
Continuous
 62
     7
100
AcDbLine
 10
781.0
 20
318.1999999999999
 30
0.0
 11
781.0
 21
316.8
 31
0.0
  0
LINE
  5
322
330
1E
100
AcDbEntity
  8
1
  6
Continuous
 62
     7
100
AcDbLine
 10
781.0
 20
316.8
 30
0.0
 11
691.0
 21
316.8
 31
0.0
  0
LINE
  5
323
330
1E
100
AcDbEntity
  8
1
  6
Continuous
 62
     7
100
AcDbLine
 10
691.0
 20
316.8
 30
0.0
 11
691.0
 21
318.1999999999999
 31
0.0
  0
LINE
  5
324
330
1E
100
AcDbEntity
  8
1
  6
Continuous
 62
     7
100
AcDbLine
 10
691.0
 20
318.1999999999999
 30
0.0
 11
781.0
 21
318.1999999999999
 31
0.0
  0
CIRCLE
  5
325
330
1E
100
AcDbEntity
  8
1
  6
Continuous
 62
     7
100
AcDbCircle
 10
694.3999999999999
 20
317.5
 30
0.0
 40
0.7
  0
CIRCLE
  5
326
330
1E
100
AcDbEntity
  8
1
  6
Continuous
 62
     7
100
AcDbCircle
 10
696.6
 20
317.5
 30
0.0
 40
0.7
  0
CIRCLE
  5
327
330
1E
100
AcDbEntity
  8
1
  6
Continuous
 62
     7
100
AcDbCircle
 10
698.7999999999999
 20
317.5
 30
0.0
 40
0.7
  0
CIRCLE
  5
328
330
1E
100
AcDbEntity
  8
1
  6
Continuous
 62
     7
100
AcDbCircle
 10
701.0
 20
317.5
 30
0.0
 40
0.7
  0
CIRCLE
  5
329
330
1E
100
AcDbEntity
  8
1
  6
Continuous
 62
     7
100
AcDbCircle
 10
703.2
 20
317.5
 30
0.0
 40
0.7
  0
CIRCLE
  5
32A
330
1E
100
AcDbEntity
  8
1
  6
Continuous
 62
     7
100
AcDbCircle
 10
705.4
 20
317.5
 30
0.0
 40
0.7
  0
CIRCLE
  5
32B
330
1E
100
AcDbEntity
  8
1
  6
Continuous
 62
     7
100
AcDbCircle
 10
707.6
 20
317.5
 30
0.0
 40
0.7
  0
CIRCLE
  5
32C
330
1E
100
AcDbEntity
  8
1
  6
Continuous
 62
     7
100
AcDbCircle
 10
709.7999999999999
 20
317.5
 30
0.0
 40
0.7
  0
CIRCLE
  5
32D
330
1E
100
AcDbEntity
  8
1
  6
Continuous
 62
     7
100
AcDbCircle
 10
712.0
 20
317.5
 30
0.0
 40
0.7
  0
CIRCLE
  5
32E
330
1E
100
AcDbEntity
  8
1
  6
Continuous
 62
     7
100
AcDbCircle
 10
714.2
 20
317.5
 30
0.0
 40
0.7
  0
CIRCLE
  5
32F
330
1E
100
AcDbEntity
  8
1
  6
Continuous
 62
     7
100
AcDbCircle
 10
716.3999999999999
 20
317.5
 30
0.0
 40
0.7
  0
CIRCLE
  5
330
330
1E
100
AcDbEntity
  8
1
  6
Continuous
 62
     7
100
AcDbCircle
 10
718.5999999999999
 20
317.5
 30
0.0
 40
0.7
  0
CIRCLE
  5
331
330
1E
100
AcDbEntity
  8
1
  6
Continuous
 62
     7
100
AcDbCircle
 10
720.7999999999999
 20
317.5
 30
0.0
 40
0.7
  0
CIRCLE
  5
332
330
1E
100
AcDbEntity
  8
1
  6
Continuous
 62
     7
100
AcDbCircle
 10
723.0
 20
317.5
 30
0.0
 40
0.7
  0
CIRCLE
  5
333
330
1E
100
AcDbEntity
  8
1
  6
Continuous
 62
     7
100
AcDbCircle
 10
725.2
 20
317.5
 30
0.0
 40
0.7
  0
CIRCLE
  5
334
330
1E
100
AcDbEntity
  8
1
  6
Continuous
 62
     7
100
AcDbCircle
 10
727.4
 20
317.5
 30
0.0
 40
0.7
  0
CIRCLE
  5
335
330
1E
100
AcDbEntity
  8
1
  6
Continuous
 62
     7
100
AcDbCircle
 10
729.6
 20
317.5
 30
0.0
 40
0.7
  0
CIRCLE
  5
336
330
1E
100
AcDbEntity
  8
1
  6
Continuous
 62
     7
100
AcDbCircle
 10
731.7999999999999
 20
317.5
 30
0.0
 40
0.7
  0
CIRCLE
  5
337
330
1E
100
AcDbEntity
  8
1
  6
Continuous
 62
     7
100
AcDbCircle
 10
734.0
 20
317.5
 30
0.0
 40
0.7
  0
CIRCLE
  5
338
330
1E
100
AcDbEntity
  8
1
  6
Continuous
 62
     7
100
AcDbCircle
 10
736.2
 20
317.5
 30
0.0
 40
0.7
  0
LINE
  5
339
330
1E
100
AcDbEntity
  8
1
  6
Continuous
 62
     7
100
AcDbLine
 10
781.0
 20
316.0
 30
0.0
 11
781.0
 21
314.6
 31
0.0
  0
LINE
  5
33A
330
1E
100
AcDbEntity
  8
1
  6
Continuous
 62
     7
100
AcDbLine
 10
781.0
 20
314.6
 30
0.0
 11
691.0
 21
314.6
 31
0.0
  0
LINE
  5
33B
330
1E
100
AcDbEntity
  8
1
  6
Continuous
 62
     7
100
AcDbLine
 10
691.0
 20
314.6
 30
0.0
 11
691.0
 21
316.0
 31
0.0
  0
LINE
  5
33C
330
1E
100
AcDbEntity
  8
1
  6
Continuous
 62
     7
100
AcDbLine
 10
691.0
 20
316.0
 30
0.0
 11
781.0
 21
316.0
 31
0.0
  0
CIRCLE
  5
33D
330
1E
100
AcDbEntity
  8
1
  6
Continuous
 62
     7
100
AcDbCircle
 10
694.3999999999999
 20
315.3
 30
0.0
 40
0.7
  0
CIRCLE
  5
33E
330
1E
100
AcDbEntity
  8
1
  6
Continuous
 62
     7
100
AcDbCircle
 10
696.6
 20
315.3
 30
0.0
 40
0.7
  0
CIRCLE
  5
33F
330
1E
100
AcDbEntity
  8
1
  6
Continuous
 62
     7
100
AcDbCircle
 10
698.7999999999999
 20
315.3
 30
0.0
 40
0.7
  0
CIRCLE
  5
340
330
1E
100
AcDbEntity
  8
1
  6
Continuous
 62
     7
100
AcDbCircle
 10
701.0
 20
315.3
 30
0.0
 40
0.7
  0
CIRCLE
  5
341
330
1E
100
AcDbEntity
  8
1
  6
Continuous
 62
     7
100
AcDbCircle
 10
703.2
 20
315.3
 30
0.0
 40
0.7
  0
CIRCLE
  5
342
330
1E
100
AcDbEntity
  8
1
  6
Continuous
 62
     7
100
AcDbCircle
 10
705.4
 20
315.3
 30
0.0
 40
0.7
  0
CIRCLE
  5
343
330
1E
100
AcDbEntity
  8
1
  6
Continuous
 62
     7
100
AcDbCircle
 10
707.6
 20
315.3
 30
0.0
 40
0.7
  0
CIRCLE
  5
344
330
1E
100
AcDbEntity
  8
1
  6
Continuous
 62
     7
100
AcDbCircle
 10
709.7999999999999
 20
315.3
 30
0.0
 40
0.7
  0
CIRCLE
  5
345
330
1E
100
AcDbEntity
  8
1
  6
Continuous
 62
     7
100
AcDbCircle
 10
712.0
 20
315.3
 30
0.0
 40
0.7
  0
CIRCLE
  5
346
330
1E
100
AcDbEntity
  8
1
  6
Continuous
 62
     7
100
AcDbCircle
 10
714.2
 20
315.3
 30
0.0
 40
0.7
  0
CIRCLE
  5
347
330
1E
100
AcDbEntity
  8
1
  6
Continuous
 62
     7
100
AcDbCircle
 10
716.3999999999999
 20
315.3
 30
0.0
 40
0.7
  0
CIRCLE
  5
348
330
1E
100
AcDbEntity
  8
1
  6
Continuous
 62
     7
100
AcDbCircle
 10
718.5999999999999
 20
315.3
 30
0.0
 40
0.7
  0
CIRCLE
  5
349
330
1E
100
AcDbEntity
  8
1
  6
Continuous
 62
     7
100
AcDbCircle
 10
720.7999999999999
 20
315.3
 30
0.0
 40
0.7
  0
CIRCLE
  5
34A
330
1E
100
AcDbEntity
  8
1
  6
Continuous
 62
     7
100
AcDbCircle
 10
723.0
 20
315.3
 30
0.0
 40
0.7
  0
CIRCLE
  5
34B
330
1E
100
AcDbEntity
  8
1
  6
Continuous
 62
     7
100
AcDbCircle
 10
725.2
 20
315.3
 30
0.0
 40
0.7
  0
CIRCLE
  5
34C
330
1E
100
AcDbEntity
  8
1
  6
Continuous
 62
     7
100
AcDbCircle
 10
727.4
 20
315.3
 30
0.0
 40
0.7
  0
CIRCLE
  5
34D
330
1E
100
AcDbEntity
  8
1
  6
Continuous
 62
     7
100
AcDbCircle
 10
729.6
 20
315.3
 30
0.0
 40
0.7
  0
CIRCLE
  5
34E
330
1E
100
AcDbEntity
  8
1
  6
Continuous
 62
     7
100
AcDbCircle
 10
731.7999999999999
 20
315.3
 30
0.0
 40
0.7
  0
CIRCLE
  5
34F
330
1E
100
AcDbEntity
  8
1
  6
Continuous
 62
     7
100
AcDbCircle
 10
734.0
 20
315.3
 30
0.0
 40
0.7
  0
CIRCLE
  5
350
330
1E
100
AcDbEntity
  8
1
  6
Continuous
 62
     7
100
AcDbCircle
 10
736.2
 20
315.3
 30
0.0
 40
0.7
  0
LINE
  5
351
330
1E
100
AcDbEntity
  8
1
  6
Continuous
 62
     7
100
AcDbLine
 10
781.0
 20
313.8
 30
0.0
 11
781.0
 21
312.3999999999999
 31
0.0
  0
LINE
  5
352
330
1E
100
AcDbEntity
  8
1
  6
Continuous
 62
     7
100
AcDbLine
 10
781.0
 20
312.3999999999999
 30
0.0
 11
691.0
 21
312.3999999999999
 31
0.0
  0
LINE
  5
353
330
1E
100
AcDbEntity
  8
1
  6
Continuous
 62
     7
100
AcDbLine
 10
691.0
 20
312.3999999999999
 30
0.0
 11
691.0
 21
313.8
 31
0.0
  0
LINE
  5
354
330
1E
100
AcDbEntity
  8
1
  6
Continuous
 62
     7
100
AcDbLine
 10
691.0
 20
313.8
 30
0.0
 11
781.0
 21
313.8
 31
0.0
  0
CIRCLE
  5
355
330
1E
100
AcDbEntity
  8
1
  6
Continuous
 62
     7
100
AcDbCircle
 10
694.3999999999999
 20
313.1
 30
0.0
 40
0.7
  0
CIRCLE
  5
356
330
1E
100
AcDbEntity
  8
1
  6
Continuous
 62
     7
100
AcDbCircle
 10
696.6
 20
313.1
 30
0.0
 40
0.7
  0
CIRCLE
  5
357
330
1E
100
AcDbEntity
  8
1
  6
Continuous
 62
     7
100
AcDbCircle
 10
698.7999999999999
 20
313.1
 30
0.0
 40
0.7
  0
CIRCLE
  5
358
330
1E
100
AcDbEntity
  8
1
  6
Continuous
 62
     7
100
AcDbCircle
 10
701.0
 20
313.1
 30
0.0
 40
0.7
  0
CIRCLE
  5
359
330
1E
100
AcDbEntity
  8
1
  6
Continuous
 62
     7
100
AcDbCircle
 10
703.2
 20
313.1
 30
0.0
 40
0.7
  0
CIRCLE
  5
35A
330
1E
100
AcDbEntity
  8
1
  6
Continuous
 62
     7
100
AcDbCircle
 10
705.4
 20
313.1
 30
0.0
 40
0.7
  0
CIRCLE
  5
35B
330
1E
100
AcDbEntity
  8
1
  6
Continuous
 62
     7
100
AcDbCircle
 10
707.6
 20
313.1
 30
0.0
 40
0.7
  0
CIRCLE
  5
35C
330
1E
100
AcDbEntity
  8
1
  6
Continuous
 62
     7
100
AcDbCircle
 10
709.7999999999999
 20
313.1
 30
0.0
 40
0.7
  0
CIRCLE
  5
35D
330
1E
100
AcDbEntity
  8
1
  6
Continuous
 62
     7
100
AcDbCircle
 10
712.0
 20
313.1
 30
0.0
 40
0.7
  0
CIRCLE
  5
35E
330
1E
100
AcDbEntity
  8
1
  6
Continuous
 62
     7
100
AcDbCircle
 10
714.2
 20
313.1
 30
0.0
 40
0.7
  0
CIRCLE
  5
35F
330
1E
100
AcDbEntity
  8
1
  6
Continuous
 62
     7
100
AcDbCircle
 10
716.3999999999999
 20
313.1
 30
0.0
 40
0.7
  0
CIRCLE
  5
360
330
1E
100
AcDbEntity
  8
1
  6
Continuous
 62
     7
100
AcDbCircle
 10
718.5999999999999
 20
313.1
 30
0.0
 40
0.7
  0
CIRCLE
  5
361
330
1E
100
AcDbEntity
  8
1
  6
Continuous
 62
     7
100
AcDbCircle
 10
720.7999999999999
 20
313.1
 30
0.0
 40
0.7
  0
CIRCLE
  5
362
330
1E
100
AcDbEntity
  8
1
  6
Continuous
 62
     7
100
AcDbCircle
 10
723.0
 20
313.1
 30
0.0
 40
0.7
  0
CIRCLE
  5
363
330
1E
100
AcDbEntity
  8
1
  6
Continuous
 62
     7
100
AcDbCircle
 10
725.2
 20
313.1
 30
0.0
 40
0.7
  0
CIRCLE
  5
364
330
1E
100
AcDbEntity
  8
1
  6
Continuous
 62
     7
100
AcDbCircle
 10
727.4
 20
313.1
 30
0.0
 40
0.7
  0
CIRCLE
  5
365
330
1E
100
AcDbEntity
  8
1
  6
Continuous
 62
     7
100
AcDbCircle
 10
729.6
 20
313.1
 30
0.0
 40
0.7
  0
CIRCLE
  5
366
330
1E
100
AcDbEntity
  8
1
  6
Continuous
 62
     7
100
AcDbCircle
 10
731.7999999999999
 20
313.1
 30
0.0
 40
0.7
  0
CIRCLE
  5
367
330
1E
100
AcDbEntity
  8
1
  6
Continuous
 62
     7
100
AcDbCircle
 10
734.0
 20
313.1
 30
0.0
 40
0.7
  0
CIRCLE
  5
368
330
1E
100
AcDbEntity
  8
1
  6
Continuous
 62
     7
100
AcDbCircle
 10
736.2
 20
313.1
 30
0.0
 40
0.7
  0
CIRCLE
  5
369
330
1E
100
AcDbEntity
  8
1
  6
Continuous
 62
     7
100
AcDbCircle
 10
940.0
 20
326.0
 30
0.0
 40
2.0
  0
CIRCLE
  5
36A
330
1E
100
AcDbEntity
  8
1
  6
Continuous
 62
     7
100
AcDbCircle
 10
930.0
 20
326.0
 30
0.0
 40
2.399999999999999
  0
CIRCLE
  5
36B
330
1E
100
AcDbEntity
  8
1
  6
Continuous
 62
     7
100
AcDbCircle
 10
930.0
 20
326.0
 30
0.0
 40
4.0
  0
CIRCLE
  5
36C
330
1E
100
AcDbEntity
  8
1
  6
Continuous
 62
     7
100
AcDbCircle
 10
930.0
 20
326.0
 30
0.0
 40
5.5
  0
CIRCLE
  5
36D
330
1E
100
AcDbEntity
  8
1
  6
Continuous
 62
     7
100
AcDbCircle
 10
910.0
 20
326.0
 30
0.0
 40
2.399999999999999
  0
CIRCLE
  5
36E
330
1E
100
AcDbEntity
  8
1
  6
Continuous
 62
     7
100
AcDbCircle
 10
910.0
 20
326.0
 30
0.0
 40
4.0
  0
CIRCLE
  5
36F
330
1E
100
AcDbEntity
  8
1
  6
Continuous
 62
     7
100
AcDbCircle
 10
910.0
 20
326.0
 30
0.0
 40
5.5
  0
CIRCLE
  5
370
330
1E
100
AcDbEntity
  8
1
  6
Continuous
 62
     7
100
AcDbCircle
 10
890.0
 20
326.0
 30
0.0
 40
2.399999999999999
  0
CIRCLE
  5
371
330
1E
100
AcDbEntity
  8
1
  6
Continuous
 62
     7
100
AcDbCircle
 10
890.0
 20
326.0
 30
0.0
 40
4.0
  0
CIRCLE
  5
372
330
1E
100
AcDbEntity
  8
1
  6
Continuous
 62
     7
100
AcDbCircle
 10
890.0
 20
326.0
 30
0.0
 40
5.5
  0
CIRCLE
  5
373
330
1E
100
AcDbEntity
  8
1
  6
Continuous
 62
     7
100
AcDbCircle
 10
870.0
 20
326.0
 30
0.0
 40
2.399999999999999
  0
CIRCLE
  5
374
330
1E
100
AcDbEntity
  8
1
  6
Continuous
 62
     7
100
AcDbCircle
 10
870.0
 20
326.0
 30
0.0
 40
4.0
  0
CIRCLE
  5
375
330
1E
100
AcDbEntity
  8
1
  6
Continuous
 62
     7
100
AcDbCircle
 10
870.0
 20
326.0
 30
0.0
 40
5.5
  0
CIRCLE
  5
376
330
1E
100
AcDbEntity
  8
1
  6
Continuous
 62
     7
100
AcDbCircle
 10
850.0
 20
326.0
 30
0.0
 40
2.399999999999999
  0
CIRCLE
  5
377
330
1E
100
AcDbEntity
  8
1
  6
Continuous
 62
     7
100
AcDbCircle
 10
850.0
 20
326.0
 30
0.0
 40
4.0
  0
CIRCLE
  5
378
330
1E
100
AcDbEntity
  8
1
  6
Continuous
 62
     7
100
AcDbCircle
 10
850.0
 20
326.0
 30
0.0
 40
5.5
  0
CIRCLE
  5
379
330
1E
100
AcDbEntity
  8
1
  6
Continuous
 62
     7
100
AcDbCircle
 10
830.0
 20
326.0
 30
0.0
 40
2.399999999999999
  0
CIRCLE
  5
37A
330
1E
100
AcDbEntity
  8
1
  6
Continuous
 62
     7
100
AcDbCircle
 10
830.0
 20
326.0
 30
0.0
 40
4.0
  0
CIRCLE
  5
37B
330
1E
100
AcDbEntity
  8
1
  6
Continuous
 62
     7
100
AcDbCircle
 10
830.0
 20
326.0
 30
0.0
 40
5.5
  0
TEXT
  5
37C
330
1E
100
AcDbEntity
  8
1
  6
Continuous
 62
     7
100
AcDbText
 10
922.8279999999999
 20
332.0
 30
0.0
 40
6.0
  1
POWER
 41
0.5
  7
KANJI
100
AcDbText
  0
TEXT
  5
37D
330
1E
100
AcDbEntity
  8
1
  6
Continuous
 62
     7
100
AcDbText
 10
824.328
 20
332.0
 30
0.0
 40
6.0
  1
AUTO
 41
0.5
  7
KANJI
100
AcDbText
  0
TEXT
  5
37E
330
1E
100
AcDbEntity
  8
1
  6
Continuous
 62
     7
100
AcDbText
 10
844.3279999999999
 20
332.0
 30
0.0
 40
6.0
  1
MENU
 41
0.5
  7
KANJI
100
AcDbText
  0
TEXT
  5
37F
330
1E
100
AcDbEntity
  8
1
  6
Continuous
 62
     7
100
AcDbText
 10
871.3279999999999
 20
332.0
 30
0.0
 40
6.0
  1
ADJUST
 41
0.5
  7
KANJI
100
AcDbText
  0
TEXT
  5
380
330
1E
100
AcDbEntity
  8
1
  6
Continuous
 62
     7
100
AcDbText
 10
901.3279999999999
 20
332.0
 30
0.0
 40
6.0
  1
SOURCE
 41
0.5
  7
KANJI
100
AcDbText
  0
LINE
  5
381
330
1E
100
AcDbEntity
  8
1
  6
Continuous
 62
     7
100
AcDbLine
 10
890.0
 20
336.589799
 30
0.0
 11
893.5
 21
335.089799
 31
0.0
  0
LINE
  5
382
330
1E
100
AcDbEntity
  8
1
  6
Continuous
 62
     7
100
AcDbLine
 10
893.5
 20
335.089799
 30
0.0
 11
890.0
 21
333.589799
 31
0.0
  0
LINE
  5
383
330
1E
100
AcDbEntity
  8
1
  6
Continuous
 62
     7
100
AcDbLine
 10
890.0
 20
333.589799
 30
0.0
 11
890.0
 21
336.589799
 31
0.0
  0
LINE
  5
384
330
1E
100
AcDbEntity
  8
1
  6
Continuous
 62
     7
100
AcDbLine
 10
870.0
 20
336.589799
 30
0.0
 11
866.5
 21
335.089799
 31
0.0
  0
LINE
  5
385
330
1E
100
AcDbEntity
  8
1
  6
Continuous
 62
     7
100
AcDbLine
 10
866.5
 20
335.089799
 30
0.0
 11
870.0
 21
333.589799
 31
0.0
  0
LINE
  5
386
330
1E
100
AcDbEntity
  8
1
  6
Continuous
 62
     7
100
AcDbLine
 10
870.0
 20
333.589799
 30
0.0
 11
870.0
 21
336.589799
 31
0.0
  0
LINE
  5
387
330
1E
100
AcDbEntity
  8
1
  6
Continuous
 62
     7
100
AcDbLine
 10
710.0
 20
633.0
 30
0.0
 11
710.0
 21
361.0
 31
0.0
  0
LINE
  5
388
330
1E
100
AcDbEntity
  8
1
  6
Continuous
 62
     7
100
AcDbLine
 10
710.0
 20
361.0
 30
0.0
 11
1050.0
 21
361.0
 31
0.0
  0
LINE
  5
389
330
1E
100
AcDbEntity
  8
1
  6
Continuous
 62
     7
100
AcDbLine
 10
1050.0
 20
361.0
 30
0.0
 11
1050.0
 21
633.0
 31
0.0
  0
LINE
  5
38A
330
1E
100
AcDbEntity
  8
1
  6
Continuous
 62
     7
100
AcDbLine
 10
1050.0
 20
633.0
 30
0.0
 11
710.0
 21
633.0
 31
0.0
  0
ARC
  5
38B
330
1E
100
AcDbEntity
  8
1
  6
Continuous
 62
     7
100
AcDbCircle
 10
1050.0
 20
361.0
 30
0.0
 40
1.0
100
AcDbArc
 50
270.0
 51
0.0
  0
LINE
  5
38C
330
1E
100
AcDbEntity
  8
1
  6
Continuous
 62
     7
100
AcDbLine
 10
1051.0
 20
361.0
 30
0.0
 11
1051.0
 21
633.0
 31
0.0
  0
ARC
  5
38D
330
1E
100
AcDbEntity
  8
1
  6
Continuous
 62
     7
100
AcDbCircle
 10
1050.0
 20
633.0
 30
0.0
 40
1.0
100
AcDbArc
 50
0.0
 51
90.0
  0
LINE
  5
38E
330
1E
100
AcDbEntity
  8
1
  6
Continuous
 62
     7
100
AcDbLine
 10
1050.0
 20
634.0
 30
0.0
 11
710.0
 21
634.0
 31
0.0
  0
ARC
  5
38F
330
1E
100
AcDbEntity
  8
1
  6
Continuous
 62
     7
100
AcDbCircle
 10
710.0
 20
633.0
 30
0.0
 40
1.0
100
AcDbArc
 50
90.0
 51
180.0
  0
LINE
  5
390
330
1E
100
AcDbEntity
  8
1
  6
Continuous
 62
     7
100
AcDbLine
 10
710.0
 20
360.0
 30
0.0
 11
1050.0
 21
360.0
 31
0.0
  0
LINE
  5
391
330
1E
100
AcDbEntity
  8
1
  6
Continuous
 62
     7
100
AcDbLine
 10
709.0
 20
633.0
 30
0.0
 11
709.0
 21
361.0
 31
0.0
  0
ARC
  5
392
330
1E
100
AcDbEntity
  8
1
  6
Continuous
 62
     7
100
AcDbCircle
 10
710.0
 20
361.0
 30
0.0
 40
1.0
100
AcDbArc
 50
180.0
 51
270.0
  0
LINE
  5
393
330
1E
100
AcDbEntity
  8
1
  6
Continuous
 62
     7
100
AcDbLine
 10
727.0
 20
612.0
 30
0.0
 11
727.0
 21
382.0
 31
0.0
  0
LINE
  5
394
330
1E
100
AcDbEntity
  8
1
  6
Continuous
 62
     7
100
AcDbLine
 10
727.0
 20
382.0
 30
0.0
 11
1033.0
 21
382.0
 31
0.0
  0
LINE
  5
395
330
1E
100
AcDbEntity
  8
1
  6
Continuous
 62
     7
100
AcDbLine
 10
1033.0
 20
382.0
 30
0.0
 11
1033.0
 21
612.0
 31
0.0
  0
LINE
  5
396
330
1E
100
AcDbEntity
  8
1
  6
Continuous
 62
     7
100
AcDbLine
 10
1033.0
 20
612.0
 30
0.0
 11
727.0
 21
612.0
 31
0.0
  0
ARC
  5
397
330
1E
100
AcDbEntity
  8
1
  6
Continuous
 62
     7
100
AcDbCircle
 10
1033.0
 20
382.0
 30
0.0
 40
1.0
100
AcDbArc
 50
270.0
 51
0.0
  0
LINE
  5
398
330
1E
100
AcDbEntity
  8
1
  6
Continuous
 62
     7
100
AcDbLine
 10
1034.0
 20
382.0
 30
0.0
 11
1034.0
 21
612.0
 31
0.0
  0
ARC
  5
399
330
1E
100
AcDbEntity
  8
1
  6
Continuous
 62
     7
100
AcDbCircle
 10
1033.0
 20
612.0
 30
0.0
 40
1.0
100
AcDbArc
 50
0.0
 51
90.0
  0
LINE
  5
39A
330
1E
100
AcDbEntity
  8
1
  6
Continuous
 62
     7
100
AcDbLine
 10
1033.0
 20
613.0
 30
0.0
 11
727.0
 21
613.0
 31
0.0
  0
ARC
  5
39B
330
1E
100
AcDbEntity
  8
1
  6
Continuous
 62
     7
100
AcDbCircle
 10
727.0
 20
612.0
 30
0.0
 40
1.0
100
AcDbArc
 50
90.0
 51
180.0
  0
LINE
  5
39C
330
1E
100
AcDbEntity
  8
1
  6
Continuous
 62
     7
100
AcDbLine
 10
726.0
 20
612.0
 30
0.0
 11
726.0
 21
382.0
 31
0.0
  0
LINE
  5
39D
330
1E
100
AcDbEntity
  8
1
  6
Continuous
 62
     7
100
AcDbLine
 10
727.0
 20
381.0
 30
0.0
 11
1033.0
 21
381.0
 31
0.0
  0
ARC
  5
39E
330
1E
100
AcDbEntity
  8
1
  6
Continuous
 62
     7
100
AcDbCircle
 10
727.0
 20
382.0
 30
0.0
 40
1.0
100
AcDbArc
 50
180.0
 51
270.0
  0
CIRCLE
  5
39F
330
1E
100
AcDbEntity
  8
1
  6
Continuous
 62
     7
100
AcDbCircle
 10
545.5
 20
302.4999999999999
 30
0.0
 40
9.5
  0
CIRCLE
  5
3A0
330
1E
100
AcDbEntity
  8
1
  6
Continuous
 62
     7
100
AcDbCircle
 10
545.5
 20
302.4999999999999
 30
0.0
 40
7.5
  0
LINE
  5
3A1
330
1E
100
AcDbEntity
  8
1
  6
Continuous
 62
     7
100
AcDbLine
 10
586.5
 20
300.0
 30
0.0
 11
586.5
 21
295.0
 31
0.0
  0
LINE
  5
3A2
330
1E
100
AcDbEntity
  8
1
  6
Continuous
 62
     7
100
AcDbLine
 10
586.5
 20
295.0
 30
0.0
 11
599.5
 21
295.0
 31
0.0
  0
LINE
  5
3A3
330
1E
100
AcDbEntity
  8
1
  6
Continuous
 62
     7
100
AcDbLine
 10
599.5
 20
295.0
 30
0.0
 11
599.5
 21
300.0
 31
0.0
  0
LINE
  5
3A4
330
1E
100
AcDbEntity
  8
1
  6
Continuous
 62
     7
100
AcDbLine
 10
585.0
 20
654.4999999999999
 30
0.0
 11
609.2
 21
654.4999999999999
 31
0.0
  0
ARC
  5
3A5
330
1E
100
AcDbEntity
  8
1
  6
Continuous
 62
     7
100
AcDbCircle
 10
609.2
 20
643.1146259999999
 30
0.0
 40
11.385374
100
AcDbArc
 50
81.90364
 51
90.0
  0
ARC
  5
3A6
330
1E
100
AcDbEntity
  8
1
  6
Continuous
 62
     7
100
AcDbCircle
 10
601.4266269999999
 20
647.5
 30
0.0
 40
12.773373
100
AcDbArc
 50
0.000011
 51
23.623413
  0
ARC
  5
3A7
330
1E
100
AcDbEntity
  8
1
  6
Continuous
 62
     7
100
AcDbCircle
 10
610.380982
 20
651.41642
 30
0.0
 40
3.0
100
AcDbArc
 50
23.623413
 51
81.90364
  0
LINE
  5
3A8
330
1E
100
AcDbEntity
  8
1
  6
Continuous
 62
     7
100
AcDbLine
 10
585.0
 20
300.0
 30
0.0
 11
609.2
 21
300.0
 31
0.0
  0
ARC
  5
3A9
330
1E
100
AcDbEntity
  8
1
  6
Continuous
 62
     7
100
AcDbCircle
 10
609.2
 20
311.385374
 30
0.0
 40
11.385374
100
AcDbArc
 50
270.0
 51
278.09636
  0
ARC
  5
3AA
330
1E
100
AcDbEntity
  8
1
  6
Continuous
 62
     7
100
AcDbCircle
 10
601.4266269999999
 20
307.0
 30
0.0
 40
12.773373
100
AcDbArc
 50
336.376587
 51
359.9999889999999
  0
ARC
  5
3AB
330
1E
100
AcDbEntity
  8
1
  6
Continuous
 62
     7
100
AcDbCircle
 10
610.380982
 20
303.0835799999999
 30
0.0
 40
3.0
100
AcDbArc
 50
278.09636
 51
336.376587
  0
LINE
  5
3AC
330
1E
100
AcDbEntity
  8
1
  6
Continuous
 62
     7
100
AcDbLine
 10
614.2
 20
647.4999979999999
 30
0.0
 11
614.2
 21
307.000002
 31
0.0
  0
LINE
  5
3AD
330
1E
100
AcDbEntity
  8
1
  6
Continuous
 62
     7
100
AcDbLine
 10
585.0
 20
654.4999999999999
 30
0.0
 11
585.0
 21
300.0
 31
0.0
  0
LINE
  5
3AE
330
1E
100
AcDbEntity
  8
1
  6
Continuous
 62
     7
100
AcDbLine
 10
540.0
 20
633.4999999999999
 30
0.0
 11
585.0
 21
633.4999999999999
 31
0.0
  0
LINE
  5
3AF
330
1E
100
AcDbEntity
  8
1
  6
Continuous
 62
     7
100
AcDbLine
 10
585.0
 20
326.0
 30
0.0
 11
540.0
 21
326.0
 31
0.0
  0
LINE
  5
3B0
330
1E
100
AcDbEntity
  8
1
  6
Continuous
 62
     7
100
AcDbLine
 10
540.0
 20
633.4999999999999
 30
0.0
 11
540.0
 21
326.0
 31
0.0
  0
LINE
  5
3B1
330
1E
100
AcDbEntity
  8
1
  6
Continuous
 62
     7
100
AcDbLine
 10
585.0
 20
313.75
 30
0.0
 11
584.4999999999999
 21
313.75
 31
0.0
  0
LINE
  5
3B2
330
1E
100
AcDbEntity
  8
1
  6
Continuous
 62
     7
100
AcDbLine
 10
584.4999999999999
 20
313.75
 30
0.0
 11
584.4999999999999
 21
306.25
 31
0.0
  0
LINE
  5
3B3
330
1E
100
AcDbEntity
  8
1
  6
Continuous
 62
     7
100
AcDbLine
 10
584.4999999999999
 20
306.25
 30
0.0
 11
585.0
 21
306.25
 31
0.0
  0
ARC
  5
3B4
330
1E
100
AcDbEntity
  8
1
  6
Continuous
 62
     7
100
AcDbCircle
 10
584.4999999999999
 20
311.25
 30
0.0
 40
1.5
100
AcDbArc
 50
90.0
 51
180.0
  0
ARC
  5
3B5
330
1E
100
AcDbEntity
  8
1
  6
Continuous
 62
     7
100
AcDbCircle
 10
584.4999999999999
 20
308.7499999999999
 30
0.0
 40
1.5
100
AcDbArc
 50
180.0
 51
270.0
  0
LINE
  5
3B6
330
1E
100
AcDbEntity
  8
1
  6
Continuous
 62
     7
100
AcDbLine
 10
583.0
 20
308.7499999999999
 30
0.0
 11
583.0
 21
311.25
 31
0.0
  0
LINE
  5
3B7
330
1E
100
AcDbEntity
  8
1
  6
Continuous
 62
     7
100
AcDbLine
 10
585.0
 20
648.2499999999999
 30
0.0
 11
584.4999999999999
 21
648.2499999999999
 31
0.0
  0
LINE
  5
3B8
330
1E
100
AcDbEntity
  8
1
  6
Continuous
 62
     7
100
AcDbLine
 10
584.4999999999999
 20
648.2499999999999
 30
0.0
 11
584.4999999999999
 21
640.7499999999999
 31
0.0
  0
LINE
  5
3B9
330
1E
100
AcDbEntity
  8
1
  6
Continuous
 62
     7
100
AcDbLine
 10
584.4999999999999
 20
640.7499999999999
 30
0.0
 11
585.0
 21
640.7499999999999
 31
0.0
  0
ARC
  5
3BA
330
1E
100
AcDbEntity
  8
1
  6
Continuous
 62
     7
100
AcDbCircle
 10
584.4999999999999
 20
645.75
 30
0.0
 40
1.5
100
AcDbArc
 50
90.0
 51
180.0
  0
ARC
  5
3BB
330
1E
100
AcDbEntity
  8
1
  6
Continuous
 62
     7
100
AcDbCircle
 10
584.4999999999999
 20
643.25
 30
0.0
 40
1.5
100
AcDbArc
 50
180.0
 51
270.0
  0
LINE
  5
3BC
330
1E
100
AcDbEntity
  8
1
  6
Continuous
 62
     7
100
AcDbLine
 10
583.0
 20
643.25
 30
0.0
 11
583.0
 21
645.75
 31
0.0
  0
LINE
  5
3BD
330
1E
100
AcDbEntity
  8
1
  6
Continuous
 62
     7
100
AcDbLine
 10
585.0
 20
352.7499999999999
 30
0.0
 11
584.4999999999999
 21
352.7499999999999
 31
0.0
  0
LINE
  5
3BE
330
1E
100
AcDbEntity
  8
1
  6
Continuous
 62
     7
100
AcDbLine
 10
584.4999999999999
 20
352.7499999999999
 30
0.0
 11
584.4999999999999
 21
345.25
 31
0.0
  0
LINE
  5
3BF
330
1E
100
AcDbEntity
  8
1
  6
Continuous
 62
     7
100
AcDbLine
 10
584.4999999999999
 20
345.25
 30
0.0
 11
585.0
 21
345.25
 31
0.0
  0
ARC
  5
3C0
330
1E
100
AcDbEntity
  8
1
  6
Continuous
 62
     7
100
AcDbCircle
 10
584.4999999999999
 20
350.2499999999999
 30
0.0
 40
1.5
100
AcDbArc
 50
90.0
 51
180.0
  0
ARC
  5
3C1
330
1E
100
AcDbEntity
  8
1
  6
Continuous
 62
     7
100
AcDbCircle
 10
584.4999999999999
 20
347.75
 30
0.0
 40
1.5
100
AcDbArc
 50
180.0
 51
270.0
  0
LINE
  5
3C2
330
1E
100
AcDbEntity
  8
1
  6
Continuous
 62
     7
100
AcDbLine
 10
583.0
 20
347.75
 30
0.0
 11
583.0
 21
350.2499999999999
 31
0.0
  0
ARC
  5
3C3
330
1E
100
AcDbEntity
  8
1
  6
Continuous
 62
     7
100
AcDbCircle
 10
584.4999999999999
 20
407.2499999999999
 30
0.0
 40
1.5
100
AcDbArc
 50
90.0
 51
180.0
  0
ARC
  5
3C4
330
1E
100
AcDbEntity
  8
1
  6
Continuous
 62
     7
100
AcDbCircle
 10
584.4999999999999
 20
404.75
 30
0.0
 40
1.5
100
AcDbArc
 50
180.0
 51
270.0
  0
LINE
  5
3C5
330
1E
100
AcDbEntity
  8
1
  6
Continuous
 62
     7
100
AcDbLine
 10
583.0
 20
404.75
 30
0.0
 11
583.0
 21
407.2499999999999
 31
0.0
  0
LINE
  5
3C6
330
1E
100
AcDbEntity
  8
1
  6
Continuous
 62
     7
100
AcDbLine
 10
585.0
 20
408.75
 30
0.0
 11
584.4999999999999
 21
408.75
 31
0.0
  0
LINE
  5
3C7
330
1E
100
AcDbEntity
  8
1
  6
Continuous
 62
     7
100
AcDbLine
 10
584.4999999999999
 20
408.75
 30
0.0
 11
584.4999999999999
 21
403.2499999999999
 31
0.0
  0
LINE
  5
3C8
330
1E
100
AcDbEntity
  8
1
  6
Continuous
 62
     7
100
AcDbLine
 10
584.4999999999999
 20
403.2499999999999
 30
0.0
 11
585.0
 21
403.2499999999999
 31
0.0
  0
ARC
  5
3C9
330
1E
100
AcDbEntity
  8
1
  6
Continuous
 62
     7
100
AcDbCircle
 10
584.4999999999999
 20
497.25
 30
0.0
 40
1.5
100
AcDbArc
 50
90.0
 51
180.0
  0
ARC
  5
3CA
330
1E
100
AcDbEntity
  8
1
  6
Continuous
 62
     7
100
AcDbCircle
 10
584.4999999999999
 20
494.7499999999999
 30
0.0
 40
1.5
100
AcDbArc
 50
180.0
 51
270.0
  0
LINE
  5
3CB
330
1E
100
AcDbEntity
  8
1
  6
Continuous
 62
     7
100
AcDbLine
 10
583.0
 20
494.7499999999999
 30
0.0
 11
583.0
 21
497.25
 31
0.0
  0
LINE
  5
3CC
330
1E
100
AcDbEntity
  8
1
  6
Continuous
 62
     7
100
AcDbLine
 10
585.0
 20
498.7499999999999
 30
0.0
 11
584.4999999999999
 21
498.7499999999999
 31
0.0
  0
LINE
  5
3CD
330
1E
100
AcDbEntity
  8
1
  6
Continuous
 62
     7
100
AcDbLine
 10
584.4999999999999
 20
498.7499999999999
 30
0.0
 11
584.4999999999999
 21
493.25
 31
0.0
  0
LINE
  5
3CE
330
1E
100
AcDbEntity
  8
1
  6
Continuous
 62
     7
100
AcDbLine
 10
584.4999999999999
 20
493.25
 30
0.0
 11
585.0
 21
493.25
 31
0.0
  0
ARC
  5
3CF
330
1E
100
AcDbEntity
  8
1
  6
Continuous
 62
     7
100
AcDbCircle
 10
584.4999999999999
 20
587.25
 30
0.0
 40
1.5
100
AcDbArc
 50
90.0
 51
180.0
  0
ARC
  5
3D0
330
1E
100
AcDbEntity
  8
1
  6
Continuous
 62
     7
100
AcDbCircle
 10
584.4999999999999
 20
584.75
 30
0.0
 40
1.5
100
AcDbArc
 50
180.0
 51
270.0
  0
LINE
  5
3D1
330
1E
100
AcDbEntity
  8
1
  6
Continuous
 62
     7
100
AcDbLine
 10
583.0
 20
584.75
 30
0.0
 11
583.0
 21
587.25
 31
0.0
  0
LINE
  5
3D2
330
1E
100
AcDbEntity
  8
1
  6
Continuous
 62
     7
100
AcDbLine
 10
585.0
 20
588.75
 30
0.0
 11
584.4999999999999
 21
588.75
 31
0.0
  0
LINE
  5
3D3
330
1E
100
AcDbEntity
  8
1
  6
Continuous
 62
     7
100
AcDbLine
 10
584.4999999999999
 20
588.75
 30
0.0
 11
584.4999999999999
 21
583.25
 31
0.0
  0
LINE
  5
3D4
330
1E
100
AcDbEntity
  8
1
  6
Continuous
 62
     7
100
AcDbLine
 10
584.4999999999999
 20
583.25
 30
0.0
 11
585.0
 21
583.25
 31
0.0
  0
LINE
  5
3D5
330
1E
100
AcDbEntity
  8
1
  6
Continuous
 62
     7
100
AcDbLine
 10
584.0
 20
633.4999999999999
 30
0.0
 11
584.0
 21
588.664214
 31
0.0
  0
LINE
  5
3D6
330
1E
100
AcDbEntity
  8
1
  6
Continuous
 62
     7
100
AcDbLine
 10
584.0
 20
583.3357859999999
 30
0.0
 11
584.0
 21
498.6642139999999
 31
0.0
  0
LINE
  5
3D7
330
1E
100
AcDbEntity
  8
1
  6
Continuous
 62
     7
100
AcDbLine
 10
584.0
 20
493.335786
 30
0.0
 11
584.0
 21
408.664214
 31
0.0
  0
LINE
  5
3D8
330
1E
100
AcDbEntity
  8
1
  6
Continuous
 62
     7
100
AcDbLine
 10
584.0
 20
403.3357859999999
 30
0.0
 11
584.0
 21
351.664214
 31
0.0
  0
LINE
  5
3D9
330
1E
100
AcDbEntity
  8
1
  6
Continuous
 62
     7
100
AcDbLine
 10
584.0
 20
346.3357859999999
 30
0.0
 11
584.0
 21
326.0
 31
0.0
  0
LINE
  5
3DA
330
1E
100
AcDbEntity
  8
1
  6
Continuous
 62
     7
100
AcDbLine
 10
546.0
 20
311.986833
 30
0.0
 11
546.0
 21
326.0
 31
0.0
  0
LINE
  5
3DB
330
1E
100
AcDbEntity
  8
1
  6
Continuous
 62
     7
100
AcDbLine
 10
548.0
 20
311.665151
 30
0.0
 11
548.0
 21
326.0
 31
0.0
  0
CIRCLE
  5
3DC
330
1E
100
AcDbEntity
  8
1
  6
Continuous
 62
     7
100
AcDbCircle
 10
558.0
 20
528.5
 30
0.0
 40
7.0
  0
CIRCLE
  5
3DD
330
1E
100
AcDbEntity
  8
1
  6
Continuous
 62
     7
100
AcDbCircle
 10
558.0
 20
528.5
 30
0.0
 40
4.75
  0
LINE
  5
3DE
330
1E
100
AcDbEntity
  8
1
  6
Continuous
 62
     7
100
AcDbLine
 10
557.0
 20
533.1435439999999
 30
0.0
 11
557.0
 21
534.0
 31
0.0
  0
LINE
  5
3DF
330
1E
100
AcDbEntity
  8
1
  6
Continuous
 62
     7
100
AcDbLine
 10
557.0
 20
534.0
 30
0.0
 11
559.0
 21
534.0
 31
0.0
  0
LINE
  5
3E0
330
1E
100
AcDbEntity
  8
1
  6
Continuous
 62
     7
100
AcDbLine
 10
559.0
 20
534.0
 30
0.0
 11
559.0
 21
533.1435439999999
 31
0.0
  0
LINE
  5
3E1
330
1E
100
AcDbEntity
  8
1
  6
Continuous
 62
     7
100
AcDbLine
 10
557.0
 20
523.8564559999999
 30
0.0
 11
557.0
 21
523.0
 31
0.0
  0
LINE
  5
3E2
330
1E
100
AcDbEntity
  8
1
  6
Continuous
 62
     7
100
AcDbLine
 10
557.0
 20
523.0
 30
0.0
 11
559.0
 21
523.0
 31
0.0
  0
LINE
  5
3E3
330
1E
100
AcDbEntity
  8
1
  6
Continuous
 62
     7
100
AcDbLine
 10
559.0
 20
523.0
 30
0.0
 11
559.0
 21
523.8564559999999
 31
0.0
  0
CIRCLE
  5
3E4
330
1E
100
AcDbEntity
  8
1
  6
Continuous
 62
     7
100
AcDbCircle
 10
558.0
 20
528.5
 30
0.0
 40
2.2
  0
CIRCLE
  5
3E5
330
1E
100
AcDbEntity
  8
1
  6
Continuous
 62
     7
100
AcDbCircle
 10
558.0
 20
528.5
 30
0.0
 40
0.6
  0
CIRCLE
  5
3E6
330
1E
100
AcDbEntity
  8
1
  6
Continuous
 62
     7
100
AcDbCircle
 10
558.0
 20
510.5
 30
0.0
 40
7.0
  0
CIRCLE
  5
3E7
330
1E
100
AcDbEntity
  8
1
  6
Continuous
 62
     7
100
AcDbCircle
 10
558.0
 20
510.5
 30
0.0
 40
4.75
  0
LINE
  5
3E8
330
1E
100
AcDbEntity
  8
1
  6
Continuous
 62
     7
100
AcDbLine
 10
557.0
 20
515.143544
 30
0.0
 11
557.0
 21
516.0
 31
0.0
  0
LINE
  5
3E9
330
1E
100
AcDbEntity
  8
1
  6
Continuous
 62
     7
100
AcDbLine
 10
557.0
 20
516.0
 30
0.0
 11
559.0
 21
516.0
 31
0.0
  0
LINE
  5
3EA
330
1E
100
AcDbEntity
  8
1
  6
Continuous
 62
     7
100
AcDbLine
 10
559.0
 20
516.0
 30
0.0
 11
559.0
 21
515.143544
 31
0.0
  0
LINE
  5
3EB
330
1E
100
AcDbEntity
  8
1
  6
Continuous
 62
     7
100
AcDbLine
 10
557.0
 20
505.8564559999999
 30
0.0
 11
557.0
 21
505.0
 31
0.0
  0
LINE
  5
3EC
330
1E
100
AcDbEntity
  8
1
  6
Continuous
 62
     7
100
AcDbLine
 10
557.0
 20
505.0
 30
0.0
 11
559.0
 21
505.0
 31
0.0
  0
LINE
  5
3ED
330
1E
100
AcDbEntity
  8
1
  6
Continuous
 62
     7
100
AcDbLine
 10
559.0
 20
505.0
 30
0.0
 11
559.0
 21
505.8564559999999
 31
0.0
  0
CIRCLE
  5
3EE
330
1E
100
AcDbEntity
  8
1
  6
Continuous
 62
     7
100
AcDbCircle
 10
558.0
 20
510.5
 30
0.0
 40
2.2
  0
CIRCLE
  5
3EF
330
1E
100
AcDbEntity
  8
1
  6
Continuous
 62
     7
100
AcDbCircle
 10
558.0
 20
510.5
 30
0.0
 40
0.6
  0
CIRCLE
  5
3F0
330
1E
100
AcDbEntity
  8
1
  6
Continuous
 62
     7
100
AcDbCircle
 10
558.0
 20
492.4999999999999
 30
0.0
 40
7.0
  0
CIRCLE
  5
3F1
330
1E
100
AcDbEntity
  8
1
  6
Continuous
 62
     7
100
AcDbCircle
 10
558.0
 20
492.4999999999999
 30
0.0
 40
4.75
  0
LINE
  5
3F2
330
1E
100
AcDbEntity
  8
1
  6
Continuous
 62
     7
100
AcDbLine
 10
557.0
 20
497.143544
 30
0.0
 11
557.0
 21
498.0
 31
0.0
  0
LINE
  5
3F3
330
1E
100
AcDbEntity
  8
1
  6
Continuous
 62
     7
100
AcDbLine
 10
557.0
 20
498.0
 30
0.0
 11
559.0
 21
498.0
 31
0.0
  0
LINE
  5
3F4
330
1E
100
AcDbEntity
  8
1
  6
Continuous
 62
     7
100
AcDbLine
 10
559.0
 20
498.0
 30
0.0
 11
559.0
 21
497.143544
 31
0.0
  0
LINE
  5
3F5
330
1E
100
AcDbEntity
  8
1
  6
Continuous
 62
     7
100
AcDbLine
 10
557.0
 20
487.856456
 30
0.0
 11
557.0
 21
487.0
 31
0.0
  0
LINE
  5
3F6
330
1E
100
AcDbEntity
  8
1
  6
Continuous
 62
     7
100
AcDbLine
 10
557.0
 20
487.0
 30
0.0
 11
559.0
 21
487.0
 31
0.0
  0
LINE
  5
3F7
330
1E
100
AcDbEntity
  8
1
  6
Continuous
 62
     7
100
AcDbLine
 10
559.0
 20
487.0
 30
0.0
 11
559.0
 21
487.856456
 31
0.0
  0
CIRCLE
  5
3F8
330
1E
100
AcDbEntity
  8
1
  6
Continuous
 62
     7
100
AcDbCircle
 10
558.0
 20
492.4999999999999
 30
0.0
 40
2.2
  0
CIRCLE
  5
3F9
330
1E
100
AcDbEntity
  8
1
  6
Continuous
 62
     7
100
AcDbCircle
 10
558.0
 20
492.4999999999999
 30
0.0
 40
0.6
  0
CIRCLE
  5
3FA
330
1E
100
AcDbEntity
  8
1
  6
Continuous
 62
     7
100
AcDbCircle
 10
558.0
 20
474.5
 30
0.0
 40
7.0
  0
CIRCLE
  5
3FB
330
1E
100
AcDbEntity
  8
1
  6
Continuous
 62
     7
100
AcDbCircle
 10
558.0
 20
474.5
 30
0.0
 40
4.75
  0
LINE
  5
3FC
330
1E
100
AcDbEntity
  8
1
  6
Continuous
 62
     7
100
AcDbLine
 10
557.0
 20
479.1435439999999
 30
0.0
 11
557.0
 21
480.0
 31
0.0
  0
LINE
  5
3FD
330
1E
100
AcDbEntity
  8
1
  6
Continuous
 62
     7
100
AcDbLine
 10
557.0
 20
480.0
 30
0.0
 11
559.0
 21
480.0
 31
0.0
  0
LINE
  5
3FE
330
1E
100
AcDbEntity
  8
1
  6
Continuous
 62
     7
100
AcDbLine
 10
559.0
 20
480.0
 30
0.0
 11
559.0
 21
479.1435439999999
 31
0.0
  0
LINE
  5
3FF
330
1E
100
AcDbEntity
  8
1
  6
Continuous
 62
     7
100
AcDbLine
 10
557.0
 20
469.856456
 30
0.0
 11
557.0
 21
469.0
 31
0.0
  0
LINE
  5
400
330
1E
100
AcDbEntity
  8
1
  6
Continuous
 62
     7
100
AcDbLine
 10
557.0
 20
469.0
 30
0.0
 11
559.0
 21
469.0
 31
0.0
  0
LINE
  5
401
330
1E
100
AcDbEntity
  8
1
  6
Continuous
 62
     7
100
AcDbLine
 10
559.0
 20
469.0
 30
0.0
 11
559.0
 21
469.856456
 31
0.0
  0
CIRCLE
  5
402
330
1E
100
AcDbEntity
  8
1
  6
Continuous
 62
     7
100
AcDbCircle
 10
558.0
 20
474.5
 30
0.0
 40
2.2
  0
CIRCLE
  5
403
330
1E
100
AcDbEntity
  8
1
  6
Continuous
 62
     7
100
AcDbCircle
 10
558.0
 20
474.5
 30
0.0
 40
0.6
  0
LINE
  5
404
330
1E
100
AcDbEntity
  8
1
  6
Continuous
 62
     7
100
AcDbLine
 10
540.0
 20
416.0
 30
0.0
 11
585.0
 21
416.0
 31
0.0
  0
LINE
  5
405
330
1E
100
AcDbEntity
  8
1
  6
Continuous
 62
     7
100
AcDbLine
 10
569.5
 20
408.0
 30
0.0
 11
568.250001
 21
410.1650629999999
 31
0.0
  0
LINE
  5
406
330
1E
100
AcDbEntity
  8
1
  6
Continuous
 62
     7
100
AcDbLine
 10
568.250001
 20
410.1650629999999
 30
0.0
 11
565.7499999999999
 21
410.165064
 31
0.0
  0
LINE
  5
407
330
1E
100
AcDbEntity
  8
1
  6
Continuous
 62
     7
100
AcDbLine
 10
565.7499999999999
 20
410.165064
 30
0.0
 11
564.5
 21
408.0
 31
0.0
  0
LINE
  5
408
330
1E
100
AcDbEntity
  8
1
  6
Continuous
 62
     7
100
AcDbLine
 10
564.5
 20
408.0
 30
0.0
 11
565.7500009999999
 21
405.8349359999999
 31
0.0
  0
LINE
  5
409
330
1E
100
AcDbEntity
  8
1
  6
Continuous
 62
     7
100
AcDbLine
 10
565.7500009999999
 20
405.8349359999999
 30
0.0
 11
568.25
 21
405.834937
 31
0.0
  0
LINE
  5
40A
330
1E
100
AcDbEntity
  8
1
  6
Continuous
 62
     7
100
AcDbLine
 10
568.25
 20
405.834937
 30
0.0
 11
569.5
 21
408.0
 31
0.0
  0
CIRCLE
  5
40B
330
1E
100
AcDbEntity
  8
1
  6
Continuous
 62
     7
100
AcDbCircle
 10
567.0
 20
407.999999
 30
0.0
 40
1.5
  0
LINE
  5
40C
330
1E
100
AcDbEntity
  8
1
  6
Continuous
 62
     7
100
AcDbLine
 10
569.5
 20
383.0000019999999
 30
0.0
 11
568.250001
 21
385.1650649999999
 31
0.0
  0
LINE
  5
40D
330
1E
100
AcDbEntity
  8
1
  6
Continuous
 62
     7
100
AcDbLine
 10
568.250001
 20
385.1650649999999
 30
0.0
 11
565.7499999999999
 21
385.1650649999999
 31
0.0
  0
LINE
  5
40E
330
1E
100
AcDbEntity
  8
1
  6
Continuous
 62
     7
100
AcDbLine
 10
565.7499999999999
 20
385.1650649999999
 30
0.0
 11
564.5
 21
383.0000019999999
 31
0.0
  0
LINE
  5
40F
330
1E
100
AcDbEntity
  8
1
  6
Continuous
 62
     7
100
AcDbLine
 10
564.5
 20
383.0000019999999
 30
0.0
 11
565.7500009999999
 21
380.8349379999999
 31
0.0
  0
LINE
  5
410
330
1E
100
AcDbEntity
  8
1
  6
Continuous
 62
     7
100
AcDbLine
 10
565.7500009999999
 20
380.8349379999999
 30
0.0
 11
568.25
 21
380.8349379999999
 31
0.0
  0
LINE
  5
411
330
1E
100
AcDbEntity
  8
1
  6
Continuous
 62
     7
100
AcDbLine
 10
568.25
 20
380.8349379999999
 30
0.0
 11
569.5
 21
383.0000019999999
 31
0.0
  0
CIRCLE
  5
412
330
1E
100
AcDbEntity
  8
1
  6
Continuous
 62
     7
100
AcDbCircle
 10
567.0
 20
383.0
 30
0.0
 40
1.5
  0
ARC
  5
413
330
1E
100
AcDbEntity
  8
1
  6
Continuous
 62
     7
100
AcDbCircle
 10
565.0
 20
400.6164929999999
 30
0.0
 40
2.0
100
AcDbArc
 50
100.0
 51
180.0
  0
LINE
  5
414
330
1E
100
AcDbEntity
  8
1
  6
Continuous
 62
     7
100
AcDbLine
 10
568.6527039999999
 20
403.291416
 30
0.0
 11
564.6527039999999
 21
402.586108
 31
0.0
  0
ARC
  5
415
330
1E
100
AcDbEntity
  8
1
  6
Continuous
 62
     7
100
AcDbCircle
 10
569.0
 20
401.321801
 30
0.0
 40
2.0
100
AcDbArc
 50
0.0
 51
100.0
  0
LINE
  5
416
330
1E
100
AcDbEntity
  8
1
  6
Continuous
 62
     7
100
AcDbLine
 10
571.0
 20
389.678199
 30
0.0
 11
571.0
 21
401.321801
 31
0.0
  0
ARC
  5
417
330
1E
100
AcDbEntity
  8
1
  6
Continuous
 62
     7
100
AcDbCircle
 10
569.0
 20
389.678199
 30
0.0
 40
2.0
100
AcDbArc
 50
260.0
 51
0.0
  0
LINE
  5
418
330
1E
100
AcDbEntity
  8
1
  6
Continuous
 62
     7
100
AcDbLine
 10
564.6527039999999
 20
388.4138919999999
 30
0.0
 11
568.6527039999999
 21
387.7085839999999
 31
0.0
  0
LINE
  5
419
330
1E
100
AcDbEntity
  8
1
  6
Continuous
 62
     7
100
AcDbLine
 10
563.0
 20
400.6164929999999
 30
0.0
 11
563.0
 21
390.3835069999999
 31
0.0
  0
ARC
  5
41A
330
1E
100
AcDbEntity
  8
1
  6
Continuous
 62
     7
100
AcDbCircle
 10
565.0
 20
390.3835069999999
 30
0.0
 40
2.0
100
AcDbArc
 50
180.0
 51
260.0
  0
CIRCLE
  5
41B
330
1E
100
AcDbEntity
  8
1
  6
Continuous
 62
     7
100
AcDbCircle
 10
565.0
 20
400.6
 30
0.0
 40
0.7
  0
CIRCLE
  5
41C
330
1E
100
AcDbEntity
  8
1
  6
Continuous
 62
     7
100
AcDbCircle
 10
565.0
 20
398.3
 30
0.0
 40
0.7
  0
CIRCLE
  5
41D
330
1E
100
AcDbEntity
  8
1
  6
Continuous
 62
     7
100
AcDbCircle
 10
565.0
 20
396.0
 30
0.0
 40
0.7
  0
CIRCLE
  5
41E
330
1E
100
AcDbEntity
  8
1
  6
Continuous
 62
     7
100
AcDbCircle
 10
565.0
 20
393.6999999999999
 30
0.0
 40
0.7
  0
CIRCLE
  5
41F
330
1E
100
AcDbEntity
  8
1
  6
Continuous
 62
     7
100
AcDbCircle
 10
565.0
 20
391.3999999999999
 30
0.0
 40
0.7
  0
CIRCLE
  5
420
330
1E
100
AcDbEntity
  8
1
  6
Continuous
 62
     7
100
AcDbCircle
 10
569.0
 20
400.6
 30
0.0
 40
0.7
  0
CIRCLE
  5
421
330
1E
100
AcDbEntity
  8
1
  6
Continuous
 62
     7
100
AcDbCircle
 10
569.0
 20
398.3
 30
0.0
 40
0.7
  0
CIRCLE
  5
422
330
1E
100
AcDbEntity
  8
1
  6
Continuous
 62
     7
100
AcDbCircle
 10
569.0
 20
396.0
 30
0.0
 40
0.7
  0
CIRCLE
  5
423
330
1E
100
AcDbEntity
  8
1
  6
Continuous
 62
     7
100
AcDbCircle
 10
569.0
 20
393.6999999999999
 30
0.0
 40
0.7
  0
CIRCLE
  5
424
330
1E
100
AcDbEntity
  8
1
  6
Continuous
 62
     7
100
AcDbCircle
 10
569.0
 20
391.3999999999999
 30
0.0
 40
0.7
  0
CIRCLE
  5
425
330
1E
100
AcDbEntity
  8
1
  6
Continuous
 62
     7
100
AcDbCircle
 10
567.0
 20
399.45
 30
0.0
 40
0.7
  0
CIRCLE
  5
426
330
1E
100
AcDbEntity
  8
1
  6
Continuous
 62
     7
100
AcDbCircle
 10
567.0
 20
397.1499999999999
 30
0.0
 40
0.7
  0
CIRCLE
  5
427
330
1E
100
AcDbEntity
  8
1
  6
Continuous
 62
     7
100
AcDbCircle
 10
567.0
 20
394.85
 30
0.0
 40
0.7
  0
CIRCLE
  5
428
330
1E
100
AcDbEntity
  8
1
  6
Continuous
 62
     7
100
AcDbCircle
 10
567.0
 20
392.5499999999999
 30
0.0
 40
0.7
  0
CIRCLE
  5
429
330
1E
100
AcDbEntity
  8
1
  6
Continuous
 62
     7
100
AcDbCircle
 10
567.0
 20
390.25
 30
0.0
 40
0.7
  0
ARC
  5
42A
330
1E
100
AcDbEntity
  8
1
  6
Continuous
 62
     7
100
AcDbCircle
 10
575.4999999999999
 20
341.5
 30
0.0
 40
2.0
100
AcDbArc
 50
270.0
 51
0.0
  0
LINE
  5
42B
330
1E
100
AcDbEntity
  8
1
  6
Continuous
 62
     7
100
AcDbLine
 10
577.5
 20
341.5
 30
0.0
 11
577.5
 21
360.4999999999999
 31
0.0
  0
ARC
  5
42C
330
1E
100
AcDbEntity
  8
1
  6
Continuous
 62
     7
100
AcDbCircle
 10
575.4999999999999
 20
360.4999999999999
 30
0.0
 40
2.0
100
AcDbArc
 50
0.0
 51
90.0
  0
LINE
  5
42D
330
1E
100
AcDbEntity
  8
1
  6
Continuous
 62
     7
100
AcDbLine
 10
575.4999999999999
 20
362.5
 30
0.0
 11
567.3284269999999
 21
362.5
 31
0.0
  0
ARC
  5
42E
330
1E
100
AcDbEntity
  8
1
  6
Continuous
 62
     7
100
AcDbCircle
 10
567.3284269999999
 20
360.4999999999999
 30
0.0
 40
2.0
100
AcDbArc
 50
90.0
 51
135.0
  0
LINE
  5
42F
330
1E
100
AcDbEntity
  8
1
  6
Continuous
 62
     7
100
AcDbLine
 10
565.914214
 20
361.914214
 30
0.0
 11
561.585786
 21
357.5857859999999
 31
0.0
  0
ARC
  5
430
330
1E
100
AcDbEntity
  8
1
  6
Continuous
 62
     7
100
AcDbCircle
 10
563.0
 20
356.171573
 30
0.0
 40
2.0
100
AcDbArc
 50
135.0
 51
180.0
  0
LINE
  5
431
330
1E
100
AcDbEntity
  8
1
  6
Continuous
 62
     7
100
AcDbLine
 10
561.0
 20
356.171573
 30
0.0
 11
561.0
 21
345.828427
 31
0.0
  0
ARC
  5
432
330
1E
100
AcDbEntity
  8
1
  6
Continuous
 62
     7
100
AcDbCircle
 10
563.0
 20
345.828427
 30
0.0
 40
2.0
100
AcDbArc
 50
180.0
 51
225.0
  0
LINE
  5
433
330
1E
100
AcDbEntity
  8
1
  6
Continuous
 62
     7
100
AcDbLine
 10
561.585786
 20
344.414214
 30
0.0
 11
565.914214
 21
340.0857859999999
 31
0.0
  0
LINE
  5
434
330
1E
100
AcDbEntity
  8
1
  6
Continuous
 62
     7
100
AcDbLine
 10
567.3284269999999
 20
339.5
 30
0.0
 11
575.4999999999999
 21
339.5
 31
0.0
  0
ARC
  5
435
330
1E
100
AcDbEntity
  8
1
  6
Continuous
 62
     7
100
AcDbCircle
 10
567.3284269999999
 20
341.5
 30
0.0
 40
2.0
100
AcDbArc
 50
225.0
 51
270.0
  0
ARC
  5
436
330
1E
100
AcDbEntity
  8
1
  6
Continuous
 62
     7
100
AcDbCircle
 10
558.4999999999999
 20
365.0
 30
0.0
 40
1.0
100
AcDbArc
 50
90.0
 51
180.0
  0
LINE
  5
437
330
1E
100
AcDbEntity
  8
1
  6
Continuous
 62
     7
100
AcDbLine
 10
580.0
 20
366.0
 30
0.0
 11
558.4999999999999
 21
366.0
 31
0.0
  0
ARC
  5
438
330
1E
100
AcDbEntity
  8
1
  6
Continuous
 62
     7
100
AcDbCircle
 10
580.0
 20
365.0
 30
0.0
 40
1.0
100
AcDbArc
 50
0.0
 51
90.0
  0
LINE
  5
439
330
1E
100
AcDbEntity
  8
1
  6
Continuous
 62
     7
100
AcDbLine
 10
581.0
 20
337.0
 30
0.0
 11
581.0
 21
365.0
 31
0.0
  0
ARC
  5
43A
330
1E
100
AcDbEntity
  8
1
  6
Continuous
 62
     7
100
AcDbCircle
 10
580.0
 20
337.0
 30
0.0
 40
1.0
100
AcDbArc
 50
270.0
 51
0.0
  0
LINE
  5
43B
330
1E
100
AcDbEntity
  8
1
  6
Continuous
 62
     7
100
AcDbLine
 10
558.4999999999999
 20
336.0
 30
0.0
 11
580.0
 21
336.0
 31
0.0
  0
LINE
  5
43C
330
1E
100
AcDbEntity
  8
1
  6
Continuous
 62
     7
100
AcDbLine
 10
557.5
 20
365.0
 30
0.0
 11
557.5
 21
337.0
 31
0.0
  0
ARC
  5
43D
330
1E
100
AcDbEntity
  8
1
  6
Continuous
 62
     7
100
AcDbCircle
 10
558.4999999999999
 20
337.0
 30
0.0
 40
1.0
100
AcDbArc
 50
180.0
 51
270.0
  0
LINE
  5
43E
330
1E
100
AcDbEntity
  8
1
  6
Continuous
 62
     7
100
AcDbLine
 10
565.5
 20
352.0
 30
0.0
 11
565.5
 21
350.0
 31
0.0
  0
LINE
  5
43F
330
1E
100
AcDbEntity
  8
1
  6
Continuous
 62
     7
100
AcDbLine
 10
565.5
 20
350.0
 30
0.0
 11
569.5
 21
350.0
 31
0.0
  0
LINE
  5
440
330
1E
100
AcDbEntity
  8
1
  6
Continuous
 62
     7
100
AcDbLine
 10
569.5
 20
350.0
 30
0.0
 11
569.5
 21
352.0
 31
0.0
  0
LINE
  5
441
330
1E
100
AcDbEntity
  8
1
  6
Continuous
 62
     7
100
AcDbLine
 10
569.5
 20
352.0
 30
0.0
 11
565.5
 21
352.0
 31
0.0
  0
LINE
  5
442
330
1E
100
AcDbEntity
  8
1
  6
Continuous
 62
     7
100
AcDbLine
 10
565.5
 20
351.5
 30
0.0
 11
569.5
 21
351.5
 31
0.0
  0
LINE
  5
443
330
1E
100
AcDbEntity
  8
1
  6
Continuous
 62
     7
100
AcDbLine
 10
565.5
 20
350.4999999999999
 30
0.0
 11
569.5
 21
350.4999999999999
 31
0.0
  0
LINE
  5
444
330
1E
100
AcDbEntity
  8
1
  6
Continuous
 62
     7
100
AcDbLine
 10
569.0
 20
356.7499999999999
 30
0.0
 11
569.0
 21
354.7499999999999
 31
0.0
  0
LINE
  5
445
330
1E
100
AcDbEntity
  8
1
  6
Continuous
 62
     7
100
AcDbLine
 10
569.0
 20
354.7499999999999
 30
0.0
 11
573.0
 21
354.7499999999999
 31
0.0
  0
LINE
  5
446
330
1E
100
AcDbEntity
  8
1
  6
Continuous
 62
     7
100
AcDbLine
 10
573.0
 20
354.7499999999999
 30
0.0
 11
573.0
 21
356.7499999999999
 31
0.0
  0
LINE
  5
447
330
1E
100
AcDbEntity
  8
1
  6
Continuous
 62
     7
100
AcDbLine
 10
573.0
 20
356.7499999999999
 30
0.0
 11
569.0
 21
356.7499999999999
 31
0.0
  0
LINE
  5
448
330
1E
100
AcDbEntity
  8
1
  6
Continuous
 62
     7
100
AcDbLine
 10
569.0
 20
356.25
 30
0.0
 11
573.0
 21
356.25
 31
0.0
  0
LINE
  5
449
330
1E
100
AcDbEntity
  8
1
  6
Continuous
 62
     7
100
AcDbLine
 10
569.0
 20
355.25
 30
0.0
 11
573.0
 21
355.25
 31
0.0
  0
LINE
  5
44A
330
1E
100
AcDbEntity
  8
1
  6
Continuous
 62
     7
100
AcDbLine
 10
569.0
 20
347.25
 30
0.0
 11
569.0
 21
345.25
 31
0.0
  0
LINE
  5
44B
330
1E
100
AcDbEntity
  8
1
  6
Continuous
 62
     7
100
AcDbLine
 10
569.0
 20
345.25
 30
0.0
 11
573.0
 21
345.25
 31
0.0
  0
LINE
  5
44C
330
1E
100
AcDbEntity
  8
1
  6
Continuous
 62
     7
100
AcDbLine
 10
573.0
 20
345.25
 30
0.0
 11
573.0
 21
347.25
 31
0.0
  0
LINE
  5
44D
330
1E
100
AcDbEntity
  8
1
  6
Continuous
 62
     7
100
AcDbLine
 10
573.0
 20
347.25
 30
0.0
 11
569.0
 21
347.25
 31
0.0
  0
LINE
  5
44E
330
1E
100
AcDbEntity
  8
1
  6
Continuous
 62
     7
100
AcDbLine
 10
569.0
 20
346.75
 30
0.0
 11
573.0
 21
346.75
 31
0.0
  0
LINE
  5
44F
330
1E
100
AcDbEntity
  8
1
  6
Continuous
 62
     7
100
AcDbLine
 10
569.0
 20
345.75
 30
0.0
 11
573.0
 21
345.75
 31
0.0
  0
LINE
  5
451
330
1E
100
AcDbEntity
  8
1
  6
Continuous
 62
     7
100
AcDbLine
 10
247.5
 20
300.0
 30
0.0
 11
88.49999999999999
 21
300.0
 31
0.0
  0
ARC
  5
452
330
1E
100
AcDbEntity
  8
1
  6
Continuous
 62
     7
100
AcDbCircle
 10
88.49999999999999
 20
303.5
 30
0.0
 40
3.5
100
AcDbArc
 50
180.0
 51
270.0
  0
LINE
  5
453
330
1E
100
AcDbEntity
  8
1
  6
Continuous
 62
     7
100
AcDbLine
 10
471.4999999999999
 20
300.0
 30
0.0
 11
312.5
 21
300.0
 31
0.0
  0
ARC
  5
454
330
1E
100
AcDbEntity
  8
1
  6
Continuous
 62
     7
100
AcDbCircle
 10
471.4999999999999
 20
303.5
 30
0.0
 40
3.5
100
AcDbArc
 50
270.0
 51
0.0
  0
LINE
  5
455
330
1E
100
AcDbEntity
  8
1
  6
Continuous
 62
     7
100
AcDbLine
 10
475.0
 20
651.0
 30
0.0
 11
475.0
 21
303.5
 31
0.0
  0
ARC
  5
456
330
1E
100
AcDbEntity
  8
1
  6
Continuous
 62
     7
100
AcDbCircle
 10
471.4999999999999
 20
651.0
 30
0.0
 40
3.5
100
AcDbArc
 50
0.0
 51
90.0
  0
LINE
  5
457
330
1E
100
AcDbEntity
  8
1
  6
Continuous
 62
     7
100
AcDbLine
 10
85.0
 20
303.5
 30
0.0
 11
85.0
 21
651.0
 31
0.0
  0
LINE
  5
458
330
1E
100
AcDbEntity
  8
1
  6
Continuous
 62
     7
100
AcDbLine
 10
88.49999999999999
 20
654.4999999999999
 30
0.0
 11
471.4999999999999
 21
654.4999999999999
 31
0.0
  0
ARC
  5
459
330
1E
100
AcDbEntity
  8
1
  6
Continuous
 62
     7
100
AcDbCircle
 10
88.49999999999999
 20
651.0
 30
0.0
 40
3.5
100
AcDbArc
 50
90.0
 51
180.0
  0
LINE
  5
45A
330
1E
100
AcDbEntity
  8
1
  6
Continuous
 62
     7
100
AcDbLine
 10
395.0
 20
633.4999999999999
 30
0.0
 11
395.0
 21
416.0
 31
0.0
  0
LINE
  5
45B
330
1E
100
AcDbEntity
  8
1
  6
Continuous
 62
     7
100
AcDbLine
 10
395.0
 20
616.5
 30
0.0
 11
400.4999999999999
 21
616.5
 31
0.0
  0
ARC
  5
45C
330
1E
100
AcDbEntity
  8
1
  6
Continuous
 62
     7
100
AcDbCircle
 10
400.4999999999999
 20
615.0
 30
0.0
 40
1.5
100
AcDbArc
 50
0.0
 51
90.0
  0
LINE
  5
45D
330
1E
100
AcDbEntity
  8
1
  6
Continuous
 62
     7
100
AcDbLine
 10
402.0
 20
615.0
 30
0.0
 11
402.0
 21
610.0
 31
0.0
  0
LINE
  5
45E
330
1E
100
AcDbEntity
  8
1
  6
Continuous
 62
     7
100
AcDbLine
 10
400.4999999999999
 20
608.4999999999999
 30
0.0
 11
395.0
 21
608.4999999999999
 31
0.0
  0
ARC
  5
45F
330
1E
100
AcDbEntity
  8
1
  6
Continuous
 62
     7
100
AcDbCircle
 10
400.4999999999999
 20
610.0
 30
0.0
 40
1.5
100
AcDbArc
 50
270.0
 51
0.0
  0
LINE
  5
460
330
1E
100
AcDbEntity
  8
1
  6
Continuous
 62
     7
100
AcDbLine
 10
395.0
 20
602.5
 30
0.0
 11
400.4999999999999
 21
602.5
 31
0.0
  0
ARC
  5
461
330
1E
100
AcDbEntity
  8
1
  6
Continuous
 62
     7
100
AcDbCircle
 10
400.4999999999999
 20
601.0
 30
0.0
 40
1.5
100
AcDbArc
 50
0.0
 51
90.0
  0
LINE
  5
462
330
1E
100
AcDbEntity
  8
1
  6
Continuous
 62
     7
100
AcDbLine
 10
402.0
 20
601.0
 30
0.0
 11
402.0
 21
596.0
 31
0.0
  0
LINE
  5
463
330
1E
100
AcDbEntity
  8
1
  6
Continuous
 62
     7
100
AcDbLine
 10
400.4999999999999
 20
594.5
 30
0.0
 11
395.0
 21
594.5
 31
0.0
  0
ARC
  5
464
330
1E
100
AcDbEntity
  8
1
  6
Continuous
 62
     7
100
AcDbCircle
 10
400.4999999999999
 20
596.0
 30
0.0
 40
1.5
100
AcDbArc
 50
270.0
 51
0.0
  0
LINE
  5
465
330
1E
100
AcDbEntity
  8
1
  6
Continuous
 62
     7
100
AcDbLine
 10
395.0
 20
584.4999999999999
 30
0.0
 11
400.4999999999999
 21
584.4999999999999
 31
0.0
  0
ARC
  5
466
330
1E
100
AcDbEntity
  8
1
  6
Continuous
 62
     7
100
AcDbCircle
 10
400.4999999999999
 20
583.0
 30
0.0
 40
1.5
100
AcDbArc
 50
0.0
 51
90.0
  0
LINE
  5
467
330
1E
100
AcDbEntity
  8
1
  6
Continuous
 62
     7
100
AcDbLine
 10
402.0
 20
583.0
 30
0.0
 11
402.0
 21
578.0
 31
0.0
  0
LINE
  5
468
330
1E
100
AcDbEntity
  8
1
  6
Continuous
 62
     7
100
AcDbLine
 10
400.4999999999999
 20
576.4999999999999
 30
0.0
 11
395.0
 21
576.4999999999999
 31
0.0
  0
ARC
  5
469
330
1E
100
AcDbEntity
  8
1
  6
Continuous
 62
     7
100
AcDbCircle
 10
400.4999999999999
 20
578.0
 30
0.0
 40
1.5
100
AcDbArc
 50
270.0
 51
0.0
  0
LINE
  5
46A
330
1E
100
AcDbEntity
  8
1
  6
Continuous
 62
     7
100
AcDbLine
 10
395.0
 20
570.5
 30
0.0
 11
400.4999999999999
 21
570.5
 31
0.0
  0
ARC
  5
46B
330
1E
100
AcDbEntity
  8
1
  6
Continuous
 62
     7
100
AcDbCircle
 10
400.4999999999999
 20
569.0
 30
0.0
 40
1.5
100
AcDbArc
 50
0.0
 51
90.0
  0
LINE
  5
46C
330
1E
100
AcDbEntity
  8
1
  6
Continuous
 62
     7
100
AcDbLine
 10
402.0
 20
569.0
 30
0.0
 11
402.0
 21
564.0
 31
0.0
  0
LINE
  5
46D
330
1E
100
AcDbEntity
  8
1
  6
Continuous
 62
     7
100
AcDbLine
 10
400.4999999999999
 20
562.5
 30
0.0
 11
395.0
 21
562.5
 31
0.0
  0
ARC
  5
46E
330
1E
100
AcDbEntity
  8
1
  6
Continuous
 62
     7
100
AcDbCircle
 10
400.4999999999999
 20
564.0
 30
0.0
 40
1.5
100
AcDbArc
 50
270.0
 51
0.0
  0
ARC
  5
46F
330
1E
100
AcDbEntity
  8
1
  6
Continuous
 62
     7
100
AcDbCircle
 10
395.5
 20
604.25
 30
0.0
 40
1.5
100
AcDbArc
 50
270.0
 51
0.0
  0
ARC
  5
470
330
1E
100
AcDbEntity
  8
1
  6
Continuous
 62
     7
100
AcDbCircle
 10
395.5
 20
606.7499999999999
 30
0.0
 40
1.5
100
AcDbArc
 50
0.0
 51
90.0
  0
LINE
  5
471
330
1E
100
AcDbEntity
  8
1
  6
Continuous
 62
     7
100
AcDbLine
 10
397.0
 20
606.7499999999999
 30
0.0
 11
397.0
 21
604.25
 31
0.0
  0
LINE
  5
472
330
1E
100
AcDbEntity
  8
1
  6
Continuous
 62
     7
100
AcDbLine
 10
395.5
 20
608.4999999999999
 30
0.0
 11
395.5
 21
602.5
 31
0.0
  0
ARC
  5
473
330
1E
100
AcDbEntity
  8
1
  6
Continuous
 62
     7
100
AcDbCircle
 10
395.5
 20
572.25
 30
0.0
 40
1.5
100
AcDbArc
 50
270.0
 51
0.0
  0
ARC
  5
474
330
1E
100
AcDbEntity
  8
1
  6
Continuous
 62
     7
100
AcDbCircle
 10
395.5
 20
574.75
 30
0.0
 40
1.5
100
AcDbArc
 50
0.0
 51
90.0
  0
LINE
  5
475
330
1E
100
AcDbEntity
  8
1
  6
Continuous
 62
     7
100
AcDbLine
 10
397.0
 20
574.75
 30
0.0
 11
397.0
 21
572.25
 31
0.0
  0
LINE
  5
476
330
1E
100
AcDbEntity
  8
1
  6
Continuous
 62
     7
100
AcDbLine
 10
395.5
 20
576.4999999999999
 30
0.0
 11
395.5
 21
570.5
 31
0.0
  0
LINE
  5
477
330
1E
100
AcDbEntity
  8
1
  6
Continuous
 62
     7
100
AcDbLine
 10
395.0
 20
533.25
 30
0.0
 11
406.5
 21
533.25
 31
0.0
  0
LINE
  5
478
330
1E
100
AcDbEntity
  8
1
  6
Continuous
 62
     7
100
AcDbLine
 10
406.5
 20
533.25
 30
0.0
 11
406.5
 21
523.7499999999999
 31
0.0
  0
LINE
  5
479
330
1E
100
AcDbEntity
  8
1
  6
Continuous
 62
     7
100
AcDbLine
 10
406.5
 20
523.7499999999999
 30
0.0
 11
395.0
 21
523.7499999999999
 31
0.0
  0
LINE
  5
47A
330
1E
100
AcDbEntity
  8
1
  6
Continuous
 62
     7
100
AcDbLine
 10
401.0
 20
533.25
 30
0.0
 11
401.0
 21
534.0
 31
0.0
  0
LINE
  5
47B
330
1E
100
AcDbEntity
  8
1
  6
Continuous
 62
     7
100
AcDbLine
 10
401.0
 20
534.0
 30
0.0
 11
403.0
 21
534.0
 31
0.0
  0
LINE
  5
47C
330
1E
100
AcDbEntity
  8
1
  6
Continuous
 62
     7
100
AcDbLine
 10
403.0
 20
534.0
 30
0.0
 11
403.0
 21
533.25
 31
0.0
  0
LINE
  5
47D
330
1E
100
AcDbEntity
  8
1
  6
Continuous
 62
     7
100
AcDbLine
 10
401.0
 20
523.7499999999999
 30
0.0
 11
401.0
 21
523.0
 31
0.0
  0
LINE
  5
47E
330
1E
100
AcDbEntity
  8
1
  6
Continuous
 62
     7
100
AcDbLine
 10
401.0
 20
523.0
 30
0.0
 11
403.0
 21
523.0
 31
0.0
  0
LINE
  5
47F
330
1E
100
AcDbEntity
  8
1
  6
Continuous
 62
     7
100
AcDbLine
 10
403.0
 20
523.0
 30
0.0
 11
403.0
 21
523.7499999999999
 31
0.0
  0
LINE
  5
480
330
1E
100
AcDbEntity
  8
1
  6
Continuous
 62
     7
100
AcDbLine
 10
395.0
 20
515.2499999999999
 30
0.0
 11
406.5
 21
515.2499999999999
 31
0.0
  0
LINE
  5
481
330
1E
100
AcDbEntity
  8
1
  6
Continuous
 62
     7
100
AcDbLine
 10
406.5
 20
515.2499999999999
 30
0.0
 11
406.5
 21
505.75
 31
0.0
  0
LINE
  5
482
330
1E
100
AcDbEntity
  8
1
  6
Continuous
 62
     7
100
AcDbLine
 10
406.5
 20
505.75
 30
0.0
 11
395.0
 21
505.75
 31
0.0
  0
LINE
  5
483
330
1E
100
AcDbEntity
  8
1
  6
Continuous
 62
     7
100
AcDbLine
 10
401.0
 20
515.2499999999999
 30
0.0
 11
401.0
 21
516.0
 31
0.0
  0
LINE
  5
484
330
1E
100
AcDbEntity
  8
1
  6
Continuous
 62
     7
100
AcDbLine
 10
401.0
 20
516.0
 30
0.0
 11
403.0
 21
516.0
 31
0.0
  0
LINE
  5
485
330
1E
100
AcDbEntity
  8
1
  6
Continuous
 62
     7
100
AcDbLine
 10
403.0
 20
516.0
 30
0.0
 11
403.0
 21
515.2499999999999
 31
0.0
  0
LINE
  5
486
330
1E
100
AcDbEntity
  8
1
  6
Continuous
 62
     7
100
AcDbLine
 10
401.0
 20
505.75
 30
0.0
 11
401.0
 21
505.0
 31
0.0
  0
LINE
  5
487
330
1E
100
AcDbEntity
  8
1
  6
Continuous
 62
     7
100
AcDbLine
 10
401.0
 20
505.0
 30
0.0
 11
403.0
 21
505.0
 31
0.0
  0
LINE
  5
488
330
1E
100
AcDbEntity
  8
1
  6
Continuous
 62
     7
100
AcDbLine
 10
403.0
 20
505.0
 30
0.0
 11
403.0
 21
505.75
 31
0.0
  0
LINE
  5
489
330
1E
100
AcDbEntity
  8
1
  6
Continuous
 62
     7
100
AcDbLine
 10
395.0
 20
497.25
 30
0.0
 11
406.5
 21
497.25
 31
0.0
  0
LINE
  5
48A
330
1E
100
AcDbEntity
  8
1
  6
Continuous
 62
     7
100
AcDbLine
 10
406.5
 20
497.25
 30
0.0
 11
406.5
 21
487.75
 31
0.0
  0
LINE
  5
48B
330
1E
100
AcDbEntity
  8
1
  6
Continuous
 62
     7
100
AcDbLine
 10
406.5
 20
487.75
 30
0.0
 11
395.0
 21
487.75
 31
0.0
  0
LINE
  5
48C
330
1E
100
AcDbEntity
  8
1
  6
Continuous
 62
     7
100
AcDbLine
 10
401.0
 20
497.25
 30
0.0
 11
401.0
 21
498.0
 31
0.0
  0
LINE
  5
48D
330
1E
100
AcDbEntity
  8
1
  6
Continuous
 62
     7
100
AcDbLine
 10
401.0
 20
498.0
 30
0.0
 11
403.0
 21
498.0
 31
0.0
  0
LINE
  5
48E
330
1E
100
AcDbEntity
  8
1
  6
Continuous
 62
     7
100
AcDbLine
 10
403.0
 20
498.0
 30
0.0
 11
403.0
 21
497.25
 31
0.0
  0
LINE
  5
48F
330
1E
100
AcDbEntity
  8
1
  6
Continuous
 62
     7
100
AcDbLine
 10
401.0
 20
487.75
 30
0.0
 11
401.0
 21
487.0
 31
0.0
  0
LINE
  5
490
330
1E
100
AcDbEntity
  8
1
  6
Continuous
 62
     7
100
AcDbLine
 10
401.0
 20
487.0
 30
0.0
 11
403.0
 21
487.0
 31
0.0
  0
LINE
  5
491
330
1E
100
AcDbEntity
  8
1
  6
Continuous
 62
     7
100
AcDbLine
 10
403.0
 20
487.0
 30
0.0
 11
403.0
 21
487.75
 31
0.0
  0
LINE
  5
492
330
1E
100
AcDbEntity
  8
1
  6
Continuous
 62
     7
100
AcDbLine
 10
395.0
 20
479.25
 30
0.0
 11
406.5
 21
479.25
 31
0.0
  0
LINE
  5
493
330
1E
100
AcDbEntity
  8
1
  6
Continuous
 62
     7
100
AcDbLine
 10
406.5
 20
479.25
 30
0.0
 11
406.5
 21
469.7499999999999
 31
0.0
  0
LINE
  5
494
330
1E
100
AcDbEntity
  8
1
  6
Continuous
 62
     7
100
AcDbLine
 10
406.5
 20
469.7499999999999
 30
0.0
 11
395.0
 21
469.7499999999999
 31
0.0
  0
LINE
  5
495
330
1E
100
AcDbEntity
  8
1
  6
Continuous
 62
     7
100
AcDbLine
 10
401.0
 20
479.25
 30
0.0
 11
401.0
 21
480.0
 31
0.0
  0
LINE
  5
496
330
1E
100
AcDbEntity
  8
1
  6
Continuous
 62
     7
100
AcDbLine
 10
401.0
 20
480.0
 30
0.0
 11
403.0
 21
480.0
 31
0.0
  0
LINE
  5
497
330
1E
100
AcDbEntity
  8
1
  6
Continuous
 62
     7
100
AcDbLine
 10
403.0
 20
480.0
 30
0.0
 11
403.0
 21
479.25
 31
0.0
  0
LINE
  5
498
330
1E
100
AcDbEntity
  8
1
  6
Continuous
 62
     7
100
AcDbLine
 10
401.0
 20
469.7499999999999
 30
0.0
 11
401.0
 21
469.0
 31
0.0
  0
LINE
  5
499
330
1E
100
AcDbEntity
  8
1
  6
Continuous
 62
     7
100
AcDbLine
 10
401.0
 20
469.0
 30
0.0
 11
403.0
 21
469.0
 31
0.0
  0
LINE
  5
49A
330
1E
100
AcDbEntity
  8
1
  6
Continuous
 62
     7
100
AcDbLine
 10
403.0
 20
469.0
 30
0.0
 11
403.0
 21
469.7499999999999
 31
0.0
  0
LINE
  5
49B
330
1E
100
AcDbEntity
  8
1
  6
Continuous
 62
     7
100
AcDbLine
 10
395.0
 20
444.0
 30
0.0
 11
397.0
 21
444.0
 31
0.0
  0
LINE
  5
49C
330
1E
100
AcDbEntity
  8
1
  6
Continuous
 62
     7
100
AcDbLine
 10
397.0
 20
444.0
 30
0.0
 11
397.0
 21
438.0
 31
0.0
  0
LINE
  5
49D
330
1E
100
AcDbEntity
  8
1
  6
Continuous
 62
     7
100
AcDbLine
 10
397.0
 20
438.0
 30
0.0
 11
395.0
 21
438.0
 31
0.0
  0
LINE
  5
49E
330
1E
100
AcDbEntity
  8
1
  6
Continuous
 62
     7
100
AcDbLine
 10
395.0
 20
416.0
 30
0.0
 11
405.0
 21
416.0
 31
0.0
  0
LINE
  5
49F
330
1E
100
AcDbEntity
  8
1
  6
Continuous
 62
     7
100
AcDbLine
 10
405.0
 20
416.0
 30
0.0
 11
405.0
 21
469.7499999999999
 31
0.0
  0
LINE
  5
4A0
330
1E
100
AcDbEntity
  8
1
  6
Continuous
 62
     7
100
AcDbLine
 10
361.0
 20
416.0
 30
0.0
 11
395.0
 21
416.0
 31
0.0
  0
LINE
  5
4A1
330
1E
100
AcDbEntity
  8
1
  6
Continuous
 62
     7
100
AcDbLine
 10
361.0
 20
416.0
 30
0.0
 11
361.0
 21
326.0
 31
0.0
  0
LINE
  5
4A2
330
1E
100
AcDbEntity
  8
1
  6
Continuous
 62
     7
100
AcDbLine
 10
361.0
 20
385.1650649999999
 30
0.0
 11
366.0
 21
385.1650649999999
 31
0.0
  0
LINE
  5
4A3
330
1E
100
AcDbEntity
  8
1
  6
Continuous
 62
     7
100
AcDbLine
 10
366.0
 20
385.1650649999999
 30
0.0
 11
366.0
 21
380.8349379999999
 31
0.0
  0
LINE
  5
4A4
330
1E
100
AcDbEntity
  8
1
  6
Continuous
 62
     7
100
AcDbLine
 10
366.0
 20
380.8349379999999
 30
0.0
 11
361.0
 21
380.8349379999999
 31
0.0
  0
LINE
  5
4A5
330
1E
100
AcDbEntity
  8
1
  6
Continuous
 62
     7
100
AcDbLine
 10
361.0
 20
383.0000019999999
 30
0.0
 11
366.0
 21
383.0000019999999
 31
0.0
  0
LINE
  5
4A6
330
1E
100
AcDbEntity
  8
1
  6
Continuous
 62
     7
100
AcDbLine
 10
361.0
 20
403.3218009999999
 30
0.0
 11
364.5
 21
403.3218009999999
 31
0.0
  0
ARC
  5
4A7
330
1E
100
AcDbEntity
  8
1
  6
Continuous
 62
     7
100
AcDbCircle
 10
364.5
 20
401.821801
 30
0.0
 40
1.5
100
AcDbArc
 50
0.0
 51
90.0
  0
LINE
  5
4A8
330
1E
100
AcDbEntity
  8
1
  6
Continuous
 62
     7
100
AcDbLine
 10
366.0
 20
401.821801
 30
0.0
 11
366.0
 21
389.178199
 31
0.0
  0
LINE
  5
4A9
330
1E
100
AcDbEntity
  8
1
  6
Continuous
 62
     7
100
AcDbLine
 10
364.5
 20
387.6781989999999
 30
0.0
 11
361.0
 21
387.6781989999999
 31
0.0
  0
ARC
  5
4AA
330
1E
100
AcDbEntity
  8
1
  6
Continuous
 62
     7
100
AcDbCircle
 10
364.5
 20
389.178199
 30
0.0
 40
1.5
100
AcDbArc
 50
270.0
 51
0.0
  0
LINE
  5
4AB
330
1E
100
AcDbEntity
  8
1
  6
Continuous
 62
     7
100
AcDbLine
 10
361.0
 20
410.165064
 30
0.0
 11
366.0
 21
410.165064
 31
0.0
  0
LINE
  5
4AC
330
1E
100
AcDbEntity
  8
1
  6
Continuous
 62
     7
100
AcDbLine
 10
366.0
 20
410.165064
 30
0.0
 11
366.0
 21
405.8349359999999
 31
0.0
  0
LINE
  5
4AD
330
1E
100
AcDbEntity
  8
1
  6
Continuous
 62
     7
100
AcDbLine
 10
366.0
 20
405.8349359999999
 30
0.0
 11
361.0
 21
405.8349359999999
 31
0.0
  0
LINE
  5
4AE
330
1E
100
AcDbEntity
  8
1
  6
Continuous
 62
     7
100
AcDbLine
 10
361.0
 20
408.0
 30
0.0
 11
366.0
 21
408.0
 31
0.0
  0
LINE
  5
4AF
330
1E
100
AcDbEntity
  8
1
  6
Continuous
 62
     7
100
AcDbLine
 10
361.0
 20
366.0
 30
0.0
 11
364.0
 21
366.0
 31
0.0
  0
LINE
  5
4B0
330
1E
100
AcDbEntity
  8
1
  6
Continuous
 62
     7
100
AcDbLine
 10
364.0
 20
366.0
 30
0.0
 11
364.0
 21
336.0
 31
0.0
  0
LINE
  5
4B1
330
1E
100
AcDbEntity
  8
1
  6
Continuous
 62
     7
100
AcDbLine
 10
364.0
 20
336.0
 30
0.0
 11
361.0
 21
336.0
 31
0.0
  0
LINE
  5
4B2
330
1E
100
AcDbEntity
  8
1
  6
Continuous
 62
     7
100
AcDbLine
 10
371.0
 20
326.0
 30
0.0
 11
371.0
 21
416.0
 31
0.0
  0
LINE
  5
4B3
330
1E
100
AcDbEntity
  8
1
  6
Continuous
 62
     7
100
AcDbLine
 10
405.0
 20
479.25
 30
0.0
 11
405.0
 21
487.75
 31
0.0
  0
LINE
  5
4B4
330
1E
100
AcDbEntity
  8
1
  6
Continuous
 62
     7
100
AcDbLine
 10
405.0
 20
497.25
 30
0.0
 11
405.0
 21
505.75
 31
0.0
  0
LINE
  5
4B5
330
1E
100
AcDbEntity
  8
1
  6
Continuous
 62
     7
100
AcDbLine
 10
405.0
 20
515.2499999999999
 30
0.0
 11
405.0
 21
523.7499999999999
 31
0.0
  0
LINE
  5
4B6
330
1E
100
AcDbEntity
  8
1
  6
Continuous
 62
     7
100
AcDbLine
 10
405.0
 20
533.25
 30
0.0
 11
405.0
 21
633.4999999999999
 31
0.0
  0
LINE
  5
4B7
330
1E
100
AcDbEntity
  8
1
  6
Continuous
 62
     7
100
AcDbLine
 10
405.0
 20
633.4999999999999
 30
0.0
 11
395.0
 21
633.4999999999999
 31
0.0
  0
CIRCLE
  5
4B8
330
1E
100
AcDbEntity
  8
1
  6
Continuous
 62
     7
100
AcDbCircle
 10
465.0
 20
644.5
 30
0.0
 40
3.75
  0
CIRCLE
  5
4B9
330
1E
100
AcDbEntity
  8
1
  6
Continuous
 62
     7
100
AcDbCircle
 10
465.0
 20
644.5
 30
0.0
 40
2.75
  0
LINE
  5
4BA
330
1E
100
AcDbEntity
  8
1
  6
Continuous
 62
     7
100
AcDbLine
 10
465.0
 20
642.4999999999999
 30
0.0
 11
465.0
 21
646.4999999999999
 31
0.0
  0
LINE
  5
4BB
330
1E
100
AcDbEntity
  8
1
  6
Continuous
 62
     7
100
AcDbLine
 10
467.0
 20
644.5
 30
0.0
 11
463.0
 21
644.5
 31
0.0
  0
CIRCLE
  5
4BC
330
1E
100
AcDbEntity
  8
1
  6
Continuous
 62
     7
100
AcDbCircle
 10
405.0
 20
310.0
 30
0.0
 40
3.75
  0
CIRCLE
  5
4BD
330
1E
100
AcDbEntity
  8
1
  6
Continuous
 62
     7
100
AcDbCircle
 10
405.0
 20
310.0
 30
0.0
 40
2.75
  0
LINE
  5
4BE
330
1E
100
AcDbEntity
  8
1
  6
Continuous
 62
     7
100
AcDbLine
 10
405.0
 20
308.0
 30
0.0
 11
405.0
 21
312.0
 31
0.0
  0
LINE
  5
4BF
330
1E
100
AcDbEntity
  8
1
  6
Continuous
 62
     7
100
AcDbLine
 10
407.0
 20
310.0
 30
0.0
 11
403.0
 21
310.0
 31
0.0
  0
CIRCLE
  5
4C0
330
1E
100
AcDbEntity
  8
1
  6
Continuous
 62
     7
100
AcDbCircle
 10
465.0
 20
349.0
 30
0.0
 40
3.75
  0
CIRCLE
  5
4C1
330
1E
100
AcDbEntity
  8
1
  6
Continuous
 62
     7
100
AcDbCircle
 10
465.0
 20
349.0
 30
0.0
 40
2.75
  0
LINE
  5
4C2
330
1E
100
AcDbEntity
  8
1
  6
Continuous
 62
     7
100
AcDbLine
 10
465.0
 20
347.0
 30
0.0
 11
465.0
 21
351.0
 31
0.0
  0
LINE
  5
4C3
330
1E
100
AcDbEntity
  8
1
  6
Continuous
 62
     7
100
AcDbLine
 10
467.0
 20
349.0
 30
0.0
 11
463.0
 21
349.0
 31
0.0
  0
CIRCLE
  5
4C4
330
1E
100
AcDbEntity
  8
1
  6
Continuous
 62
     7
100
AcDbCircle
 10
450.0
 20
406.0
 30
0.0
 40
2.75
  0
LINE
  5
4C5
330
1E
100
AcDbEntity
  8
1
  6
Continuous
 62
     7
100
AcDbLine
 10
450.0
 20
404.0
 30
0.0
 11
450.0
 21
408.0
 31
0.0
  0
LINE
  5
4C6
330
1E
100
AcDbEntity
  8
1
  6
Continuous
 62
     7
100
AcDbLine
 10
452.0
 20
406.0
 30
0.0
 11
448.0
 21
406.0
 31
0.0
  0
CIRCLE
  5
4C7
330
1E
100
AcDbEntity
  8
1
  6
Continuous
 62
     7
100
AcDbCircle
 10
450.0
 20
496.0
 30
0.0
 40
2.75
  0
LINE
  5
4C8
330
1E
100
AcDbEntity
  8
1
  6
Continuous
 62
     7
100
AcDbLine
 10
450.0
 20
494.0
 30
0.0
 11
450.0
 21
498.0
 31
0.0
  0
LINE
  5
4C9
330
1E
100
AcDbEntity
  8
1
  6
Continuous
 62
     7
100
AcDbLine
 10
452.0
 20
496.0
 30
0.0
 11
448.0
 21
496.0
 31
0.0
  0
CIRCLE
  5
4CA
330
1E
100
AcDbEntity
  8
1
  6
Continuous
 62
     7
100
AcDbCircle
 10
450.0
 20
586.0
 30
0.0
 40
2.75
  0
LINE
  5
4CB
330
1E
100
AcDbEntity
  8
1
  6
Continuous
 62
     7
100
AcDbLine
 10
450.0
 20
584.0
 30
0.0
 11
450.0
 21
588.0
 31
0.0
  0
LINE
  5
4CC
330
1E
100
AcDbEntity
  8
1
  6
Continuous
 62
     7
100
AcDbLine
 10
452.0
 20
586.0
 30
0.0
 11
448.0
 21
586.0
 31
0.0
  0
CIRCLE
  5
4CD
330
1E
100
AcDbEntity
  8
1
  6
Continuous
 62
     7
100
AcDbCircle
 10
95.0
 20
644.5
 30
0.0
 40
3.75
  0
CIRCLE
  5
4CE
330
1E
100
AcDbEntity
  8
1
  6
Continuous
 62
     7
100
AcDbCircle
 10
95.0
 20
644.5
 30
0.0
 40
2.75
  0
LINE
  5
4CF
330
1E
100
AcDbEntity
  8
1
  6
Continuous
 62
     7
100
AcDbLine
 10
95.0
 20
642.4999999999999
 30
0.0
 11
95.0
 21
646.4999999999999
 31
0.0
  0
LINE
  5
4D0
330
1E
100
AcDbEntity
  8
1
  6
Continuous
 62
     7
100
AcDbLine
 10
93.0
 20
644.5
 30
0.0
 11
97.0
 21
644.5
 31
0.0
  0
CIRCLE
  5
4D1
330
1E
100
AcDbEntity
  8
1
  6
Continuous
 62
     7
100
AcDbCircle
 10
95.0
 20
349.0
 30
0.0
 40
3.75
  0
CIRCLE
  5
4D2
330
1E
100
AcDbEntity
  8
1
  6
Continuous
 62
     7
100
AcDbCircle
 10
95.0
 20
349.0
 30
0.0
 40
2.75
  0
LINE
  5
4D3
330
1E
100
AcDbEntity
  8
1
  6
Continuous
 62
     7
100
AcDbLine
 10
95.0
 20
347.0
 30
0.0
 11
95.0
 21
351.0
 31
0.0
  0
LINE
  5
4D4
330
1E
100
AcDbEntity
  8
1
  6
Continuous
 62
     7
100
AcDbLine
 10
93.0
 20
349.0
 30
0.0
 11
97.0
 21
349.0
 31
0.0
  0
CIRCLE
  5
4D5
330
1E
100
AcDbEntity
  8
1
  6
Continuous
 62
     7
100
AcDbCircle
 10
110.0
 20
406.0
 30
0.0
 40
2.75
  0
LINE
  5
4D6
330
1E
100
AcDbEntity
  8
1
  6
Continuous
 62
     7
100
AcDbLine
 10
110.0
 20
404.0
 30
0.0
 11
110.0
 21
408.0
 31
0.0
  0
LINE
  5
4D7
330
1E
100
AcDbEntity
  8
1
  6
Continuous
 62
     7
100
AcDbLine
 10
108.0
 20
406.0
 30
0.0
 11
112.0
 21
406.0
 31
0.0
  0
CIRCLE
  5
4D8
330
1E
100
AcDbEntity
  8
1
  6
Continuous
 62
     7
100
AcDbCircle
 10
110.0
 20
496.0
 30
0.0
 40
2.75
  0
LINE
  5
4D9
330
1E
100
AcDbEntity
  8
1
  6
Continuous
 62
     7
100
AcDbLine
 10
110.0
 20
494.0
 30
0.0
 11
110.0
 21
498.0
 31
0.0
  0
LINE
  5
4DA
330
1E
100
AcDbEntity
  8
1
  6
Continuous
 62
     7
100
AcDbLine
 10
108.0
 20
496.0
 30
0.0
 11
112.0
 21
496.0
 31
0.0
  0
CIRCLE
  5
4DB
330
1E
100
AcDbEntity
  8
1
  6
Continuous
 62
     7
100
AcDbCircle
 10
110.0
 20
586.0
 30
0.0
 40
2.75
  0
LINE
  5
4DC
330
1E
100
AcDbEntity
  8
1
  6
Continuous
 62
     7
100
AcDbLine
 10
110.0
 20
584.0
 30
0.0
 11
110.0
 21
588.0
 31
0.0
  0
LINE
  5
4DD
330
1E
100
AcDbEntity
  8
1
  6
Continuous
 62
     7
100
AcDbLine
 10
108.0
 20
586.0
 30
0.0
 11
112.0
 21
586.0
 31
0.0
  0
CIRCLE
  5
4DE
330
1E
100
AcDbEntity
  8
1
  6
Continuous
 62
     7
100
AcDbCircle
 10
155.0
 20
310.0
 30
0.0
 40
3.75
  0
CIRCLE
  5
4DF
330
1E
100
AcDbEntity
  8
1
  6
Continuous
 62
     7
100
AcDbCircle
 10
155.0
 20
310.0
 30
0.0
 40
2.75
  0
LINE
  5
4E0
330
1E
100
AcDbEntity
  8
1
  6
Continuous
 62
     7
100
AcDbLine
 10
155.0
 20
308.0
 30
0.0
 11
155.0
 21
312.0
 31
0.0
  0
LINE
  5
4E1
330
1E
100
AcDbEntity
  8
1
  6
Continuous
 62
     7
100
AcDbLine
 10
153.0
 20
310.0
 30
0.0
 11
157.0
 21
310.0
 31
0.0
  0
LINE
  5
4E2
330
1E
100
AcDbEntity
  8
1
  6
Continuous
 62
     7
100
AcDbLine
 10
119.0
 20
326.0
 30
0.0
 11
119.0
 21
633.4999999999999
 31
0.0
  0
LINE
  5
4E3
330
1E
100
AcDbEntity
  8
1
  6
Continuous
 62
     7
100
AcDbLine
 10
119.0
 20
326.0
 30
0.0
 11
244.4999999999999
 21
326.0
 31
0.0
  0
LINE
  5
4E4
330
1E
100
AcDbEntity
  8
1
  6
Continuous
 62
     7
100
AcDbLine
 10
315.5
 20
326.0
 30
0.0
 11
371.0
 21
326.0
 31
0.0
  0
LINE
  5
4E5
330
1E
100
AcDbEntity
  8
1
  6
Continuous
 62
     7
100
AcDbLine
 10
244.4999999999999
 20
326.0
 30
0.0
 11
244.4999999999999
 21
633.4999999999999
 31
0.0
  0
LINE
  5
4E6
330
1E
100
AcDbEntity
  8
1
  6
Continuous
 62
     7
100
AcDbLine
 10
315.5
 20
633.4999999999999
 30
0.0
 11
315.5
 21
326.0
 31
0.0
  0
ARC
  5
4E7
330
1E
100
AcDbEntity
  8
1
  6
Continuous
 62
     7
100
AcDbCircle
 10
110.0
 20
586.0
 30
0.0
 40
4.0
100
AcDbArc
 50
270.0
 51
90.0
  0
ARC
  5
4E8
330
1E
100
AcDbEntity
  8
1
  6
Continuous
 62
     7
100
AcDbCircle
 10
110.0
 20
496.0
 30
0.0
 40
4.0
100
AcDbArc
 50
270.0
 51
90.0
  0
ARC
  5
4E9
330
1E
100
AcDbEntity
  8
1
  6
Continuous
 62
     7
100
AcDbCircle
 10
110.0
 20
406.0
 30
0.0
 40
4.0
100
AcDbArc
 50
270.0
 51
90.0
  0
LINE
  5
4EA
330
1E
100
AcDbEntity
  8
1
  6
Continuous
 62
     7
100
AcDbLine
 10
119.0
 20
326.0
 30
0.0
 11
110.0
 21
326.0
 31
0.0
  0
LINE
  5
4EB
330
1E
100
AcDbEntity
  8
1
  6
Continuous
 62
     7
100
AcDbLine
 10
110.0
 20
326.0
 30
0.0
 11
110.0
 21
402.0
 31
0.0
  0
LINE
  5
4EC
330
1E
100
AcDbEntity
  8
1
  6
Continuous
 62
     7
100
AcDbLine
 10
110.0
 20
410.0
 30
0.0
 11
110.0
 21
492.0
 31
0.0
  0
LINE
  5
4ED
330
1E
100
AcDbEntity
  8
1
  6
Continuous
 62
     7
100
AcDbLine
 10
110.0
 20
500.0
 30
0.0
 11
110.0
 21
582.0
 31
0.0
  0
LINE
  5
4EE
330
1E
100
AcDbEntity
  8
1
  6
Continuous
 62
     7
100
AcDbLine
 10
110.0
 20
590.0
 30
0.0
 11
110.0
 21
633.4999999999999
 31
0.0
  0
LINE
  5
4EF
330
1E
100
AcDbEntity
  8
1
  6
Continuous
 62
     7
100
AcDbLine
 10
110.0
 20
633.4999999999999
 30
0.0
 11
395.0
 21
633.4999999999999
 31
0.0
  0
LINE
  5
4F0
330
1E
100
AcDbEntity
  8
1
  6
Continuous
 62
     7
100
AcDbLine
 10
139.0
 20
633.4999999999999
 30
0.0
 11
139.0
 21
326.0
 31
0.0
  0
ARC
  5
4F1
330
1E
100
AcDbEntity
  8
1
  6
Continuous
 62
     7
100
AcDbCircle
 10
247.5
 20
436.6999999999999
 30
0.0
 40
12.09999999999999
100
AcDbArc
 50
0.0
 51
90.0
  0
LINE
  5
4F2
330
1E
100
AcDbEntity
  8
1
  6
Continuous
 62
     7
100
AcDbLine
 10
247.5
 20
475.0
 30
0.0
 11
247.5
 21
448.8
 31
0.0
  0
CIRCLE
  5
4F3
330
1E
100
AcDbEntity
  8
1
  6
Continuous
 62
     7
100
AcDbCircle
 10
252.0
 20
470.0
 30
0.0
 40
2.7
  0
LINE
  5
4F4
330
1E
100
AcDbEntity
  8
1
  6
Continuous
 62
     7
100
AcDbLine
 10
250.1999999999999
 20
470.0
 30
0.0
 11
253.8
 21
470.0
 31
0.0
  0
LINE
  5
4F5
330
1E
100
AcDbEntity
  8
1
  6
Continuous
 62
     7
100
AcDbLine
 10
252.0
 20
471.7999999999999
 30
0.0
 11
252.0
 21
468.2
 31
0.0
  0
CIRCLE
  5
4F6
330
1E
100
AcDbEntity
  8
1
  6
Continuous
 62
     7
100
AcDbCircle
 10
266.0
 20
470.0
 30
0.0
 40
2.7
  0
LINE
  5
4F7
330
1E
100
AcDbEntity
  8
1
  6
Continuous
 62
     7
100
AcDbLine
 10
264.1999999999999
 20
470.0
 30
0.0
 11
267.8
 21
470.0
 31
0.0
  0
LINE
  5
4F8
330
1E
100
AcDbEntity
  8
1
  6
Continuous
 62
     7
100
AcDbLine
 10
266.0
 20
471.7999999999999
 30
0.0
 11
266.0
 21
468.2
 31
0.0
  0
CIRCLE
  5
4F9
330
1E
100
AcDbEntity
  8
1
  6
Continuous
 62
     7
100
AcDbCircle
 10
294.0
 20
470.0
 30
0.0
 40
2.7
  0
LINE
  5
4FA
330
1E
100
AcDbEntity
  8
1
  6
Continuous
 62
     7
100
AcDbLine
 10
292.2
 20
470.0
 30
0.0
 11
295.8
 21
470.0
 31
0.0
  0
LINE
  5
4FB
330
1E
100
AcDbEntity
  8
1
  6
Continuous
 62
     7
100
AcDbLine
 10
294.0
 20
471.7999999999999
 30
0.0
 11
294.0
 21
468.2
 31
0.0
  0
CIRCLE
  5
4FC
330
1E
100
AcDbEntity
  8
1
  6
Continuous
 62
     7
100
AcDbCircle
 10
308.0
 20
470.0
 30
0.0
 40
2.7
  0
LINE
  5
4FD
330
1E
100
AcDbEntity
  8
1
  6
Continuous
 62
     7
100
AcDbLine
 10
306.1999999999999
 20
470.0
 30
0.0
 11
309.8
 21
470.0
 31
0.0
  0
LINE
  5
4FE
330
1E
100
AcDbEntity
  8
1
  6
Continuous
 62
     7
100
AcDbLine
 10
308.0
 20
471.7999999999999
 30
0.0
 11
308.0
 21
468.2
 31
0.0
  0
ARC
  5
4FF
330
1E
100
AcDbEntity
  8
1
  6
Continuous
 62
     7
100
AcDbCircle
 10
280.0
 20
459.0
 30
0.0
 40
6.0
100
AcDbArc
 50
0.0
 51
180.0
  0
ARC
  5
500
330
1E
100
AcDbEntity
  8
1
  6
Continuous
 62
     7
100
AcDbCircle
 10
312.5
 20
436.6999999999999
 30
0.0
 40
12.09999999999999
100
AcDbArc
 50
90.0
 51
180.0
  0
LINE
  5
501
330
1E
100
AcDbEntity
  8
1
  6
Continuous
 62
     7
100
AcDbLine
 10
312.5
 20
475.0
 30
0.0
 11
312.5
 21
448.8
 31
0.0
  0
LINE
  5
502
330
1E
100
AcDbEntity
  8
1
  6
Continuous
 62
     7
100
AcDbLine
 10
244.4999999999999
 20
475.0
 30
0.0
 11
315.5
 21
475.0
 31
0.0
  0
LINE
  5
503
330
1E
100
AcDbEntity
  8
1
  6
Continuous
 62
     7
100
AcDbLine
 10
315.5
 20
465.0
 30
0.0
 11
312.5
 21
465.0
 31
0.0
  0
LINE
  5
504
330
1E
100
AcDbEntity
  8
1
  6
Continuous
 62
     7
100
AcDbLine
 10
247.5
 20
465.0
 30
0.0
 11
244.4999999999999
 21
465.0
 31
0.0
  0
LINE
  5
505
330
1E
100
AcDbEntity
  8
1
  6
Continuous
 62
     7
100
AcDbLine
 10
259.6
 20
310.0
 30
0.0
 11
259.6
 21
436.6999999999999
 31
0.0
  0
LINE
  5
506
330
1E
100
AcDbEntity
  8
1
  6
Continuous
 62
     7
100
AcDbLine
 10
300.4
 20
310.0
 30
0.0
 11
300.4
 21
436.6999999999999
 31
0.0
  0
LINE
  5
507
330
1E
100
AcDbEntity
  8
1
  6
Continuous
 62
     7
100
AcDbLine
 10
274.0
 20
459.0
 30
0.0
 11
274.0
 21
325.0
 31
0.0
  0
LINE
  5
508
330
1E
100
AcDbEntity
  8
1
  6
Continuous
 62
     7
100
AcDbLine
 10
286.0
 20
325.0
 30
0.0
 11
286.0
 21
459.0
 31
0.0
  0
LINE
  5
509
330
1E
100
AcDbEntity
  8
1
  6
Continuous
 62
     7
100
AcDbLine
 10
546.0
 20
319.0
 30
0.0
 11
542.4999999999999
 21
325.0
 31
0.0
  0
LINE
  5
50A
330
1E
100
AcDbEntity
  8
1
  6
Continuous
 62
     7
100
AcDbLine
 10
542.4999999999999
 20
325.0
 30
0.0
 11
542.4999999999999
 21
326.0
 31
0.0
  0
ARC
  5
50B
330
1E
100
AcDbEntity
  8
1
  6
Continuous
 62
     7
100
AcDbCircle
 10
350.0
 20
597.25
 30
0.0
 40
2.25
100
AcDbArc
 50
0.0
 51
180.0
  0
LINE
  5
50C
330
1E
100
AcDbEntity
  8
1
  6
Continuous
 62
     7
100
AcDbLine
 10
345.0
 20
596.25
 30
0.0
 11
345.0
 21
584.25
 31
0.0
  0
LINE
  5
50D
330
1E
100
AcDbEntity
  8
1
  6
Continuous
 62
     7
100
AcDbLine
 10
345.0
 20
584.25
 30
0.0
 11
355.0
 21
584.25
 31
0.0
  0
LINE
  5
50E
330
1E
100
AcDbEntity
  8
1
  6
Continuous
 62
     7
100
AcDbLine
 10
355.0
 20
584.25
 30
0.0
 11
355.0
 21
596.25
 31
0.0
  0
LINE
  5
50F
330
1E
100
AcDbEntity
  8
1
  6
Continuous
 62
     7
100
AcDbLine
 10
352.2499999999999
 20
597.25
 30
0.0
 11
352.2499999999999
 21
597.250001
 31
0.0
  0
LINE
  5
510
330
1E
100
AcDbEntity
  8
1
  6
Continuous
 62
     7
100
AcDbLine
 10
355.0
 20
596.25
 30
0.0
 11
353.25
 21
596.25
 31
0.0
  0
ARC
  5
511
330
1E
100
AcDbEntity
  8
1
  6
Continuous
 62
     7
100
AcDbCircle
 10
353.25
 20
597.25
 30
0.0
 40
1.0
100
AcDbArc
 50
180.0
 51
270.0
  0
LINE
  5
512
330
1E
100
AcDbEntity
  8
1
  6
Continuous
 62
     7
100
AcDbLine
 10
346.75
 20
596.25
 30
0.0
 11
345.0
 21
596.25
 31
0.0
  0
ARC
  5
513
330
1E
100
AcDbEntity
  8
1
  6
Continuous
 62
     7
100
AcDbCircle
 10
346.75
 20
597.25
 30
0.0
 40
1.0
100
AcDbArc
 50
270.0
 51
0.0
  0
ARC
  5
514
330
1E
100
AcDbEntity
  8
1
  6
Continuous
 62
     7
100
AcDbCircle
 10
210.0
 20
597.25
 30
0.0
 40
2.25
100
AcDbArc
 50
0.0
 51
180.0
  0
LINE
  5
515
330
1E
100
AcDbEntity
  8
1
  6
Continuous
 62
     7
100
AcDbLine
 10
215.0
 20
596.25
 30
0.0
 11
215.0
 21
584.25
 31
0.0
  0
LINE
  5
516
330
1E
100
AcDbEntity
  8
1
  6
Continuous
 62
     7
100
AcDbLine
 10
215.0
 20
584.25
 30
0.0
 11
205.0
 21
584.25
 31
0.0
  0
LINE
  5
517
330
1E
100
AcDbEntity
  8
1
  6
Continuous
 62
     7
100
AcDbLine
 10
205.0
 20
584.25
 30
0.0
 11
205.0
 21
596.25
 31
0.0
  0
LINE
  5
518
330
1E
100
AcDbEntity
  8
1
  6
Continuous
 62
     7
100
AcDbLine
 10
207.75
 20
597.25
 30
0.0
 11
207.75
 21
597.250001
 31
0.0
  0
LINE
  5
519
330
1E
100
AcDbEntity
  8
1
  6
Continuous
 62
     7
100
AcDbLine
 10
205.0
 20
596.25
 30
0.0
 11
206.7499999999999
 21
596.25
 31
0.0
  0
ARC
  5
51A
330
1E
100
AcDbEntity
  8
1
  6
Continuous
 62
     7
100
AcDbCircle
 10
206.7499999999999
 20
597.25
 30
0.0
 40
1.0
100
AcDbArc
 50
270.0
 51
0.0
  0
LINE
  5
51B
330
1E
100
AcDbEntity
  8
1
  6
Continuous
 62
     7
100
AcDbLine
 10
213.2499999999999
 20
596.25
 30
0.0
 11
215.0
 21
596.25
 31
0.0
  0
ARC
  5
51C
330
1E
100
AcDbEntity
  8
1
  6
Continuous
 62
     7
100
AcDbCircle
 10
213.2499999999999
 20
597.25
 30
0.0
 40
1.0
100
AcDbArc
 50
180.0
 51
270.0
  0
LINE
  5
51D
330
1E
100
AcDbEntity
  8
1
  6
Continuous
 62
     7
100
AcDbLine
 10
345.0
 20
597.25
 30
0.0
 11
355.0
 21
597.25
 31
0.0
  0
LINE
  5
51E
330
1E
100
AcDbEntity
  8
1
  6
Continuous
 62
     7
100
AcDbLine
 10
350.0
 20
602.2499999999999
 30
0.0
 11
350.0
 21
592.25
 31
0.0
  0
LINE
  5
51F
330
1E
100
AcDbEntity
  8
1
  6
Continuous
 62
     7
100
AcDbLine
 10
205.0
 20
597.25
 30
0.0
 11
215.0
 21
597.25
 31
0.0
  0
LINE
  5
520
330
1E
100
AcDbEntity
  8
1
  6
Continuous
 62
     7
100
AcDbLine
 10
210.0
 20
602.2499999999999
 30
0.0
 11
210.0
 21
592.25
 31
0.0
  0
CIRCLE
  5
52E
330
1E
100
AcDbEntity
  8
1
  6
Continuous
 62
     7
100
AcDbCircle
 10
230.0
 20
537.25
 30
0.0
 40
1.5
  0
CIRCLE
  5
52F
330
1E
100
AcDbEntity
  8
1
  6
Continuous
 62
     7
100
AcDbCircle
 10
230.0
 20
437.25
 30
0.0
 40
1.5
  0
CIRCLE
  5
530
330
1E
100
AcDbEntity
  8
1
  6
Continuous
 62
     7
100
AcDbCircle
 10
330.0
 20
437.25
 30
0.0
 40
1.5
  0
CIRCLE
  5
531
330
1E
100
AcDbEntity
  8
1
  6
Continuous
 62
     7
100
AcDbCircle
 10
330.0
 20
537.25
 30
0.0
 40
1.5
  0
LINE
  5
532
330
1E
100
AcDbEntity
  8
1
  6
DASHDOT
 62
     7
100
AcDbLine
 10
220.0
 20
537.25
 30
0.0
 11
240.0
 21
537.25
 31
0.0
  0
LINE
  5
533
330
1E
100
AcDbEntity
  8
1
  6
DASHDOT
 62
     7
100
AcDbLine
 10
230.0
 20
547.25
 30
0.0
 11
230.0
 21
527.2499999999999
 31
0.0
  0
LINE
  5
534
330
1E
100
AcDbEntity
  8
1
  6
DASHDOT
 62
     7
100
AcDbLine
 10
320.0
 20
537.25
 30
0.0
 11
340.0
 21
537.25
 31
0.0
  0
LINE
  5
535
330
1E
100
AcDbEntity
  8
1
  6
DASHDOT
 62
     7
100
AcDbLine
 10
330.0
 20
547.25
 30
0.0
 11
330.0
 21
527.2499999999999
 31
0.0
  0
LINE
  5
536
330
1E
100
AcDbEntity
  8
1
  6
DASHDOT
 62
     7
100
AcDbLine
 10
320.0
 20
437.25
 30
0.0
 11
340.0
 21
437.25
 31
0.0
  0
LINE
  5
537
330
1E
100
AcDbEntity
  8
1
  6
DASHDOT
 62
     7
100
AcDbLine
 10
330.0
 20
447.25
 30
0.0
 11
330.0
 21
427.2499999999999
 31
0.0
  0
LINE
  5
538
330
1E
100
AcDbEntity
  8
1
  6
DASHDOT
 62
     7
100
AcDbLine
 10
220.0
 20
437.25
 30
0.0
 11
240.0
 21
437.25
 31
0.0
  0
LINE
  5
539
330
1E
100
AcDbEntity
  8
1
  6
DASHDOT
 62
     7
100
AcDbLine
 10
230.0
 20
447.25
 30
0.0
 11
230.0
 21
427.2499999999999
 31
0.0
  0
LINE
  5
553
330
1E
100
AcDbEntity
  8
1
  6
DASHDOT
 62
     7
100
AcDbLine
 10
70.0
 20
477.2499999999999
 30
0.0
 11
490.0
 21
477.2499999999999
 31
0.0
  0
LINE
  5
554
330
1E
100
AcDbEntity
  8
1
  6
DASHDOT
 62
     7
100
AcDbLine
 10
280.0
 20
670.0
 30
0.0
 11
280.0
 21
280.0
 31
0.0
  0
LINE
  5
555
330
1E
100
AcDbEntity
  8
1
  6
Continuous
 62
     7
100
AcDbLine
 10
685.0
 20
771.0
 30
0.0
 11
1075.0
 21
771.0
 31
0.0
  0
LINE
  5
556
330
1E
100
AcDbEntity
  8
1
  6
Continuous
 62
     7
100
AcDbLine
 10
685.0
 20
771.0
 30
0.0
 11
685.0
 21
743.7999999999999
 31
0.0
  0
ARC
  5
557
330
1E
100
AcDbEntity
  8
1
  6
Continuous
 62
     7
100
AcDbCircle
 10
687.0
 20
743.7999999999999
 30
0.0
 40
2.0
100
AcDbArc
 50
180.0
 51
270.0
  0
LINE
  5
558
330
1E
100
AcDbEntity
  8
1
  6
Continuous
 62
     7
100
AcDbLine
 10
687.0
 20
741.7999999999999
 30
0.0
 11
1073.0
 21
741.7999999999999
 31
0.0
  0
LINE
  5
559
330
1E
100
AcDbEntity
  8
1
  6
Continuous
 62
     7
100
AcDbLine
 10
1075.0
 20
743.7999999999999
 30
0.0
 11
1075.0
 21
771.0
 31
0.0
  0
ARC
  5
55A
330
1E
100
AcDbEntity
  8
1
  6
Continuous
 62
     7
100
AcDbCircle
 10
1073.0
 20
743.7999999999999
 30
0.0
 40
2.0
100
AcDbArc
 50
270.0
 51
0.0
  0
CIRCLE
  5
55B
330
1E
100
AcDbEntity
  8
1
  6
Continuous
 62
     7
100
AcDbCircle
 10
556.0
 20
612.5
 30
0.0
 40
6.0
  0
CIRCLE
  5
55C
330
1E
100
AcDbEntity
  8
1
  6
Continuous
 62
     7
100
AcDbCircle
 10
556.0
 20
612.5
 30
0.0
 40
4.0
  0
CIRCLE
  5
55D
330
1E
100
AcDbEntity
  8
1
  6
Continuous
 62
     7
100
AcDbCircle
 10
556.0
 20
612.5
 30
0.0
 40
1.5
  0
CIRCLE
  5
55E
330
1E
100
AcDbEntity
  8
1
  6
Continuous
 62
     7
100
AcDbCircle
 10
556.0
 20
612.5
 30
0.0
 40
3.0
  0
CIRCLE
  5
55F
330
1E
100
AcDbEntity
  8
1
  6
Continuous
 62
     7
100
AcDbCircle
 10
570.0
 20
612.5
 30
0.0
 40
6.0
  0
CIRCLE
  5
560
330
1E
100
AcDbEntity
  8
1
  6
Continuous
 62
     7
100
AcDbCircle
 10
570.0
 20
612.5
 30
0.0
 40
4.0
  0
CIRCLE
  5
561
330
1E
100
AcDbEntity
  8
1
  6
Continuous
 62
     7
100
AcDbCircle
 10
570.0
 20
612.5
 30
0.0
 40
1.5
  0
CIRCLE
  5
562
330
1E
100
AcDbEntity
  8
1
  6
Continuous
 62
     7
100
AcDbCircle
 10
570.0
 20
612.5
 30
0.0
 40
3.0
  0
CIRCLE
  5
563
330
1E
100
AcDbEntity
  8
1
  6
Continuous
 62
     7
100
AcDbCircle
 10
570.0
 20
598.5
 30
0.0
 40
6.0
  0
CIRCLE
  5
564
330
1E
100
AcDbEntity
  8
1
  6
Continuous
 62
     7
100
AcDbCircle
 10
570.0
 20
598.5
 30
0.0
 40
4.0
  0
CIRCLE
  5
565
330
1E
100
AcDbEntity
  8
1
  6
Continuous
 62
     7
100
AcDbCircle
 10
570.0
 20
598.5
 30
0.0
 40
1.5
  0
CIRCLE
  5
566
330
1E
100
AcDbEntity
  8
1
  6
Continuous
 62
     7
100
AcDbCircle
 10
570.0
 20
598.5
 30
0.0
 40
3.0
  0
CIRCLE
  5
567
330
1E
100
AcDbEntity
  8
1
  6
Continuous
 62
     7
100
AcDbCircle
 10
556.0
 20
598.5
 30
0.0
 40
6.0
  0
CIRCLE
  5
568
330
1E
100
AcDbEntity
  8
1
  6
Continuous
 62
     7
100
AcDbCircle
 10
556.0
 20
598.5
 30
0.0
 40
4.0
  0
CIRCLE
  5
569
330
1E
100
AcDbEntity
  8
1
  6
Continuous
 62
     7
100
AcDbCircle
 10
556.0
 20
598.5
 30
0.0
 40
1.5
  0
CIRCLE
  5
56A
330
1E
100
AcDbEntity
  8
1
  6
Continuous
 62
     7
100
AcDbCircle
 10
556.0
 20
598.5
 30
0.0
 40
3.0
  0
CIRCLE
  5
56B
330
1E
100
AcDbEntity
  8
1
  6
Continuous
 62
     7
100
AcDbCircle
 10
563.0
 20
605.4999999999999
 30
0.0
 40
3.75
  0
CIRCLE
  5
56C
330
1E
100
AcDbEntity
  8
1
  6
Continuous
 62
     7
100
AcDbCircle
 10
563.0
 20
605.4999999999999
 30
0.0
 40
2.75
  0
LINE
  5
56D
330
1E
100
AcDbEntity
  8
1
  6
Continuous
 62
     7
100
AcDbLine
 10
561.398374
 20
605.4999999999999
 30
0.0
 11
564.601626
 21
605.4999999999999
 31
0.0
  0
LINE
  5
56E
330
1E
100
AcDbEntity
  8
1
  6
Continuous
 62
     7
100
AcDbLine
 10
563.0
 20
607.101626
 30
0.0
 11
563.0
 21
603.8983739999999
 31
0.0
  0
CIRCLE
  5
56F
330
1E
100
AcDbEntity
  8
1
  6
Continuous
 62
     7
100
AcDbCircle
 10
556.0
 20
580.4999999999999
 30
0.0
 40
6.0
  0
CIRCLE
  5
570
330
1E
100
AcDbEntity
  8
1
  6
Continuous
 62
     7
100
AcDbCircle
 10
556.0
 20
580.4999999999999
 30
0.0
 40
4.0
  0
CIRCLE
  5
571
330
1E
100
AcDbEntity
  8
1
  6
Continuous
 62
     7
100
AcDbCircle
 10
556.0
 20
580.4999999999999
 30
0.0
 40
1.5
  0
CIRCLE
  5
572
330
1E
100
AcDbEntity
  8
1
  6
Continuous
 62
     7
100
AcDbCircle
 10
556.0
 20
580.4999999999999
 30
0.0
 40
3.0
  0
CIRCLE
  5
573
330
1E
100
AcDbEntity
  8
1
  6
Continuous
 62
     7
100
AcDbCircle
 10
570.0
 20
580.4999999999999
 30
0.0
 40
6.0
  0
CIRCLE
  5
574
330
1E
100
AcDbEntity
  8
1
  6
Continuous
 62
     7
100
AcDbCircle
 10
570.0
 20
580.4999999999999
 30
0.0
 40
4.0
  0
CIRCLE
  5
575
330
1E
100
AcDbEntity
  8
1
  6
Continuous
 62
     7
100
AcDbCircle
 10
570.0
 20
580.4999999999999
 30
0.0
 40
1.5
  0
CIRCLE
  5
576
330
1E
100
AcDbEntity
  8
1
  6
Continuous
 62
     7
100
AcDbCircle
 10
570.0
 20
580.4999999999999
 30
0.0
 40
3.0
  0
CIRCLE
  5
577
330
1E
100
AcDbEntity
  8
1
  6
Continuous
 62
     7
100
AcDbCircle
 10
570.0
 20
566.5
 30
0.0
 40
6.0
  0
CIRCLE
  5
578
330
1E
100
AcDbEntity
  8
1
  6
Continuous
 62
     7
100
AcDbCircle
 10
570.0
 20
566.5
 30
0.0
 40
4.0
  0
CIRCLE
  5
579
330
1E
100
AcDbEntity
  8
1
  6
Continuous
 62
     7
100
AcDbCircle
 10
570.0
 20
566.5
 30
0.0
 40
1.5
  0
CIRCLE
  5
57A
330
1E
100
AcDbEntity
  8
1
  6
Continuous
 62
     7
100
AcDbCircle
 10
570.0
 20
566.5
 30
0.0
 40
3.0
  0
CIRCLE
  5
57B
330
1E
100
AcDbEntity
  8
1
  6
Continuous
 62
     7
100
AcDbCircle
 10
556.0
 20
566.5
 30
0.0
 40
6.0
  0
CIRCLE
  5
57C
330
1E
100
AcDbEntity
  8
1
  6
Continuous
 62
     7
100
AcDbCircle
 10
556.0
 20
566.5
 30
0.0
 40
4.0
  0
CIRCLE
  5
57D
330
1E
100
AcDbEntity
  8
1
  6
Continuous
 62
     7
100
AcDbCircle
 10
556.0
 20
566.5
 30
0.0
 40
1.5
  0
CIRCLE
  5
57E
330
1E
100
AcDbEntity
  8
1
  6
Continuous
 62
     7
100
AcDbCircle
 10
556.0
 20
566.5
 30
0.0
 40
3.0
  0
CIRCLE
  5
57F
330
1E
100
AcDbEntity
  8
1
  6
Continuous
 62
     7
100
AcDbCircle
 10
563.0
 20
573.5
 30
0.0
 40
3.75
  0
CIRCLE
  5
580
330
1E
100
AcDbEntity
  8
1
  6
Continuous
 62
     7
100
AcDbCircle
 10
563.0
 20
573.5
 30
0.0
 40
2.75
  0
LINE
  5
581
330
1E
100
AcDbEntity
  8
1
  6
Continuous
 62
     7
100
AcDbLine
 10
561.398374
 20
573.5
 30
0.0
 11
564.601626
 21
573.5
 31
0.0
  0
LINE
  5
582
330
1E
100
AcDbEntity
  8
1
  6
Continuous
 62
     7
100
AcDbLine
 10
563.0
 20
575.101626
 30
0.0
 11
563.0
 21
571.8983739999999
 31
0.0
  0
CIRCLE
  5
583
330
1E
100
AcDbEntity
  8
1
  6
Continuous
 62
     7
100
AcDbCircle
 10
555.4999999999999
 20
548.5
 30
0.0
 40
6.5
  0
CIRCLE
  5
584
330
1E
100
AcDbEntity
  8
1
  6
Continuous
 62
     7
100
AcDbCircle
 10
555.4999999999999
 20
548.5
 30
0.0
 40
4.5
  0
LINE
  5
585
330
1E
100
AcDbEntity
  8
1
  6
Continuous
 62
     7
100
AcDbLine
 10
551.627017
 20
549.5
 30
0.0
 11
552.5
 21
549.5
 31
0.0
  0
LINE
  5
586
330
1E
100
AcDbEntity
  8
1
  6
Continuous
 62
     7
100
AcDbLine
 10
552.5
 20
549.5
 30
0.0
 11
552.5
 21
547.5
 31
0.0
  0
LINE
  5
587
330
1E
100
AcDbEntity
  8
1
  6
Continuous
 62
     7
100
AcDbLine
 10
552.5
 20
547.5
 30
0.0
 11
551.627017
 21
547.5
 31
0.0
  0
ARC
  5
588
330
1E
100
AcDbEntity
  8
1
  6
Continuous
 62
     7
100
AcDbCircle
 10
555.4999999999999
 20
548.5
 30
0.0
 40
4.0
100
AcDbArc
 50
311.409622
 51
48.590378
  0
LINE
  5
589
330
1E
100
AcDbEntity
  8
1
  6
Continuous
 62
     7
100
AcDbLine
 10
558.1457509999999
 20
551.4999999999999
 30
0.0
 11
556.5
 21
551.4999999999999
 31
0.0
  0
LINE
  5
58A
330
1E
100
AcDbEntity
  8
1
  6
Continuous
 62
     7
100
AcDbLine
 10
556.5
 20
551.4999999999999
 30
0.0
 11
556.5
 21
552.3729829999999
 31
0.0
  0
LINE
  5
58B
330
1E
100
AcDbEntity
  8
1
  6
Continuous
 62
     7
100
AcDbLine
 10
558.1457509999999
 20
545.5
 30
0.0
 11
556.5
 21
545.5
 31
0.0
  0
LINE
  5
58C
330
1E
100
AcDbEntity
  8
1
  6
Continuous
 62
     7
100
AcDbLine
 10
556.5
 20
545.5
 30
0.0
 11
556.5
 21
544.627017
 31
0.0
  0
ARC
  5
58D
330
1E
100
AcDbEntity
  8
1
  6
Continuous
 62
     7
100
AcDbCircle
 10
555.4999999999999
 20
548.5
 30
0.0
 40
4.0
100
AcDbArc
 50
75.522488
 51
165.5224879999999
  0
ARC
  5
58E
330
1E
100
AcDbEntity
  8
1
  6
Continuous
 62
     7
100
AcDbCircle
 10
555.4999999999999
 20
548.5
 30
0.0
 40
4.0
100
AcDbArc
 50
194.477512
 51
284.4775119999999
  0
LINE
  5
58F
330
1E
100
AcDbEntity
  8
1
  6
Continuous
 62
     7
100
AcDbLine
 10
556.5
 20
550.4999999999999
 30
0.0
 11
556.5
 21
546.4999999999999
 31
0.0
  0
LINE
  5
590
330
1E
100
AcDbEntity
  8
1
  6
Continuous
 62
     7
100
AcDbLine
 10
556.5
 20
546.4999999999999
 30
0.0
 11
558.0
 21
546.4999999999999
 31
0.0
  0
LINE
  5
591
330
1E
100
AcDbEntity
  8
1
  6
Continuous
 62
     7
100
AcDbLine
 10
558.0
 20
546.4999999999999
 30
0.0
 11
558.0
 21
550.4999999999999
 31
0.0
  0
LINE
  5
592
330
1E
100
AcDbEntity
  8
1
  6
Continuous
 62
     7
100
AcDbLine
 10
558.0
 20
550.4999999999999
 30
0.0
 11
556.5
 21
550.4999999999999
 31
0.0
  0
CIRCLE
  5
593
330
1E
100
AcDbEntity
  8
1
  6
Continuous
 62
     7
100
AcDbCircle
 10
555.4999999999999
 20
545.5
 30
0.0
 40
0.5
  0
CIRCLE
  5
594
330
1E
100
AcDbEntity
  8
1
  6
Continuous
 62
     7
100
AcDbCircle
 10
555.4999999999999
 20
551.4999999999999
 30
0.0
 40
0.5
  0
CIRCLE
  5
595
330
1E
100
AcDbEntity
  8
1
  6
Continuous
 62
     7
100
AcDbCircle
 10
553.263932
 20
550.4999999999999
 30
0.0
 40
0.5
  0
CIRCLE
  5
596
330
1E
100
AcDbEntity
  8
1
  6
Continuous
 62
     7
100
AcDbCircle
 10
553.263932
 20
546.4999999999999
 30
0.0
 40
0.5
  0
LINE
  5
597
330
1E
100
AcDbEntity
  8
1
  6
Continuous
 62
     7
100
AcDbLine
 10
561.0
 20
451.0
 30
0.0
 11
561.0
 21
461.0
 31
0.0
  0
LINE
  5
598
330
1E
100
AcDbEntity
  8
1
  6
Continuous
 62
     7
100
AcDbLine
 10
561.0
 20
461.0
 30
0.0
 11
549.0
 21
461.0
 31
0.0
  0
LINE
  5
599
330
1E
100
AcDbEntity
  8
1
  6
Continuous
 62
     7
100
AcDbLine
 10
549.0
 20
461.0
 30
0.0
 11
549.0
 21
451.0
 31
0.0
  0
LINE
  5
59A
330
1E
100
AcDbEntity
  8
1
  6
Continuous
 62
     7
100
AcDbLine
 10
549.0
 20
451.0
 30
0.0
 11
561.0
 21
451.0
 31
0.0
  0
CIRCLE
  5
59B
330
1E
100
AcDbEntity
  8
1
  6
Continuous
 62
     7
100
AcDbCircle
 10
556.0
 20
456.0
 30
0.0
 40
3.0
  0
CIRCLE
  5
59C
330
1E
100
AcDbEntity
  8
1
  6
Continuous
 62
     7
100
AcDbCircle
 10
556.0
 20
456.0
 30
0.0
 40
0.6
  0
CIRCLE
  5
59D
330
1E
100
AcDbEntity
  8
1
  6
Continuous
 62
     7
100
AcDbCircle
 10
554.0
 20
441.0
 30
0.0
 40
4.2
  0
CIRCLE
  5
59E
330
1E
100
AcDbEntity
  8
1
  6
Continuous
 62
     7
100
AcDbCircle
 10
554.0
 20
441.0
 30
0.0
 40
3.0
  0
CIRCLE
  5
59F
330
1E
100
AcDbEntity
  8
1
  6
Continuous
 62
     7
100
AcDbCircle
 10
554.0
 20
441.0
 30
0.0
 40
1.6
  0
LINE
  5
5A0
330
1E
100
AcDbEntity
  8
1
  6
Continuous
 62
     7
100
AcDbLine
 10
765.0
 20
782.0
 30
0.0
 11
759.4999999999999
 21
782.0
 31
0.0
  0
ARC
  5
5A1
330
1E
100
AcDbEntity
  8
1
  6
Continuous
 62
     7
100
AcDbCircle
 10
759.4999999999999
 20
783.4999999999999
 30
0.0
 40
1.5
100
AcDbArc
 50
180.0
 51
270.0
  0
LINE
  5
5A2
330
1E
100
AcDbEntity
  8
1
  6
Continuous
 62
     7
100
AcDbLine
 10
758.0
 20
783.4999999999999
 30
0.0
 11
758.0
 21
788.4999999999999
 31
0.0
  0
LINE
  5
5A3
330
1E
100
AcDbEntity
  8
1
  6
Continuous
 62
     7
100
AcDbLine
 10
759.4999999999999
 20
790.0
 30
0.0
 11
765.0
 21
790.0
 31
0.0
  0
ARC
  5
5A4
330
1E
100
AcDbEntity
  8
1
  6
Continuous
 62
     7
100
AcDbCircle
 10
759.4999999999999
 20
788.4999999999999
 30
0.0
 40
1.5
100
AcDbArc
 50
90.0
 51
180.0
  0
LINE
  5
5A5
330
1E
100
AcDbEntity
  8
1
  6
Continuous
 62
     7
100
AcDbLine
 10
765.0
 20
796.0
 30
0.0
 11
759.4999999999999
 21
796.0
 31
0.0
  0
ARC
  5
5A6
330
1E
100
AcDbEntity
  8
1
  6
Continuous
 62
     7
100
AcDbCircle
 10
759.4999999999999
 20
797.5
 30
0.0
 40
1.5
100
AcDbArc
 50
180.0
 51
270.0
  0
LINE
  5
5A7
330
1E
100
AcDbEntity
  8
1
  6
Continuous
 62
     7
100
AcDbLine
 10
758.0
 20
797.5
 30
0.0
 11
758.0
 21
802.5
 31
0.0
  0
LINE
  5
5A8
330
1E
100
AcDbEntity
  8
1
  6
Continuous
 62
     7
100
AcDbLine
 10
759.4999999999999
 20
804.0
 30
0.0
 11
765.0
 21
804.0
 31
0.0
  0
ARC
  5
5A9
330
1E
100
AcDbEntity
  8
1
  6
Continuous
 62
     7
100
AcDbCircle
 10
759.4999999999999
 20
802.5
 30
0.0
 40
1.5
100
AcDbArc
 50
90.0
 51
180.0
  0
ARC
  5
5AA
330
1E
100
AcDbEntity
  8
1
  6
Continuous
 62
     7
100
AcDbCircle
 10
764.5
 20
794.2499999999999
 30
0.0
 40
1.5
100
AcDbArc
 50
90.0
 51
180.0
  0
ARC
  5
5AB
330
1E
100
AcDbEntity
  8
1
  6
Continuous
 62
     7
100
AcDbCircle
 10
764.5
 20
791.75
 30
0.0
 40
1.5
100
AcDbArc
 50
180.0
 51
270.0
  0
LINE
  5
5AC
330
1E
100
AcDbEntity
  8
1
  6
Continuous
 62
     7
100
AcDbLine
 10
763.0
 20
791.75
 30
0.0
 11
763.0
 21
794.2499999999999
 31
0.0
  0
LINE
  5
5AD
330
1E
100
AcDbEntity
  8
1
  6
Continuous
 62
     7
100
AcDbLine
 10
764.5
 20
790.0
 30
0.0
 11
764.5
 21
796.0
 31
0.0
  0
LINE
  5
5AE
330
1E
100
AcDbEntity
  8
1
  6
Continuous
 62
     7
100
AcDbLine
 10
753.5
 20
802.7499999999999
 30
0.0
 11
758.02098
 21
802.7499999999999
 31
0.0
  0
LINE
  5
5AF
330
1E
100
AcDbEntity
  8
1
  6
Continuous
 62
     7
100
AcDbLine
 10
753.5
 20
793.25
 30
0.0
 11
753.5
 21
802.7499999999999
 31
0.0
  0
LINE
  5
5B0
330
1E
100
AcDbEntity
  8
1
  6
Continuous
 62
     7
100
AcDbLine
 10
753.5
 20
793.25
 30
0.0
 11
763.0
 21
793.25
 31
0.0
  0
ARC
  5
5B1
330
1E
100
AcDbEntity
  8
1
  6
Continuous
 62
     7
100
AcDbCircle
 10
758.0
 20
798.0
 30
0.0
 40
1.0
100
AcDbArc
 50
90.0
 51
274.848783
  0
LINE
  5
5B2
330
1E
100
AcDbEntity
  8
1
  6
Continuous
 62
     7
100
AcDbLine
 10
755.0
 20
771.0
 30
0.0
 11
755.0
 21
772.0
 31
0.0
  0
LINE
  5
5B3
330
1E
100
AcDbEntity
  8
1
  6
Continuous
 62
     7
100
AcDbLine
 10
755.0
 20
772.0
 30
0.0
 11
765.0
 21
772.0
 31
0.0
  0
LINE
  5
5B4
330
1E
100
AcDbEntity
  8
1
  6
Continuous
 62
     7
100
AcDbLine
 10
765.0
 20
772.0
 30
0.0
 11
765.0
 21
816.0
 31
0.0
  0
LINE
  5
5B5
330
1E
100
AcDbEntity
  8
1
  6
Continuous
 62
     7
100
AcDbLine
 10
765.0
 20
816.0
 30
0.0
 11
844.5
 21
816.0
 31
0.0
  0
LINE
  5
5B6
330
1E
100
AcDbEntity
  8
1
  6
Continuous
 62
     7
100
AcDbLine
 10
844.5
 20
816.0
 30
0.0
 11
844.5
 21
800.0
 31
0.0
  0
LINE
  5
5B7
330
1E
100
AcDbEntity
  8
1
  6
Continuous
 62
     7
100
AcDbLine
 10
844.5
 20
800.0
 30
0.0
 11
915.4999999999999
 21
800.0
 31
0.0
  0
LINE
  5
5B8
330
1E
100
AcDbEntity
  8
1
  6
Continuous
 62
     7
100
AcDbLine
 10
915.4999999999999
 20
800.0
 30
0.0
 11
915.4999999999999
 21
816.0
 31
0.0
  0
LINE
  5
5B9
330
1E
100
AcDbEntity
  8
1
  6
Continuous
 62
     7
100
AcDbLine
 10
766.0
 20
771.0
 30
0.0
 11
766.0
 21
815.0
 31
0.0
  0
LINE
  5
5BA
330
1E
100
AcDbEntity
  8
1
  6
Continuous
 62
     7
100
AcDbLine
 10
766.0
 20
815.0
 30
0.0
 11
843.5
 21
815.0
 31
0.0
  0
LINE
  5
5BB
330
1E
100
AcDbEntity
  8
1
  6
Continuous
 62
     7
100
AcDbLine
 10
843.5
 20
815.0
 30
0.0
 11
843.5
 21
799.0
 31
0.0
  0
LINE
  5
5BC
330
1E
100
AcDbEntity
  8
1
  6
Continuous
 62
     7
100
AcDbLine
 10
843.5
 20
799.0
 30
0.0
 11
916.5
 21
799.0
 31
0.0
  0
LINE
  5
5BD
330
1E
100
AcDbEntity
  8
1
  6
Continuous
 62
     7
100
AcDbLine
 10
916.5
 20
799.0
 30
0.0
 11
916.5
 21
815.0
 31
0.0
  0
LINE
  5
5BE
330
1E
100
AcDbEntity
  8
1
  6
Continuous
 62
     7
100
AcDbLine
 10
873.0
 20
810.0
 30
0.0
 11
873.0
 21
808.0
 31
0.0
  0
LINE
  5
5BF
330
1E
100
AcDbEntity
  8
1
  6
Continuous
 62
     7
100
AcDbLine
 10
873.0
 20
808.0
 30
0.0
 11
847.4999999999999
 21
808.0
 31
0.0
  0
LINE
  5
5C0
330
1E
100
AcDbEntity
  8
1
  6
Continuous
 62
     7
100
AcDbLine
 10
887.0
 20
810.0
 30
0.0
 11
887.0
 21
808.0
 31
0.0
  0
LINE
  5
5C1
330
1E
100
AcDbEntity
  8
1
  6
Continuous
 62
     7
100
AcDbLine
 10
887.0
 20
808.0
 30
0.0
 11
912.5
 21
808.0
 31
0.0
  0
LINE
  5
5C2
330
1E
100
AcDbEntity
  8
1
  6
Continuous
 62
     7
100
AcDbLine
 10
874.0
 20
810.0
 30
0.0
 11
874.0
 21
805.0
 31
0.0
  0
ARC
  5
5C3
330
1E
100
AcDbEntity
  8
1
  6
Continuous
 62
     7
100
AcDbCircle
 10
876.0
 20
805.0
 30
0.0
 40
2.0
100
AcDbArc
 50
180.0
 51
270.0
  0
LINE
  5
5C4
330
1E
100
AcDbEntity
  8
1
  6
Continuous
 62
     7
100
AcDbLine
 10
876.0
 20
803.0
 30
0.0
 11
884.0
 21
803.0
 31
0.0
  0
LINE
  5
5C5
330
1E
100
AcDbEntity
  8
1
  6
Continuous
 62
     7
100
AcDbLine
 10
886.0
 20
805.0
 30
0.0
 11
886.0
 21
810.0
 31
0.0
  0
ARC
  5
5C6
330
1E
100
AcDbEntity
  8
1
  6
Continuous
 62
     7
100
AcDbCircle
 10
884.0
 20
805.0
 30
0.0
 40
2.0
100
AcDbArc
 50
270.0
 51
0.0
  0
LINE
  5
5C7
330
1E
100
AcDbEntity
  8
1
  6
Continuous
 62
     7
100
AcDbLine
 10
844.5
 20
803.0
 30
0.0
 11
876.0
 21
803.0
 31
0.0
  0
LINE
  5
5C8
330
1E
100
AcDbEntity
  8
1
  6
Continuous
 62
     7
100
AcDbLine
 10
884.0
 20
803.0
 30
0.0
 11
915.4999999999999
 21
803.0
 31
0.0
  0
LINE
  5
5C9
330
1E
100
AcDbEntity
  8
1
  6
Continuous
 62
     7
100
AcDbLine
 10
873.0
 20
808.0
 30
0.0
 11
874.0
 21
808.0
 31
0.0
  0
LINE
  5
5CA
330
1E
100
AcDbEntity
  8
1
  6
Continuous
 62
     7
100
AcDbLine
 10
886.0
 20
808.0
 30
0.0
 11
887.0
 21
808.0
 31
0.0
  0
LINE
  5
5CB
330
1E
100
AcDbEntity
  8
1
  6
Continuous
 62
     7
100
AcDbLine
 10
1041.0
 20
796.0
 30
0.0
 11
1021.0
 21
816.0
 31
0.0
  0
LINE
  5
5CC
330
1E
100
AcDbEntity
  8
1
  6
Continuous
 62
     7
100
AcDbLine
 10
1021.0
 20
816.0
 30
0.0
 11
915.4999999999999
 21
816.0
 31
0.0
  0
LINE
  5
5CD
330
1E
100
AcDbEntity
  8
1
  6
Continuous
 62
     7
100
AcDbLine
 10
1041.0
 20
796.0
 30
0.0
 11
1041.0
 21
772.0
 31
0.0
  0
LINE
  5
5CE
330
1E
100
AcDbEntity
  8
1
  6
Continuous
 62
     7
100
AcDbLine
 10
1040.0
 20
771.0
 30
0.0
 11
1040.0
 21
795.585786
 31
0.0
  0
LINE
  5
5CF
330
1E
100
AcDbEntity
  8
1
  6
Continuous
 62
     7
100
AcDbLine
 10
1040.0
 20
795.585786
 30
0.0
 11
1020.585784999999
 21
815.0
 31
0.0
  0
LINE
  5
5D0
330
1E
100
AcDbEntity
  8
1
  6
Continuous
 62
     7
100
AcDbLine
 10
1020.585784999999
 20
815.0
 30
0.0
 11
916.5
 21
815.0
 31
0.0
  0
LINE
  5
5D1
330
1E
100
AcDbEntity
  8
1
  6
Continuous
 62
     7
100
AcDbLine
 10
1041.0
 20
772.0
 30
0.0
 11
1050.0
 21
772.0
 31
0.0
  0
LINE
  5
5D2
330
1E
100
AcDbEntity
  8
1
  6
Continuous
 62
     7
100
AcDbLine
 10
1050.0
 20
772.0
 30
0.0
 11
1050.0
 21
771.0
 31
0.0
  0
CIRCLE
  5
5D3
330
1E
100
AcDbEntity
  8
1
  6
Continuous
 62
     7
100
AcDbCircle
 10
280.0
 20
644.5
 30
0.0
 40
3.75
  0
CIRCLE
  5
5D4
330
1E
100
AcDbEntity
  8
1
  6
Continuous
 62
     7
100
AcDbCircle
 10
280.0
 20
644.5
 30
0.0
 40
2.75
  0
LINE
  5
5D5
330
1E
100
AcDbEntity
  8
1
  6
Continuous
 62
     7
100
AcDbLine
 10
280.0
 20
642.4999999999999
 30
0.0
 11
280.0
 21
646.4999999999999
 31
0.0
  0
LINE
  5
5D6
330
1E
100
AcDbEntity
  8
1
  6
Continuous
 62
     7
100
AcDbLine
 10
278.0
 20
644.5
 30
0.0
 11
282.0
 21
644.5
 31
0.0
  0
LINE
  5
5D7
330
1E
100
AcDbEntity
  8
1
  6
Continuous
 62
     7
100
AcDbLine
 10
698.7499999999999
 20
771.0
 30
0.0
 11
698.7499999999999
 21
771.4999999999999
 31
0.0
  0
LINE
  5
5D8
330
1E
100
AcDbEntity
  8
1
  6
Continuous
 62
     7
100
AcDbLine
 10
698.7499999999999
 20
771.4999999999999
 30
0.0
 11
691.25
 21
771.4999999999999
 31
0.0
  0
LINE
  5
5D9
330
1E
100
AcDbEntity
  8
1
  6
Continuous
 62
     7
100
AcDbLine
 10
691.25
 20
771.4999999999999
 30
0.0
 11
691.25
 21
771.0
 31
0.0
  0
ARC
  5
5DA
330
1E
100
AcDbEntity
  8
1
  6
Continuous
 62
     7
100
AcDbCircle
 10
696.25
 20
771.4999999999999
 30
0.0
 40
1.5
100
AcDbArc
 50
0.0
 51
90.0
  0
ARC
  5
5DB
330
1E
100
AcDbEntity
  8
1
  6
Continuous
 62
     7
100
AcDbCircle
 10
693.75
 20
771.4999999999999
 30
0.0
 40
1.5
100
AcDbArc
 50
90.0
 51
180.0
  0
LINE
  5
5DC
330
1E
100
AcDbEntity
  8
1
  6
Continuous
 62
     7
100
AcDbLine
 10
693.75
 20
773.0
 30
0.0
 11
696.25
 21
773.0
 31
0.0
  0
ARC
  5
5DD
330
1E
100
AcDbEntity
  8
1
  6
Continuous
 62
     7
100
AcDbCircle
 10
711.2499999999999
 20
771.4999999999999
 30
0.0
 40
1.5
100
AcDbArc
 50
0.0
 51
90.0
  0
ARC
  5
5DE
330
1E
100
AcDbEntity
  8
1
  6
Continuous
 62
     7
100
AcDbCircle
 10
708.75
 20
771.4999999999999
 30
0.0
 40
1.5
100
AcDbArc
 50
90.0
 51
180.0
  0
LINE
  5
5DF
330
1E
100
AcDbEntity
  8
1
  6
Continuous
 62
     7
100
AcDbLine
 10
708.75
 20
773.0
 30
0.0
 11
711.2499999999999
 21
773.0
 31
0.0
  0
LINE
  5
5E0
330
1E
100
AcDbEntity
  8
1
  6
Continuous
 62
     7
100
AcDbLine
 10
707.2499999999999
 20
771.0
 30
0.0
 11
707.2499999999999
 21
771.4999999999999
 31
0.0
  0
LINE
  5
5E1
330
1E
100
AcDbEntity
  8
1
  6
Continuous
 62
     7
100
AcDbLine
 10
707.2499999999999
 20
771.4999999999999
 30
0.0
 11
712.75
 21
771.4999999999999
 31
0.0
  0
LINE
  5
5E2
330
1E
100
AcDbEntity
  8
1
  6
Continuous
 62
     7
100
AcDbLine
 10
712.75
 20
771.4999999999999
 30
0.0
 11
712.75
 21
771.0
 31
0.0
  0
LINE
  5
5E3
330
1E
100
AcDbEntity
  8
1
  6
Continuous
 62
     7
100
AcDbLine
 10
1068.75
 20
771.0
 30
0.0
 11
1068.75
 21
771.4999999999999
 31
0.0
  0
LINE
  5
5E4
330
1E
100
AcDbEntity
  8
1
  6
Continuous
 62
     7
100
AcDbLine
 10
1068.75
 20
771.4999999999999
 30
0.0
 11
1061.25
 21
771.4999999999999
 31
0.0
  0
LINE
  5
5E5
330
1E
100
AcDbEntity
  8
1
  6
Continuous
 62
     7
100
AcDbLine
 10
1061.25
 20
771.4999999999999
 30
0.0
 11
1061.25
 21
771.0
 31
0.0
  0
ARC
  5
5E6
330
1E
100
AcDbEntity
  8
1
  6
Continuous
 62
     7
100
AcDbCircle
 10
1066.249999999999
 20
771.4999999999999
 30
0.0
 40
1.5
100
AcDbArc
 50
0.0
 51
90.0
  0
ARC
  5
5E7
330
1E
100
AcDbEntity
  8
1
  6
Continuous
 62
     7
100
AcDbCircle
 10
1063.75
 20
771.4999999999999
 30
0.0
 40
1.5
100
AcDbArc
 50
90.0
 51
180.0
  0
LINE
  5
5E8
330
1E
100
AcDbEntity
  8
1
  6
Continuous
 62
     7
100
AcDbLine
 10
1063.75
 20
773.0
 30
0.0
 11
1066.249999999999
 21
773.0
 31
0.0
  0
ARC
  5
5E9
330
1E
100
AcDbEntity
  8
1
  6
Continuous
 62
     7
100
AcDbCircle
 10
1051.25
 20
771.4999999999999
 30
0.0
 40
1.5
100
AcDbArc
 50
0.0
 51
90.0
  0
LINE
  5
5EA
330
1E
100
AcDbEntity
  8
1
  6
Continuous
 62
     7
100
AcDbLine
 10
1048.75
 20
773.0
 30
0.0
 11
1051.25
 21
773.0
 31
0.0
  0
LINE
  5
5EB
330
1E
100
AcDbEntity
  8
1
  6
Continuous
 62
     7
100
AcDbLine
 10
1052.75
 20
771.4999999999999
 30
0.0
 11
1052.75
 21
771.0
 31
0.0
  0
ARC
  5
5EC
330
1E
100
AcDbEntity
  8
1
  6
Continuous
 62
     7
100
AcDbCircle
 10
1048.75
 20
771.4999999999999
 30
0.0
 40
1.5
100
AcDbArc
 50
90.0
 51
160.528779
  0
LINE
  5
5ED
330
1E
100
AcDbEntity
  8
1
  6
Continuous
 62
     7
100
AcDbLine
 10
1052.75
 20
771.4999999999999
 30
0.0
 11
1050.0
 21
771.4999999999999
 31
0.0
  0
CIRCLE
  5
5EE
330
1E
100
AcDbEntity
  8
1
  6
Continuous
 62
     7
100
AcDbCircle
 10
880.0
 20
779.4999999999999
 30
0.0
 40
1.5
  0
CIRCLE
  5
5EF
330
1E
100
AcDbEntity
  8
1
  6
Continuous
 62
     7
100
AcDbCircle
 10
880.0
 20
784.4999999999999
 30
0.0
 40
1.5
  0
CIRCLE
  5
5F0
330
1E
100
AcDbEntity
  8
1
  6
Continuous
 62
     7
100
AcDbCircle
 10
880.0
 20
789.5
 30
0.0
 40
1.5
  0
CIRCLE
  5
5F1
330
1E
100
AcDbEntity
  8
1
  6
Continuous
 62
     7
100
AcDbCircle
 10
888.0
 20
779.4999999999999
 30
0.0
 40
1.5
  0
CIRCLE
  5
5F2
330
1E
100
AcDbEntity
  8
1
  6
Continuous
 62
     7
100
AcDbCircle
 10
888.0
 20
784.4999999999999
 30
0.0
 40
1.5
  0
CIRCLE
  5
5F3
330
1E
100
AcDbEntity
  8
1
  6
Continuous
 62
     7
100
AcDbCircle
 10
888.0
 20
789.5
 30
0.0
 40
1.5
  0
CIRCLE
  5
5F4
330
1E
100
AcDbEntity
  8
1
  6
Continuous
 62
     7
100
AcDbCircle
 10
896.0
 20
779.4999999999999
 30
0.0
 40
1.5
  0
CIRCLE
  5
5F5
330
1E
100
AcDbEntity
  8
1
  6
Continuous
 62
     7
100
AcDbCircle
 10
896.0
 20
784.4999999999999
 30
0.0
 40
1.5
  0
CIRCLE
  5
5F6
330
1E
100
AcDbEntity
  8
1
  6
Continuous
 62
     7
100
AcDbCircle
 10
896.0
 20
789.5
 30
0.0
 40
1.5
  0
CIRCLE
  5
5F7
330
1E
100
AcDbEntity
  8
1
  6
Continuous
 62
     7
100
AcDbCircle
 10
904.0
 20
779.4999999999999
 30
0.0
 40
1.5
  0
CIRCLE
  5
5F8
330
1E
100
AcDbEntity
  8
1
  6
Continuous
 62
     7
100
AcDbCircle
 10
904.0
 20
784.4999999999999
 30
0.0
 40
1.5
  0
CIRCLE
  5
5F9
330
1E
100
AcDbEntity
  8
1
  6
Continuous
 62
     7
100
AcDbCircle
 10
904.0
 20
789.5
 30
0.0
 40
1.5
  0
CIRCLE
  5
5FA
330
1E
100
AcDbEntity
  8
1
  6
Continuous
 62
     7
100
AcDbCircle
 10
912.0
 20
779.4999999999999
 30
0.0
 40
1.5
  0
CIRCLE
  5
5FB
330
1E
100
AcDbEntity
  8
1
  6
Continuous
 62
     7
100
AcDbCircle
 10
912.0
 20
784.4999999999999
 30
0.0
 40
1.5
  0
CIRCLE
  5
5FC
330
1E
100
AcDbEntity
  8
1
  6
Continuous
 62
     7
100
AcDbCircle
 10
912.0
 20
789.5
 30
0.0
 40
1.5
  0
CIRCLE
  5
5FD
330
1E
100
AcDbEntity
  8
1
  6
Continuous
 62
     7
100
AcDbCircle
 10
920.0
 20
779.4999999999999
 30
0.0
 40
1.5
  0
CIRCLE
  5
5FE
330
1E
100
AcDbEntity
  8
1
  6
Continuous
 62
     7
100
AcDbCircle
 10
920.0
 20
784.4999999999999
 30
0.0
 40
1.5
  0
CIRCLE
  5
5FF
330
1E
100
AcDbEntity
  8
1
  6
Continuous
 62
     7
100
AcDbCircle
 10
920.0
 20
789.5
 30
0.0
 40
1.5
  0
CIRCLE
  5
600
330
1E
100
AcDbEntity
  8
1
  6
Continuous
 62
     7
100
AcDbCircle
 10
928.0
 20
779.4999999999999
 30
0.0
 40
1.5
  0
CIRCLE
  5
601
330
1E
100
AcDbEntity
  8
1
  6
Continuous
 62
     7
100
AcDbCircle
 10
928.0
 20
784.4999999999999
 30
0.0
 40
1.5
  0
CIRCLE
  5
602
330
1E
100
AcDbEntity
  8
1
  6
Continuous
 62
     7
100
AcDbCircle
 10
928.0
 20
789.5
 30
0.0
 40
1.5
  0
CIRCLE
  5
603
330
1E
100
AcDbEntity
  8
1
  6
Continuous
 62
     7
100
AcDbCircle
 10
928.0
 20
797.5
 30
0.0
 40
1.5
  0
CIRCLE
  5
604
330
1E
100
AcDbEntity
  8
1
  6
Continuous
 62
     7
100
AcDbCircle
 10
928.0
 20
802.5
 30
0.0
 40
1.5
  0
CIRCLE
  5
605
330
1E
100
AcDbEntity
  8
1
  6
Continuous
 62
     7
100
AcDbCircle
 10
928.0
 20
807.4999999999999
 30
0.0
 40
1.5
  0
CIRCLE
  5
606
330
1E
100
AcDbEntity
  8
1
  6
Continuous
 62
     7
100
AcDbCircle
 10
936.0
 20
797.5
 30
0.0
 40
1.5
  0
CIRCLE
  5
607
330
1E
100
AcDbEntity
  8
1
  6
Continuous
 62
     7
100
AcDbCircle
 10
936.0
 20
802.5
 30
0.0
 40
1.5
  0
CIRCLE
  5
608
330
1E
100
AcDbEntity
  8
1
  6
Continuous
 62
     7
100
AcDbCircle
 10
936.0
 20
807.4999999999999
 30
0.0
 40
1.5
  0
CIRCLE
  5
609
330
1E
100
AcDbEntity
  8
1
  6
Continuous
 62
     7
100
AcDbCircle
 10
944.0
 20
797.5
 30
0.0
 40
1.5
  0
CIRCLE
  5
60A
330
1E
100
AcDbEntity
  8
1
  6
Continuous
 62
     7
100
AcDbCircle
 10
944.0
 20
802.5
 30
0.0
 40
1.5
  0
CIRCLE
  5
60B
330
1E
100
AcDbEntity
  8
1
  6
Continuous
 62
     7
100
AcDbCircle
 10
944.0
 20
807.4999999999999
 30
0.0
 40
1.5
  0
CIRCLE
  5
60C
330
1E
100
AcDbEntity
  8
1
  6
Continuous
 62
     7
100
AcDbCircle
 10
936.0
 20
779.4999999999999
 30
0.0
 40
1.5
  0
CIRCLE
  5
60D
330
1E
100
AcDbEntity
  8
1
  6
Continuous
 62
     7
100
AcDbCircle
 10
936.0
 20
784.4999999999999
 30
0.0
 40
1.5
  0
CIRCLE
  5
60E
330
1E
100
AcDbEntity
  8
1
  6
Continuous
 62
     7
100
AcDbCircle
 10
936.0
 20
789.5
 30
0.0
 40
1.5
  0
CIRCLE
  5
60F
330
1E
100
AcDbEntity
  8
1
  6
Continuous
 62
     7
100
AcDbCircle
 10
944.0
 20
779.4999999999999
 30
0.0
 40
1.5
  0
CIRCLE
  5
610
330
1E
100
AcDbEntity
  8
1
  6
Continuous
 62
     7
100
AcDbCircle
 10
944.0
 20
784.4999999999999
 30
0.0
 40
1.5
  0
CIRCLE
  5
611
330
1E
100
AcDbEntity
  8
1
  6
Continuous
 62
     7
100
AcDbCircle
 10
944.0
 20
789.5
 30
0.0
 40
1.5
  0
CIRCLE
  5
612
330
1E
100
AcDbEntity
  8
1
  6
Continuous
 62
     7
100
AcDbCircle
 10
952.0
 20
779.4999999999999
 30
0.0
 40
1.5
  0
CIRCLE
  5
613
330
1E
100
AcDbEntity
  8
1
  6
Continuous
 62
     7
100
AcDbCircle
 10
952.0
 20
784.4999999999999
 30
0.0
 40
1.5
  0
CIRCLE
  5
614
330
1E
100
AcDbEntity
  8
1
  6
Continuous
 62
     7
100
AcDbCircle
 10
952.0
 20
789.5
 30
0.0
 40
1.5
  0
CIRCLE
  5
615
330
1E
100
AcDbEntity
  8
1
  6
Continuous
 62
     7
100
AcDbCircle
 10
952.0
 20
797.5
 30
0.0
 40
1.5
  0
CIRCLE
  5
616
330
1E
100
AcDbEntity
  8
1
  6
Continuous
 62
     7
100
AcDbCircle
 10
952.0
 20
802.5
 30
0.0
 40
1.5
  0
CIRCLE
  5
617
330
1E
100
AcDbEntity
  8
1
  6
Continuous
 62
     7
100
AcDbCircle
 10
952.0
 20
807.4999999999999
 30
0.0
 40
1.5
  0
CIRCLE
  5
618
330
1E
100
AcDbEntity
  8
1
  6
Continuous
 62
     7
100
AcDbCircle
 10
960.0
 20
797.5
 30
0.0
 40
1.5
  0
CIRCLE
  5
619
330
1E
100
AcDbEntity
  8
1
  6
Continuous
 62
     7
100
AcDbCircle
 10
960.0
 20
802.5
 30
0.0
 40
1.5
  0
CIRCLE
  5
61A
330
1E
100
AcDbEntity
  8
1
  6
Continuous
 62
     7
100
AcDbCircle
 10
960.0
 20
807.4999999999999
 30
0.0
 40
1.5
  0
CIRCLE
  5
61B
330
1E
100
AcDbEntity
  8
1
  6
Continuous
 62
     7
100
AcDbCircle
 10
968.0
 20
797.5
 30
0.0
 40
1.5
  0
CIRCLE
  5
61C
330
1E
100
AcDbEntity
  8
1
  6
Continuous
 62
     7
100
AcDbCircle
 10
968.0
 20
802.5
 30
0.0
 40
1.5
  0
CIRCLE
  5
61D
330
1E
100
AcDbEntity
  8
1
  6
Continuous
 62
     7
100
AcDbCircle
 10
968.0
 20
807.4999999999999
 30
0.0
 40
1.5
  0
CIRCLE
  5
61E
330
1E
100
AcDbEntity
  8
1
  6
Continuous
 62
     7
100
AcDbCircle
 10
960.0
 20
779.4999999999999
 30
0.0
 40
1.5
  0
CIRCLE
  5
61F
330
1E
100
AcDbEntity
  8
1
  6
Continuous
 62
     7
100
AcDbCircle
 10
960.0
 20
784.4999999999999
 30
0.0
 40
1.5
  0
CIRCLE
  5
620
330
1E
100
AcDbEntity
  8
1
  6
Continuous
 62
     7
100
AcDbCircle
 10
960.0
 20
789.5
 30
0.0
 40
1.5
  0
CIRCLE
  5
621
330
1E
100
AcDbEntity
  8
1
  6
Continuous
 62
     7
100
AcDbCircle
 10
968.0
 20
779.4999999999999
 30
0.0
 40
1.5
  0
CIRCLE
  5
622
330
1E
100
AcDbEntity
  8
1
  6
Continuous
 62
     7
100
AcDbCircle
 10
968.0
 20
784.4999999999999
 30
0.0
 40
1.5
  0
CIRCLE
  5
623
330
1E
100
AcDbEntity
  8
1
  6
Continuous
 62
     7
100
AcDbCircle
 10
968.0
 20
789.5
 30
0.0
 40
1.5
  0
CIRCLE
  5
624
330
1E
100
AcDbEntity
  8
1
  6
Continuous
 62
     7
100
AcDbCircle
 10
976.0
 20
779.4999999999999
 30
0.0
 40
1.5
  0
CIRCLE
  5
625
330
1E
100
AcDbEntity
  8
1
  6
Continuous
 62
     7
100
AcDbCircle
 10
976.0
 20
784.4999999999999
 30
0.0
 40
1.5
  0
CIRCLE
  5
626
330
1E
100
AcDbEntity
  8
1
  6
Continuous
 62
     7
100
AcDbCircle
 10
976.0
 20
789.5
 30
0.0
 40
1.5
  0
CIRCLE
  5
627
330
1E
100
AcDbEntity
  8
1
  6
Continuous
 62
     7
100
AcDbCircle
 10
976.0
 20
797.5
 30
0.0
 40
1.5
  0
CIRCLE
  5
628
330
1E
100
AcDbEntity
  8
1
  6
Continuous
 62
     7
100
AcDbCircle
 10
976.0
 20
802.5
 30
0.0
 40
1.5
  0
CIRCLE
  5
629
330
1E
100
AcDbEntity
  8
1
  6
Continuous
 62
     7
100
AcDbCircle
 10
976.0
 20
807.4999999999999
 30
0.0
 40
1.5
  0
CIRCLE
  5
62A
330
1E
100
AcDbEntity
  8
1
  6
Continuous
 62
     7
100
AcDbCircle
 10
984.0
 20
797.5
 30
0.0
 40
1.5
  0
CIRCLE
  5
62B
330
1E
100
AcDbEntity
  8
1
  6
Continuous
 62
     7
100
AcDbCircle
 10
984.0
 20
802.5
 30
0.0
 40
1.5
  0
CIRCLE
  5
62C
330
1E
100
AcDbEntity
  8
1
  6
Continuous
 62
     7
100
AcDbCircle
 10
984.0
 20
807.4999999999999
 30
0.0
 40
1.5
  0
CIRCLE
  5
62D
330
1E
100
AcDbEntity
  8
1
  6
Continuous
 62
     7
100
AcDbCircle
 10
992.0
 20
797.5
 30
0.0
 40
1.5
  0
CIRCLE
  5
62E
330
1E
100
AcDbEntity
  8
1
  6
Continuous
 62
     7
100
AcDbCircle
 10
992.0
 20
802.5
 30
0.0
 40
1.5
  0
CIRCLE
  5
62F
330
1E
100
AcDbEntity
  8
1
  6
Continuous
 62
     7
100
AcDbCircle
 10
992.0
 20
807.4999999999999
 30
0.0
 40
1.5
  0
CIRCLE
  5
630
330
1E
100
AcDbEntity
  8
1
  6
Continuous
 62
     7
100
AcDbCircle
 10
984.0
 20
779.4999999999999
 30
0.0
 40
1.5
  0
CIRCLE
  5
631
330
1E
100
AcDbEntity
  8
1
  6
Continuous
 62
     7
100
AcDbCircle
 10
984.0
 20
784.4999999999999
 30
0.0
 40
1.5
  0
CIRCLE
  5
632
330
1E
100
AcDbEntity
  8
1
  6
Continuous
 62
     7
100
AcDbCircle
 10
984.0
 20
789.5
 30
0.0
 40
1.5
  0
CIRCLE
  5
633
330
1E
100
AcDbEntity
  8
1
  6
Continuous
 62
     7
100
AcDbCircle
 10
992.0
 20
779.4999999999999
 30
0.0
 40
1.5
  0
CIRCLE
  5
634
330
1E
100
AcDbEntity
  8
1
  6
Continuous
 62
     7
100
AcDbCircle
 10
992.0
 20
784.4999999999999
 30
0.0
 40
1.5
  0
CIRCLE
  5
635
330
1E
100
AcDbEntity
  8
1
  6
Continuous
 62
     7
100
AcDbCircle
 10
992.0
 20
789.5
 30
0.0
 40
1.5
  0
CIRCLE
  5
636
330
1E
100
AcDbEntity
  8
1
  6
Continuous
 62
     7
100
AcDbCircle
 10
1000.0
 20
779.4999999999999
 30
0.0
 40
1.5
  0
CIRCLE
  5
637
330
1E
100
AcDbEntity
  8
1
  6
Continuous
 62
     7
100
AcDbCircle
 10
1000.0
 20
784.4999999999999
 30
0.0
 40
1.5
  0
CIRCLE
  5
638
330
1E
100
AcDbEntity
  8
1
  6
Continuous
 62
     7
100
AcDbCircle
 10
1000.0
 20
789.5
 30
0.0
 40
1.5
  0
CIRCLE
  5
639
330
1E
100
AcDbEntity
  8
1
  6
Continuous
 62
     7
100
AcDbCircle
 10
1000.0
 20
797.5
 30
0.0
 40
1.5
  0
CIRCLE
  5
63A
330
1E
100
AcDbEntity
  8
1
  6
Continuous
 62
     7
100
AcDbCircle
 10
1000.0
 20
802.5
 30
0.0
 40
1.5
  0
CIRCLE
  5
63B
330
1E
100
AcDbEntity
  8
1
  6
Continuous
 62
     7
100
AcDbCircle
 10
1000.0
 20
807.4999999999999
 30
0.0
 40
1.5
  0
CIRCLE
  5
63C
330
1E
100
AcDbEntity
  8
1
  6
Continuous
 62
     7
100
AcDbCircle
 10
1008.0
 20
797.5
 30
0.0
 40
1.5
  0
CIRCLE
  5
63D
330
1E
100
AcDbEntity
  8
1
  6
Continuous
 62
     7
100
AcDbCircle
 10
1008.0
 20
802.5
 30
0.0
 40
1.5
  0
CIRCLE
  5
63E
330
1E
100
AcDbEntity
  8
1
  6
Continuous
 62
     7
100
AcDbCircle
 10
1008.0
 20
807.4999999999999
 30
0.0
 40
1.5
  0
CIRCLE
  5
63F
330
1E
100
AcDbEntity
  8
1
  6
Continuous
 62
     7
100
AcDbCircle
 10
1016.0
 20
797.5
 30
0.0
 40
1.5
  0
CIRCLE
  5
640
330
1E
100
AcDbEntity
  8
1
  6
Continuous
 62
     7
100
AcDbCircle
 10
1016.0
 20
802.5
 30
0.0
 40
1.5
  0
CIRCLE
  5
641
330
1E
100
AcDbEntity
  8
1
  6
Continuous
 62
     7
100
AcDbCircle
 10
1016.0
 20
807.4999999999999
 30
0.0
 40
1.5
  0
CIRCLE
  5
642
330
1E
100
AcDbEntity
  8
1
  6
Continuous
 62
     7
100
AcDbCircle
 10
1008.0
 20
779.4999999999999
 30
0.0
 40
1.5
  0
CIRCLE
  5
643
330
1E
100
AcDbEntity
  8
1
  6
Continuous
 62
     7
100
AcDbCircle
 10
1008.0
 20
784.4999999999999
 30
0.0
 40
1.5
  0
CIRCLE
  5
644
330
1E
100
AcDbEntity
  8
1
  6
Continuous
 62
     7
100
AcDbCircle
 10
1008.0
 20
789.5
 30
0.0
 40
1.5
  0
CIRCLE
  5
645
330
1E
100
AcDbEntity
  8
1
  6
Continuous
 62
     7
100
AcDbCircle
 10
1016.0
 20
779.4999999999999
 30
0.0
 40
1.5
  0
CIRCLE
  5
646
330
1E
100
AcDbEntity
  8
1
  6
Continuous
 62
     7
100
AcDbCircle
 10
1016.0
 20
784.4999999999999
 30
0.0
 40
1.5
  0
CIRCLE
  5
647
330
1E
100
AcDbEntity
  8
1
  6
Continuous
 62
     7
100
AcDbCircle
 10
1016.0
 20
789.5
 30
0.0
 40
1.5
  0
CIRCLE
  5
648
330
1E
100
AcDbEntity
  8
1
  6
Continuous
 62
     7
100
AcDbCircle
 10
1024.0
 20
779.4999999999999
 30
0.0
 40
1.5
  0
CIRCLE
  5
649
330
1E
100
AcDbEntity
  8
1
  6
Continuous
 62
     7
100
AcDbCircle
 10
1024.0
 20
784.4999999999999
 30
0.0
 40
1.5
  0
CIRCLE
  5
64A
330
1E
100
AcDbEntity
  8
1
  6
Continuous
 62
     7
100
AcDbCircle
 10
1024.0
 20
789.5
 30
0.0
 40
1.5
  0
CIRCLE
  5
64B
330
1E
100
AcDbEntity
  8
1
  6
Continuous
 62
     7
100
AcDbCircle
 10
1024.0
 20
797.5
 30
0.0
 40
1.5
  0
CIRCLE
  5
64C
330
1E
100
AcDbEntity
  8
1
  6
Continuous
 62
     7
100
AcDbCircle
 10
1024.0
 20
802.5
 30
0.0
 40
1.5
  0
CIRCLE
  5
64D
330
1E
100
AcDbEntity
  8
1
  6
Continuous
 62
     7
100
AcDbCircle
 10
1032.0
 20
797.5
 30
0.0
 40
1.5
  0
CIRCLE
  5
64E
330
1E
100
AcDbEntity
  8
1
  6
Continuous
 62
     7
100
AcDbCircle
 10
1032.0
 20
779.4999999999999
 30
0.0
 40
1.5
  0
CIRCLE
  5
64F
330
1E
100
AcDbEntity
  8
1
  6
Continuous
 62
     7
100
AcDbCircle
 10
1032.0
 20
784.4999999999999
 30
0.0
 40
1.5
  0
CIRCLE
  5
650
330
1E
100
AcDbEntity
  8
1
  6
Continuous
 62
     7
100
AcDbCircle
 10
1032.0
 20
789.5
 30
0.0
 40
1.5
  0
CIRCLE
  5
651
330
1E
100
AcDbEntity
  8
1
  6
Continuous
 62
     7
100
AcDbCircle
 10
872.0
 20
779.4999999999999
 30
0.0
 40
1.5
  0
CIRCLE
  5
652
330
1E
100
AcDbEntity
  8
1
  6
Continuous
 62
     7
100
AcDbCircle
 10
872.0
 20
784.4999999999999
 30
0.0
 40
1.5
  0
CIRCLE
  5
653
330
1E
100
AcDbEntity
  8
1
  6
Continuous
 62
     7
100
AcDbCircle
 10
872.0
 20
789.5
 30
0.0
 40
1.5
  0
CIRCLE
  5
654
330
1E
100
AcDbEntity
  8
1
  6
Continuous
 62
     7
100
AcDbCircle
 10
864.0
 20
779.4999999999999
 30
0.0
 40
1.5
  0
CIRCLE
  5
655
330
1E
100
AcDbEntity
  8
1
  6
Continuous
 62
     7
100
AcDbCircle
 10
864.0
 20
784.4999999999999
 30
0.0
 40
1.5
  0
CIRCLE
  5
656
330
1E
100
AcDbEntity
  8
1
  6
Continuous
 62
     7
100
AcDbCircle
 10
864.0
 20
789.5
 30
0.0
 40
1.5
  0
CIRCLE
  5
657
330
1E
100
AcDbEntity
  8
1
  6
Continuous
 62
     7
100
AcDbCircle
 10
856.0
 20
779.4999999999999
 30
0.0
 40
1.5
  0
CIRCLE
  5
658
330
1E
100
AcDbEntity
  8
1
  6
Continuous
 62
     7
100
AcDbCircle
 10
856.0
 20
784.4999999999999
 30
0.0
 40
1.5
  0
CIRCLE
  5
659
330
1E
100
AcDbEntity
  8
1
  6
Continuous
 62
     7
100
AcDbCircle
 10
856.0
 20
789.5
 30
0.0
 40
1.5
  0
CIRCLE
  5
65A
330
1E
100
AcDbEntity
  8
1
  6
Continuous
 62
     7
100
AcDbCircle
 10
848.0
 20
779.4999999999999
 30
0.0
 40
1.5
  0
CIRCLE
  5
65B
330
1E
100
AcDbEntity
  8
1
  6
Continuous
 62
     7
100
AcDbCircle
 10
848.0
 20
784.4999999999999
 30
0.0
 40
1.5
  0
CIRCLE
  5
65C
330
1E
100
AcDbEntity
  8
1
  6
Continuous
 62
     7
100
AcDbCircle
 10
848.0
 20
789.5
 30
0.0
 40
1.5
  0
CIRCLE
  5
65D
330
1E
100
AcDbEntity
  8
1
  6
Continuous
 62
     7
100
AcDbCircle
 10
840.0
 20
779.4999999999999
 30
0.0
 40
1.5
  0
CIRCLE
  5
65E
330
1E
100
AcDbEntity
  8
1
  6
Continuous
 62
     7
100
AcDbCircle
 10
840.0
 20
784.4999999999999
 30
0.0
 40
1.5
  0
CIRCLE
  5
65F
330
1E
100
AcDbEntity
  8
1
  6
Continuous
 62
     7
100
AcDbCircle
 10
840.0
 20
789.5
 30
0.0
 40
1.5
  0
CIRCLE
  5
660
330
1E
100
AcDbEntity
  8
1
  6
Continuous
 62
     7
100
AcDbCircle
 10
832.0
 20
779.4999999999999
 30
0.0
 40
1.5
  0
CIRCLE
  5
661
330
1E
100
AcDbEntity
  8
1
  6
Continuous
 62
     7
100
AcDbCircle
 10
832.0
 20
784.4999999999999
 30
0.0
 40
1.5
  0
CIRCLE
  5
662
330
1E
100
AcDbEntity
  8
1
  6
Continuous
 62
     7
100
AcDbCircle
 10
832.0
 20
789.5
 30
0.0
 40
1.5
  0
CIRCLE
  5
663
330
1E
100
AcDbEntity
  8
1
  6
Continuous
 62
     7
100
AcDbCircle
 10
832.0
 20
797.5
 30
0.0
 40
1.5
  0
CIRCLE
  5
664
330
1E
100
AcDbEntity
  8
1
  6
Continuous
 62
     7
100
AcDbCircle
 10
832.0
 20
802.5
 30
0.0
 40
1.5
  0
CIRCLE
  5
665
330
1E
100
AcDbEntity
  8
1
  6
Continuous
 62
     7
100
AcDbCircle
 10
832.0
 20
807.4999999999999
 30
0.0
 40
1.5
  0
CIRCLE
  5
666
330
1E
100
AcDbEntity
  8
1
  6
Continuous
 62
     7
100
AcDbCircle
 10
824.0
 20
797.5
 30
0.0
 40
1.5
  0
CIRCLE
  5
667
330
1E
100
AcDbEntity
  8
1
  6
Continuous
 62
     7
100
AcDbCircle
 10
824.0
 20
802.5
 30
0.0
 40
1.5
  0
CIRCLE
  5
668
330
1E
100
AcDbEntity
  8
1
  6
Continuous
 62
     7
100
AcDbCircle
 10
824.0
 20
807.4999999999999
 30
0.0
 40
1.5
  0
CIRCLE
  5
669
330
1E
100
AcDbEntity
  8
1
  6
Continuous
 62
     7
100
AcDbCircle
 10
816.0
 20
797.5
 30
0.0
 40
1.5
  0
CIRCLE
  5
66A
330
1E
100
AcDbEntity
  8
1
  6
Continuous
 62
     7
100
AcDbCircle
 10
816.0
 20
802.5
 30
0.0
 40
1.5
  0
CIRCLE
  5
66B
330
1E
100
AcDbEntity
  8
1
  6
Continuous
 62
     7
100
AcDbCircle
 10
816.0
 20
807.4999999999999
 30
0.0
 40
1.5
  0
CIRCLE
  5
66C
330
1E
100
AcDbEntity
  8
1
  6
Continuous
 62
     7
100
AcDbCircle
 10
824.0
 20
779.4999999999999
 30
0.0
 40
1.5
  0
CIRCLE
  5
66D
330
1E
100
AcDbEntity
  8
1
  6
Continuous
 62
     7
100
AcDbCircle
 10
824.0
 20
784.4999999999999
 30
0.0
 40
1.5
  0
CIRCLE
  5
66E
330
1E
100
AcDbEntity
  8
1
  6
Continuous
 62
     7
100
AcDbCircle
 10
824.0
 20
789.5
 30
0.0
 40
1.5
  0
CIRCLE
  5
66F
330
1E
100
AcDbEntity
  8
1
  6
Continuous
 62
     7
100
AcDbCircle
 10
816.0
 20
779.4999999999999
 30
0.0
 40
1.5
  0
CIRCLE
  5
670
330
1E
100
AcDbEntity
  8
1
  6
Continuous
 62
     7
100
AcDbCircle
 10
816.0
 20
784.4999999999999
 30
0.0
 40
1.5
  0
CIRCLE
  5
671
330
1E
100
AcDbEntity
  8
1
  6
Continuous
 62
     7
100
AcDbCircle
 10
816.0
 20
789.5
 30
0.0
 40
1.5
  0
CIRCLE
  5
672
330
1E
100
AcDbEntity
  8
1
  6
Continuous
 62
     7
100
AcDbCircle
 10
808.0
 20
779.4999999999999
 30
0.0
 40
1.5
  0
CIRCLE
  5
673
330
1E
100
AcDbEntity
  8
1
  6
Continuous
 62
     7
100
AcDbCircle
 10
808.0
 20
784.4999999999999
 30
0.0
 40
1.5
  0
CIRCLE
  5
674
330
1E
100
AcDbEntity
  8
1
  6
Continuous
 62
     7
100
AcDbCircle
 10
808.0
 20
789.5
 30
0.0
 40
1.5
  0
CIRCLE
  5
675
330
1E
100
AcDbEntity
  8
1
  6
Continuous
 62
     7
100
AcDbCircle
 10
808.0
 20
797.5
 30
0.0
 40
1.5
  0
CIRCLE
  5
676
330
1E
100
AcDbEntity
  8
1
  6
Continuous
 62
     7
100
AcDbCircle
 10
808.0
 20
802.5
 30
0.0
 40
1.5
  0
CIRCLE
  5
677
330
1E
100
AcDbEntity
  8
1
  6
Continuous
 62
     7
100
AcDbCircle
 10
808.0
 20
807.4999999999999
 30
0.0
 40
1.5
  0
CIRCLE
  5
678
330
1E
100
AcDbEntity
  8
1
  6
Continuous
 62
     7
100
AcDbCircle
 10
800.0
 20
797.5
 30
0.0
 40
1.5
  0
CIRCLE
  5
679
330
1E
100
AcDbEntity
  8
1
  6
Continuous
 62
     7
100
AcDbCircle
 10
800.0
 20
802.5
 30
0.0
 40
1.5
  0
CIRCLE
  5
67A
330
1E
100
AcDbEntity
  8
1
  6
Continuous
 62
     7
100
AcDbCircle
 10
800.0
 20
807.4999999999999
 30
0.0
 40
1.5
  0
CIRCLE
  5
67B
330
1E
100
AcDbEntity
  8
1
  6
Continuous
 62
     7
100
AcDbCircle
 10
792.0
 20
797.5
 30
0.0
 40
1.5
  0
CIRCLE
  5
67C
330
1E
100
AcDbEntity
  8
1
  6
Continuous
 62
     7
100
AcDbCircle
 10
792.0
 20
802.5
 30
0.0
 40
1.5
  0
CIRCLE
  5
67D
330
1E
100
AcDbEntity
  8
1
  6
Continuous
 62
     7
100
AcDbCircle
 10
792.0
 20
807.4999999999999
 30
0.0
 40
1.5
  0
CIRCLE
  5
67E
330
1E
100
AcDbEntity
  8
1
  6
Continuous
 62
     7
100
AcDbCircle
 10
800.0
 20
779.4999999999999
 30
0.0
 40
1.5
  0
CIRCLE
  5
67F
330
1E
100
AcDbEntity
  8
1
  6
Continuous
 62
     7
100
AcDbCircle
 10
800.0
 20
784.4999999999999
 30
0.0
 40
1.5
  0
CIRCLE
  5
680
330
1E
100
AcDbEntity
  8
1
  6
Continuous
 62
     7
100
AcDbCircle
 10
800.0
 20
789.5
 30
0.0
 40
1.5
  0
CIRCLE
  5
681
330
1E
100
AcDbEntity
  8
1
  6
Continuous
 62
     7
100
AcDbCircle
 10
792.0
 20
779.4999999999999
 30
0.0
 40
1.5
  0
CIRCLE
  5
682
330
1E
100
AcDbEntity
  8
1
  6
Continuous
 62
     7
100
AcDbCircle
 10
792.0
 20
784.4999999999999
 30
0.0
 40
1.5
  0
CIRCLE
  5
683
330
1E
100
AcDbEntity
  8
1
  6
Continuous
 62
     7
100
AcDbCircle
 10
792.0
 20
789.5
 30
0.0
 40
1.5
  0
CIRCLE
  5
684
330
1E
100
AcDbEntity
  8
1
  6
Continuous
 62
     7
100
AcDbCircle
 10
784.0
 20
779.4999999999999
 30
0.0
 40
1.5
  0
CIRCLE
  5
685
330
1E
100
AcDbEntity
  8
1
  6
Continuous
 62
     7
100
AcDbCircle
 10
784.0
 20
784.4999999999999
 30
0.0
 40
1.5
  0
CIRCLE
  5
686
330
1E
100
AcDbEntity
  8
1
  6
Continuous
 62
     7
100
AcDbCircle
 10
784.0
 20
789.5
 30
0.0
 40
1.5
  0
CIRCLE
  5
687
330
1E
100
AcDbEntity
  8
1
  6
Continuous
 62
     7
100
AcDbCircle
 10
784.0
 20
797.5
 30
0.0
 40
1.5
  0
CIRCLE
  5
688
330
1E
100
AcDbEntity
  8
1
  6
Continuous
 62
     7
100
AcDbCircle
 10
784.0
 20
802.5
 30
0.0
 40
1.5
  0
CIRCLE
  5
689
330
1E
100
AcDbEntity
  8
1
  6
Continuous
 62
     7
100
AcDbCircle
 10
784.0
 20
807.4999999999999
 30
0.0
 40
1.5
  0
CIRCLE
  5
68A
330
1E
100
AcDbEntity
  8
1
  6
Continuous
 62
     7
100
AcDbCircle
 10
776.0
 20
797.5
 30
0.0
 40
1.5
  0
CIRCLE
  5
68B
330
1E
100
AcDbEntity
  8
1
  6
Continuous
 62
     7
100
AcDbCircle
 10
776.0
 20
802.5
 30
0.0
 40
1.5
  0
CIRCLE
  5
68C
330
1E
100
AcDbEntity
  8
1
  6
Continuous
 62
     7
100
AcDbCircle
 10
776.0
 20
807.4999999999999
 30
0.0
 40
1.5
  0
CIRCLE
  5
68D
330
1E
100
AcDbEntity
  8
1
  6
Continuous
 62
     7
100
AcDbCircle
 10
776.0
 20
779.4999999999999
 30
0.0
 40
1.5
  0
CIRCLE
  5
68E
330
1E
100
AcDbEntity
  8
1
  6
Continuous
 62
     7
100
AcDbCircle
 10
776.0
 20
784.4999999999999
 30
0.0
 40
1.5
  0
CIRCLE
  5
68F
330
1E
100
AcDbEntity
  8
1
  6
Continuous
 62
     7
100
AcDbCircle
 10
776.0
 20
789.5
 30
0.0
 40
1.5
  0
ARC
  5
706
330
1E
100
AcDbEntity
  8
1
  6
Continuous
 62
     7
100
AcDbCircle
 10
88.49999999999999
 20
651.0
 30
0.0
 40
2.0
100
AcDbArc
 50
90.0
 51
180.0
  0
LINE
  5
707
330
1E
100
AcDbEntity
  8
1
  6
Continuous
 62
     7
100
AcDbLine
 10
86.5
 20
651.0
 30
0.0
 11
86.5
 21
303.5
 31
0.0
  0
ARC
  5
708
330
1E
100
AcDbEntity
  8
1
  6
Continuous
 62
     7
100
AcDbCircle
 10
88.49999999999999
 20
303.5
 30
0.0
 40
2.0
100
AcDbArc
 50
180.0
 51
270.0
  0
LINE
  5
709
330
1E
100
AcDbEntity
  8
1
  6
Continuous
 62
     7
100
AcDbLine
 10
88.49999999999999
 20
301.5
 30
0.0
 11
471.4999999999999
 21
301.5
 31
0.0
  0
ARC
  5
70A
330
1E
100
AcDbEntity
  8
1
  6
Continuous
 62
     7
100
AcDbCircle
 10
471.4999999999999
 20
303.5
 30
0.0
 40
2.0
100
AcDbArc
 50
270.0
 51
0.0
  0
LINE
  5
70B
330
1E
100
AcDbEntity
  8
1
  6
Continuous
 62
     7
100
AcDbLine
 10
473.5
 20
303.5
 30
0.0
 11
473.5
 21
651.0
 31
0.0
  0
LINE
  5
70C
330
1E
100
AcDbEntity
  8
1
  6
Continuous
 62
     7
100
AcDbLine
 10
471.4999999999999
 20
653.0
 30
0.0
 11
88.49999999999999
 21
653.0
 31
0.0
  0
ARC
  5
70D
330
1E
100
AcDbEntity
  8
1
  6
Continuous
 62
     7
100
AcDbCircle
 10
471.4999999999999
 20
651.0
 30
0.0
 40
2.0
100
AcDbArc
 50
0.0
 51
90.0
  0
LINE
  5
70E
330
1E
100
AcDbEntity
  8
1
  6
Continuous
 62
     7
100
AcDbLine
 10
585.0
 20
340.0
 30
0.0
 11
614.2
 21
340.0
 31
0.0
  0
CIRCLE
  5
70F
330
1E
100
AcDbEntity
  8
1
  6
Continuous
 62
     7
100
AcDbCircle
 10
424.0
 20
612.5
 30
0.0
 40
2.0
  0
CIRCLE
  5
710
330
1E
100
AcDbEntity
  8
1
  6
Continuous
 62
     7
100
AcDbCircle
 10
424.0
 20
612.5
 30
0.0
 40
1.0
  0
CIRCLE
  5
711
330
1E
100
AcDbEntity
  8
1
  6
Continuous
 62
     7
100
AcDbCircle
 10
433.0
 20
612.5
 30
0.0
 40
2.0
  0
CIRCLE
  5
712
330
1E
100
AcDbEntity
  8
1
  6
Continuous
 62
     7
100
AcDbCircle
 10
433.0
 20
612.5
 30
0.0
 40
1.0
  0
CIRCLE
  5
713
330
1E
100
AcDbEntity
  8
1
  6
Continuous
 62
     7
100
AcDbCircle
 10
424.0
 20
598.5
 30
0.0
 40
1.0
  0
CIRCLE
  5
714
330
1E
100
AcDbEntity
  8
1
  6
Continuous
 62
     7
100
AcDbCircle
 10
433.0
 20
598.5
 30
0.0
 40
2.0
  0
CIRCLE
  5
715
330
1E
100
AcDbEntity
  8
1
  6
Continuous
 62
     7
100
AcDbCircle
 10
433.0
 20
598.5
 30
0.0
 40
1.0
  0
TEXT
  5
716
330
1E
100
AcDbEntity
  8
1
  6
Continuous
 62
     7
100
AcDbText
 10
421.4999999999999
 20
615.5
 30
0.0
 40
4.0
  1
Audio2
 41
0.625
  7
KANJI
100
AcDbText
  0
TEXT
  5
717
330
1E
100
AcDbEntity
  8
1
  6
Continuous
 62
     7
100
AcDbText
 10
427.7499999999999
 20
610.5
 30
0.0
 40
4.0
  1
R
 41
0.625
  7
KANJI
100
AcDbText
  0
TEXT
  5
718
330
1E
100
AcDbEntity
  8
1
  6
Continuous
 62
     7
100
AcDbText
 10
422.0
 20
603.5
 30
0.0
 40
4.0
  1
IN
 41
0.625
  7
KANJI
100
AcDbText
  0
TEXT
  5
719
330
1E
100
AcDbEntity
  8
1
  6
Continuous
 62
     7
100
AcDbText
 10
429.75
 20
603.5
 30
0.0
 40
4.0
  1
OUT
 41
0.625
  7
KANJI
100
AcDbText
  0
TEXT
  5
71A
330
1E
100
AcDbEntity
  8
1
  6
Continuous
 62
     7
100
AcDbText
 10
427.7499999999999
 20
596.4999999999999
 30
0.0
 40
4.0
  1
L
 41
0.625
  7
KANJI
100
AcDbText
  0
CIRCLE
  5
71B
330
1E
100
AcDbEntity
  8
1
  6
Continuous
 62
     7
100
AcDbCircle
 10
424.0
 20
598.5
 30
0.0
 40
2.0
  0
CIRCLE
  5
71C
330
1E
100
AcDbEntity
  8
1
  6
Continuous
 62
     7
100
AcDbCircle
 10
424.0
 20
580.4999999999999
 30
0.0
 40
2.0
  0
CIRCLE
  5
71D
330
1E
100
AcDbEntity
  8
1
  6
Continuous
 62
     7
100
AcDbCircle
 10
424.0
 20
580.4999999999999
 30
0.0
 40
1.0
  0
CIRCLE
  5
71E
330
1E
100
AcDbEntity
  8
1
  6
Continuous
 62
     7
100
AcDbCircle
 10
433.0
 20
580.4999999999999
 30
0.0
 40
2.0
  0
CIRCLE
  5
71F
330
1E
100
AcDbEntity
  8
1
  6
Continuous
 62
     7
100
AcDbCircle
 10
433.0
 20
580.4999999999999
 30
0.0
 40
1.0
  0
CIRCLE
  5
720
330
1E
100
AcDbEntity
  8
1
  6
Continuous
 62
     7
100
AcDbCircle
 10
424.0
 20
566.5
 30
0.0
 40
1.0
  0
CIRCLE
  5
721
330
1E
100
AcDbEntity
  8
1
  6
Continuous
 62
     7
100
AcDbCircle
 10
433.0
 20
566.5
 30
0.0
 40
2.0
  0
CIRCLE
  5
722
330
1E
100
AcDbEntity
  8
1
  6
Continuous
 62
     7
100
AcDbCircle
 10
433.0
 20
566.5
 30
0.0
 40
1.0
  0
TEXT
  5
723
330
1E
100
AcDbEntity
  8
1
  6
Continuous
 62
     7
100
AcDbText
 10
427.7499999999999
 20
578.5
 30
0.0
 40
4.0
  1
R
 41
0.625
  7
KANJI
100
AcDbText
  0
TEXT
  5
724
330
1E
100
AcDbEntity
  8
1
  6
Continuous
 62
     7
100
AcDbText
 10
422.0
 20
571.4999999999999
 30
0.0
 40
4.0
  1
IN
 41
0.625
  7
KANJI
100
AcDbText
  0
TEXT
  5
725
330
1E
100
AcDbEntity
  8
1
  6
Continuous
 62
     7
100
AcDbText
 10
429.75
 20
571.4999999999999
 30
0.0
 40
4.0
  1
OUT
 41
0.625
  7
KANJI
100
AcDbText
  0
TEXT
  5
726
330
1E
100
AcDbEntity
  8
1
  6
Continuous
 62
     7
100
AcDbText
 10
427.7499999999999
 20
564.5
 30
0.0
 40
4.0
  1
L
 41
0.625
  7
KANJI
100
AcDbText
  0
CIRCLE
  5
727
330
1E
100
AcDbEntity
  8
1
  6
Continuous
 62
     7
100
AcDbCircle
 10
424.0
 20
566.5
 30
0.0
 40
2.0
  0
TEXT
  5
728
330
1E
100
AcDbEntity
  8
1
  6
Continuous
 62
     7
100
AcDbText
 10
421.4999999999999
 20
583.4999999999999
 30
0.0
 40
4.0
  1
Audio1
 41
0.625
  7
KANJI
100
AcDbText
  0
CIRCLE
  5
729
330
1E
100
AcDbEntity
  8
1
  6
Continuous
 62
     7
100
AcDbCircle
 10
424.0
 20
548.5
 30
0.0
 40
2.0
  0
TEXT
  5
72A
330
1E
100
AcDbEntity
  8
1
  6
Continuous
 62
     7
100
AcDbText
 10
427.2499999999999
 20
546.4999999999999
 30
0.0
 40
4.0
  1
S-Video
 41
0.625
  7
KANJI
100
AcDbText
  0
CIRCLE
  5
72B
330
1E
100
AcDbEntity
  8
1
  6
Continuous
 62
     7
100
AcDbCircle
 10
425.0
 20
528.5
 30
0.0
 40
2.0
  0
TEXT
  5
72C
330
1E
100
AcDbEntity
  8
1
  6
Continuous
 62
     7
100
AcDbText
 10
428.2499999999999
 20
526.4999999999999
 30
0.0
 40
4.0
  1
OUT
 41
0.625
  7
KANJI
100
AcDbText
  0
CIRCLE
  5
72D
330
1E
100
AcDbEntity
  8
1
  6
Continuous
 62
     7
100
AcDbCircle
 10
425.0
 20
510.5
 30
0.0
 40
2.0
  0
TEXT
  5
72E
330
1E
100
AcDbEntity
  8
1
  6
Continuous
 62
     7
100
AcDbText
 10
428.0
 20
517.4999999999999
 30
0.0
 40
4.0
  1
Video2
 41
0.625
  7
KANJI
100
AcDbText
  0
TEXT
  5
72F
330
1E
100
AcDbEntity
  8
1
  6
Continuous
 62
     7
100
AcDbText
 10
427.5
 20
508.4999999999999
 30
0.0
 40
4.0
  1
IN
 41
0.625
  7
KANJI
100
AcDbText
  0
CIRCLE
  5
730
330
1E
100
AcDbEntity
  8
1
  6
Continuous
 62
     7
100
AcDbCircle
 10
425.0
 20
492.4999999999999
 30
0.0
 40
2.0
  0
TEXT
  5
731
330
1E
100
AcDbEntity
  8
1
  6
Continuous
 62
     7
100
AcDbText
 10
428.2499999999999
 20
490.5
 30
0.0
 40
4.0
  1
OUT
 41
0.625
  7
KANJI
100
AcDbText
  0
CIRCLE
  5
732
330
1E
100
AcDbEntity
  8
1
  6
Continuous
 62
     7
100
AcDbCircle
 10
425.0
 20
474.5
 30
0.0
 40
2.0
  0
TEXT
  5
733
330
1E
100
AcDbEntity
  8
1
  6
Continuous
 62
     7
100
AcDbText
 10
427.5
 20
472.5
 30
0.0
 40
4.0
  1
IN
 41
0.625
  7
KANJI
100
AcDbText
  0
TEXT
  5
734
330
1E
100
AcDbEntity
  8
1
  6
Continuous
 62
     7
100
AcDbText
 10
428.0
 20
481.5
 30
0.0
 40
4.0
  1
Video1
 41
0.625
  7
KANJI
100
AcDbText
  0
LINE
  5
735
330
1E
100
AcDbEntity
  8
1
  6
Continuous
 62
     7
100
AcDbLine
 10
422.0
 20
458.0
 30
0.0
 11
422.0
 21
454.0
 31
0.0
  0
LINE
  5
736
330
1E
100
AcDbEntity
  8
1
  6
Continuous
 62
     7
100
AcDbLine
 10
422.0
 20
454.0
 30
0.0
 11
426.0
 21
454.0
 31
0.0
  0
LINE
  5
737
330
1E
100
AcDbEntity
  8
1
  6
Continuous
 62
     7
100
AcDbLine
 10
426.0
 20
454.0
 30
0.0
 11
426.0
 21
458.0
 31
0.0
  0
LINE
  5
738
330
1E
100
AcDbEntity
  8
1
  6
Continuous
 62
     7
100
AcDbLine
 10
426.0
 20
458.0
 30
0.0
 11
422.0
 21
458.0
 31
0.0
  0
TEXT
  5
739
330
1E
100
AcDbEntity
  8
1
  6
Continuous
 62
     7
100
AcDbText
 10
428.2499999999999
 20
458.0
 30
0.0
 40
4.0
  1
DC12V OUT
 41
0.65407
  7
KANJI
100
AcDbText
  0
ARC
  5
73A
330
1E
100
AcDbEntity
  8
1
  6
Continuous
 62
     7
100
AcDbCircle
 10
437.0
 20
454.0
 30
0.0
 40
3.0
100
AcDbArc
 50
19.47122099999999
 51
340.528779
  0
LINE
  5
73B
330
1E
100
AcDbEntity
  8
1
  6
Continuous
 62
     7
100
AcDbLine
 10
434.0
 20
454.0
 30
0.0
 11
432.0
 21
454.0
 31
0.0
  0
CIRCLE
  5
73C
330
1E
100
AcDbEntity
  8
1
  6
Continuous
 62
     7
100
AcDbCircle
 10
437.0
 20
454.0
 30
0.0
 40
1.5
  0
LINE
  5
73D
330
1E
100
AcDbEntity
  8
1
  6
Continuous
 62
     7
100
AcDbLine
 10
438.4999999999999
 20
454.0
 30
0.0
 11
442.0
 21
454.0
 31
0.0
  0
TEXT
  5
73E
330
1E
100
AcDbEntity
  8
1
  6
Continuous
 62
     7
100
AcDbText
 10
428.517949
 20
451.4999999999999
 30
0.0
 40
5.0
  1
+
 41
0.5
  7
KANJI
100
AcDbText
  0
TEXT
  5
73F
330
1E
100
AcDbEntity
  8
1
  6
Continuous
 62
     7
100
AcDbText
 10
443.017949
 20
451.4999999999999
 30
0.0
 40
5.0
  1
-
 41
0.5
  7
KANJI
100
AcDbText
  0
CIRCLE
  5
740
330
1E
100
AcDbEntity
  8
1
  6
Continuous
 62
     7
100
AcDbCircle
 10
425.0
 20
441.0
 30
0.0
 40
2.0
  0
TEXT
  5
741
330
1E
100
AcDbEntity
  8
1
  6
Continuous
 62
     7
100
AcDbText
 10
428.0
 20
441.0
 30
0.0
 40
4.0
  1
PC Audio
 41
0.657895
  7
KANJI
100
AcDbText
  0
TEXT
  5
742
330
1E
100
AcDbEntity
  8
1
  6
Continuous
 62
     7
100
AcDbText
 10
435.5
 20
435.620743849427
 30
0.0
 40
4.0
  1
IN
 41
0.625
  7
KANJI
100
AcDbText
  0
ARC
  5
743
330
1E
100
AcDbEntity
  8
1
  6
Continuous
 62
     7
100
AcDbCircle
 10
423.4639999999999
 20
391.570534
 30
0.0
 40
1.536
100
AcDbArc
 50
180.0
 51
260.0
  0
LINE
  5
744
330
1E
100
AcDbEntity
  8
1
  6
Continuous
 62
     7
100
AcDbLine
 10
421.928
 20
399.429467
 30
0.0
 11
421.928
 21
391.570534
 31
0.0
  0
LINE
  5
745
330
1E
100
AcDbEntity
  8
1
  6
Continuous
 62
     7
100
AcDbLine
 10
423.1972759999999
 20
390.057869
 30
0.0
 11
426.269276
 21
389.516193
 31
0.0
  0
ARC
  5
746
330
1E
100
AcDbEntity
  8
1
  6
Continuous
 62
     7
100
AcDbCircle
 10
426.536
 20
391.0288569999999
 30
0.0
 40
1.536
100
AcDbArc
 50
260.0
 51
0.0
  0
LINE
  5
747
330
1E
100
AcDbEntity
  8
1
  6
Continuous
 62
     7
100
AcDbLine
 10
428.072
 20
391.0288569999999
 30
0.0
 11
428.072
 21
399.971143
 31
0.0
  0
ARC
  5
748
330
1E
100
AcDbEntity
  8
1
  6
Continuous
 62
     7
100
AcDbCircle
 10
426.536
 20
399.971143
 30
0.0
 40
1.536
100
AcDbArc
 50
0.0
 51
100.0
  0
LINE
  5
749
330
1E
100
AcDbEntity
  8
1
  6
Continuous
 62
     7
100
AcDbLine
 10
426.269276
 20
401.483808
 30
0.0
 11
423.1972759999999
 21
400.942131
 31
0.0
  0
ARC
  5
74A
330
1E
100
AcDbEntity
  8
1
  6
Continuous
 62
     7
100
AcDbCircle
 10
423.4639999999999
 20
399.429467
 30
0.0
 40
1.536
100
AcDbArc
 50
100.0
 51
180.0
  0
ARC
  5
74B
330
1E
100
AcDbEntity
  8
1
  6
Continuous
 62
     7
100
AcDbCircle
 10
423.72
 20
392.225445
 30
0.0
 40
1.28
100
AcDbArc
 50
180.0
 51
260.0
  0
LINE
  5
74C
330
1E
100
AcDbEntity
  8
1
  6
Continuous
 62
     7
100
AcDbLine
 10
422.44
 20
398.774556
 30
0.0
 11
422.44
 21
392.225445
 31
0.0
  0
LINE
  5
74D
330
1E
100
AcDbEntity
  8
1
  6
Continuous
 62
     7
100
AcDbLine
 10
423.4977299999999
 20
390.964891
 30
0.0
 11
426.0577299999999
 21
390.5134939999999
 31
0.0
  0
ARC
  5
74E
330
1E
100
AcDbEntity
  8
1
  6
Continuous
 62
     7
100
AcDbCircle
 10
426.2799999999999
 20
391.7740479999999
 30
0.0
 40
1.28
100
AcDbArc
 50
260.0
 51
0.0
  0
LINE
  5
74F
330
1E
100
AcDbEntity
  8
1
  6
Continuous
 62
     7
100
AcDbLine
 10
427.5599999999999
 20
391.7740479999999
 30
0.0
 11
427.5599999999999
 21
399.225953
 31
0.0
  0
ARC
  5
750
330
1E
100
AcDbEntity
  8
1
  6
Continuous
 62
     7
100
AcDbCircle
 10
426.2799999999999
 20
399.225953
 30
0.0
 40
1.28
100
AcDbArc
 50
0.0
 51
100.0
  0
LINE
  5
751
330
1E
100
AcDbEntity
  8
1
  6
Continuous
 62
     7
100
AcDbLine
 10
426.0577299999999
 20
400.4865069999999
 30
0.0
 11
423.4977299999999
 21
400.03511
 31
0.0
  0
ARC
  5
752
330
1E
100
AcDbEntity
  8
1
  6
Continuous
 62
     7
100
AcDbCircle
 10
423.72
 20
398.774556
 30
0.0
 40
1.28
100
AcDbArc
 50
100.0
 51
180.0
  0
CIRCLE
  5
753
330
1E
100
AcDbEntity
  8
1
  6
Continuous
 62
     7
100
AcDbCircle
 10
425.0
 20
387.5000009999999
 30
0.0
 40
0.9599999999999999
  0
LINE
  5
754
330
1E
100
AcDbEntity
  8
1
  6
Continuous
 62
     7
100
AcDbLine
 10
425.8
 20
386.1143609999999
 30
0.0
 11
426.6
 21
387.5000009999999
 31
0.0
  0
LINE
  5
755
330
1E
100
AcDbEntity
  8
1
  6
Continuous
 62
     7
100
AcDbLine
 10
424.2000009999999
 20
386.11436
 30
0.0
 11
425.8
 21
386.1143609999999
 31
0.0
  0
LINE
  5
756
330
1E
100
AcDbEntity
  8
1
  6
Continuous
 62
     7
100
AcDbLine
 10
423.3999999999999
 20
387.5000009999999
 30
0.0
 11
424.2000009999999
 21
386.11436
 31
0.0
  0
LINE
  5
757
330
1E
100
AcDbEntity
  8
1
  6
Continuous
 62
     7
100
AcDbLine
 10
424.1999999999999
 20
388.885642
 30
0.0
 11
423.3999999999999
 21
387.5000009999999
 31
0.0
  0
LINE
  5
758
330
1E
100
AcDbEntity
  8
1
  6
Continuous
 62
     7
100
AcDbLine
 10
425.8000009999999
 20
388.885642
 30
0.0
 11
424.1999999999999
 21
388.885642
 31
0.0
  0
LINE
  5
759
330
1E
100
AcDbEntity
  8
1
  6
Continuous
 62
     7
100
AcDbLine
 10
426.6
 20
387.5000009999999
 30
0.0
 11
425.8000009999999
 21
388.885642
 31
0.0
  0
CIRCLE
  5
75A
330
1E
100
AcDbEntity
  8
1
  6
Continuous
 62
     7
100
AcDbCircle
 10
425.0
 20
403.5
 30
0.0
 40
0.9599999999999999
  0
LINE
  5
75B
330
1E
100
AcDbEntity
  8
1
  6
Continuous
 62
     7
100
AcDbLine
 10
425.8
 20
402.11436
 30
0.0
 11
426.6
 21
403.500001
 31
0.0
  0
LINE
  5
75C
330
1E
100
AcDbEntity
  8
1
  6
Continuous
 62
     7
100
AcDbLine
 10
424.2000009999999
 20
402.1143589999999
 30
0.0
 11
425.8
 21
402.11436
 31
0.0
  0
LINE
  5
75D
330
1E
100
AcDbEntity
  8
1
  6
Continuous
 62
     7
100
AcDbLine
 10
423.3999999999999
 20
403.500001
 30
0.0
 11
424.2000009999999
 21
402.1143589999999
 31
0.0
  0
LINE
  5
75E
330
1E
100
AcDbEntity
  8
1
  6
Continuous
 62
     7
100
AcDbLine
 10
424.1999999999999
 20
404.8856409999999
 30
0.0
 11
423.3999999999999
 21
403.500001
 31
0.0
  0
LINE
  5
75F
330
1E
100
AcDbEntity
  8
1
  6
Continuous
 62
     7
100
AcDbLine
 10
425.8000009999999
 20
404.8856409999999
 30
0.0
 11
424.1999999999999
 21
404.8856409999999
 31
0.0
  0
LINE
  5
760
330
1E
100
AcDbEntity
  8
1
  6
Continuous
 62
     7
100
AcDbLine
 10
426.6
 20
403.500001
 30
0.0
 11
425.8000009999999
 21
404.8856409999999
 31
0.0
  0
LINE
  5
761
330
1E
100
AcDbEntity
  8
1
  6
Continuous
 62
     7
100
AcDbLine
 10
424.8999999999999
 20
349.5
 30
0.0
 11
424.8999999999999
 21
348.7
 31
0.0
  0
LINE
  5
762
330
1E
100
AcDbEntity
  8
1
  6
Continuous
 62
     7
100
AcDbLine
 10
424.8999999999999
 20
348.7
 30
0.0
 11
426.4999999999999
 21
348.7
 31
0.0
  0
LINE
  5
763
330
1E
100
AcDbEntity
  8
1
  6
Continuous
 62
     7
100
AcDbLine
 10
426.4999999999999
 20
348.7
 30
0.0
 11
426.4999999999999
 21
349.5
 31
0.0
  0
LINE
  5
764
330
1E
100
AcDbEntity
  8
1
  6
Continuous
 62
     7
100
AcDbLine
 10
426.4999999999999
 20
349.5
 30
0.0
 11
424.8999999999999
 21
349.5
 31
0.0
  0
LINE
  5
765
330
1E
100
AcDbEntity
  8
1
  6
Continuous
 62
     7
100
AcDbLine
 10
424.8999999999999
 20
353.3
 30
0.0
 11
424.8999999999999
 21
352.4999999999999
 31
0.0
  0
LINE
  5
766
330
1E
100
AcDbEntity
  8
1
  6
Continuous
 62
     7
100
AcDbLine
 10
424.8999999999999
 20
352.4999999999999
 30
0.0
 11
426.4999999999999
 21
352.4999999999999
 31
0.0
  0
LINE
  5
767
330
1E
100
AcDbEntity
  8
1
  6
Continuous
 62
     7
100
AcDbLine
 10
426.4999999999999
 20
352.4999999999999
 30
0.0
 11
426.4999999999999
 21
353.3
 31
0.0
  0
LINE
  5
768
330
1E
100
AcDbEntity
  8
1
  6
Continuous
 62
     7
100
AcDbLine
 10
426.4999999999999
 20
353.3
 30
0.0
 11
424.8999999999999
 21
353.3
 31
0.0
  0
LINE
  5
769
330
1E
100
AcDbEntity
  8
1
  6
Continuous
 62
     7
100
AcDbLine
 10
423.5
 20
351.3999999999999
 30
0.0
 11
423.5
 21
350.6
 31
0.0
  0
LINE
  5
76A
330
1E
100
AcDbEntity
  8
1
  6
Continuous
 62
     7
100
AcDbLine
 10
423.5
 20
350.6
 30
0.0
 11
425.1
 21
350.6
 31
0.0
  0
LINE
  5
76B
330
1E
100
AcDbEntity
  8
1
  6
Continuous
 62
     7
100
AcDbLine
 10
425.1
 20
350.6
 30
0.0
 11
425.1
 21
351.3999999999999
 31
0.0
  0
LINE
  5
76C
330
1E
100
AcDbEntity
  8
1
  6
Continuous
 62
     7
100
AcDbLine
 10
425.1
 20
351.3999999999999
 30
0.0
 11
423.5
 21
351.3999999999999
 31
0.0
  0
ARC
  5
76D
330
1E
100
AcDbEntity
  8
1
  6
Continuous
 62
     7
100
AcDbCircle
 10
420.6999999999999
 20
356.6
 30
0.0
 40
0.4
100
AcDbArc
 50
90.0
 51
180.0
  0
LINE
  5
76E
330
1E
100
AcDbEntity
  8
1
  6
Continuous
 62
     7
100
AcDbLine
 10
429.3
 20
357.0
 30
0.0
 11
420.6999999999999
 21
357.0
 31
0.0
  0
ARC
  5
76F
330
1E
100
AcDbEntity
  8
1
  6
Continuous
 62
     7
100
AcDbCircle
 10
429.3
 20
356.6
 30
0.0
 40
0.4
100
AcDbArc
 50
0.0
 51
90.0
  0
LINE
  5
770
330
1E
100
AcDbEntity
  8
1
  6
Continuous
 62
     7
100
AcDbLine
 10
429.6999999999999
 20
345.3999999999999
 30
0.0
 11
429.6999999999999
 21
356.6
 31
0.0
  0
ARC
  5
771
330
1E
100
AcDbEntity
  8
1
  6
Continuous
 62
     7
100
AcDbCircle
 10
429.3
 20
345.3999999999999
 30
0.0
 40
0.4
100
AcDbArc
 50
270.0
 51
0.0
  0
LINE
  5
772
330
1E
100
AcDbEntity
  8
1
  6
Continuous
 62
     7
100
AcDbLine
 10
420.6999999999999
 20
345.0
 30
0.0
 11
429.3
 21
345.0
 31
0.0
  0
LINE
  5
773
330
1E
100
AcDbEntity
  8
1
  6
Continuous
 62
     7
100
AcDbLine
 10
420.3
 20
356.6
 30
0.0
 11
420.3
 21
345.3999999999999
 31
0.0
  0
ARC
  5
774
330
1E
100
AcDbEntity
  8
1
  6
Continuous
 62
     7
100
AcDbCircle
 10
420.6999999999999
 20
345.3999999999999
 30
0.0
 40
0.4
100
AcDbArc
 50
180.0
 51
270.0
  0
ARC
  5
775
330
1E
100
AcDbEntity
  8
1
  6
Continuous
 62
     7
100
AcDbCircle
 10
424.231371
 20
347.1999999999999
 30
0.0
 40
0.8
100
AcDbArc
 50
225.0
 51
270.0
  0
LINE
  5
776
330
1E
100
AcDbEntity
  8
1
  6
Continuous
 62
     7
100
AcDbLine
 10
424.231371
 20
346.3999999999999
 30
0.0
 11
427.5
 21
346.3999999999999
 31
0.0
  0
LINE
  5
777
330
1E
100
AcDbEntity
  8
1
  6
Continuous
 62
     7
100
AcDbLine
 10
421.934315
 20
348.365685
 30
0.0
 11
423.6656849999999
 21
346.634315
 31
0.0
  0
ARC
  5
778
330
1E
100
AcDbEntity
  8
1
  6
Continuous
 62
     7
100
AcDbCircle
 10
422.4999999999999
 20
348.931371
 30
0.0
 40
0.8
100
AcDbArc
 50
180.0
 51
225.0
  0
LINE
  5
779
330
1E
100
AcDbEntity
  8
1
  6
Continuous
 62
     7
100
AcDbLine
 10
421.6999999999999
 20
353.0686289999999
 30
0.0
 11
421.6999999999999
 21
348.931371
 31
0.0
  0
ARC
  5
77A
330
1E
100
AcDbEntity
  8
1
  6
Continuous
 62
     7
100
AcDbCircle
 10
422.4999999999999
 20
353.0686289999999
 30
0.0
 40
0.8
100
AcDbArc
 50
135.0
 51
180.0
  0
LINE
  5
77B
330
1E
100
AcDbEntity
  8
1
  6
Continuous
 62
     7
100
AcDbLine
 10
423.6656849999999
 20
355.3656849999999
 30
0.0
 11
421.934315
 21
353.634315
 31
0.0
  0
ARC
  5
77C
330
1E
100
AcDbEntity
  8
1
  6
Continuous
 62
     7
100
AcDbCircle
 10
424.231371
 20
354.8
 30
0.0
 40
0.8
100
AcDbArc
 50
90.0
 51
135.0
  0
LINE
  5
77D
330
1E
100
AcDbEntity
  8
1
  6
Continuous
 62
     7
100
AcDbLine
 10
427.5
 20
355.6
 30
0.0
 11
424.231371
 21
355.6
 31
0.0
  0
ARC
  5
77E
330
1E
100
AcDbEntity
  8
1
  6
Continuous
 62
     7
100
AcDbCircle
 10
427.5
 20
354.8
 30
0.0
 40
0.8
100
AcDbArc
 50
0.0
 51
90.0
  0
LINE
  5
77F
330
1E
100
AcDbEntity
  8
1
  6
Continuous
 62
     7
100
AcDbLine
 10
428.3
 20
347.1999999999999
 30
0.0
 11
428.3
 21
354.8
 31
0.0
  0
ARC
  5
780
330
1E
100
AcDbEntity
  8
1
  6
Continuous
 62
     7
100
AcDbCircle
 10
427.5
 20
347.1999999999999
 30
0.0
 40
0.8
100
AcDbArc
 50
270.0
 51
0.0
  0
TEXT
  5
781
330
1E
100
AcDbEntity
  8
1
  6
Continuous
 62
     7
100
AcDbText
 10
430.346
 20
393.5000009999999
 30
0.0
 40
4.0
  1
VGA
 41
0.625
  7
KANJI
100
AcDbText
  0
TEXT
  5
782
330
1E
100
AcDbEntity
  8
1
  6
Continuous
 62
     7
100
AcDbText
 10
431.522
 20
351.2
 30
0.0
 40
4.0
  1
AC IN
 41
0.679348
  7
KANJI
100
AcDbText
  0
CIRCLE
  5
783
330
1E
100
AcDbEntity
  8
1
  6
Continuous
 62
     7
100
AcDbCircle
 10
214.5
 20
567.25
 30
0.0
 40
1.5
  0
CIRCLE
  5
784
330
1E
100
AcDbEntity
  8
1
  6
Continuous
 62
     7
100
AcDbCircle
 10
208.4999999999999
 20
567.25
 30
0.0
 40
1.5
  0
CIRCLE
  5
785
330
1E
100
AcDbEntity
  8
1
  6
Continuous
 62
     7
100
AcDbCircle
 10
202.4999999999999
 20
567.25
 30
0.0
 40
1.5
  0
CIRCLE
  5
786
330
1E
100
AcDbEntity
  8
1
  6
Continuous
 62
     7
100
AcDbCircle
 10
196.5
 20
567.25
 30
0.0
 40
1.5
  0
CIRCLE
  5
787
330
1E
100
AcDbEntity
  8
1
  6
Continuous
 62
     7
100
AcDbCircle
 10
190.5
 20
567.25
 30
0.0
 40
1.5
  0
CIRCLE
  5
788
330
1E
100
AcDbEntity
  8
1
  6
Continuous
 62
     7
100
AcDbCircle
 10
184.4999999999999
 20
567.25
 30
0.0
 40
1.5
  0
CIRCLE
  5
789
330
1E
100
AcDbEntity
  8
1
  6
Continuous
 62
     7
100
AcDbCircle
 10
178.5
 20
567.25
 30
0.0
 40
1.5
  0
CIRCLE
  5
78A
330
1E
100
AcDbEntity
  8
1
  6
Continuous
 62
     7
100
AcDbCircle
 10
172.5
 20
567.25
 30
0.0
 40
1.5
  0
CIRCLE
  5
78B
330
1E
100
AcDbEntity
  8
1
  6
Continuous
 62
     7
100
AcDbCircle
 10
166.5
 20
567.25
 30
0.0
 40
1.5
  0
CIRCLE
  5
78C
330
1E
100
AcDbEntity
  8
1
  6
Continuous
 62
     7
100
AcDbCircle
 10
160.4999999999999
 20
567.25
 30
0.0
 40
1.5
  0
CIRCLE
  5
78D
330
1E
100
AcDbEntity
  8
1
  6
Continuous
 62
     7
100
AcDbCircle
 10
154.4999999999999
 20
567.25
 30
0.0
 40
1.5
  0
CIRCLE
  5
78E
330
1E
100
AcDbEntity
  8
1
  6
Continuous
 62
     7
100
AcDbCircle
 10
214.5
 20
561.2499999999999
 30
0.0
 40
1.5
  0
CIRCLE
  5
78F
330
1E
100
AcDbEntity
  8
1
  6
Continuous
 62
     7
100
AcDbCircle
 10
208.4999999999999
 20
561.2499999999999
 30
0.0
 40
1.5
  0
CIRCLE
  5
790
330
1E
100
AcDbEntity
  8
1
  6
Continuous
 62
     7
100
AcDbCircle
 10
202.4999999999999
 20
561.2499999999999
 30
0.0
 40
1.5
  0
CIRCLE
  5
791
330
1E
100
AcDbEntity
  8
1
  6
Continuous
 62
     7
100
AcDbCircle
 10
196.5
 20
561.2499999999999
 30
0.0
 40
1.5
  0
CIRCLE
  5
792
330
1E
100
AcDbEntity
  8
1
  6
Continuous
 62
     7
100
AcDbCircle
 10
190.5
 20
561.2499999999999
 30
0.0
 40
1.5
  0
CIRCLE
  5
793
330
1E
100
AcDbEntity
  8
1
  6
Continuous
 62
     7
100
AcDbCircle
 10
184.4999999999999
 20
561.2499999999999
 30
0.0
 40
1.5
  0
CIRCLE
  5
794
330
1E
100
AcDbEntity
  8
1
  6
Continuous
 62
     7
100
AcDbCircle
 10
178.5
 20
561.2499999999999
 30
0.0
 40
1.5
  0
CIRCLE
  5
795
330
1E
100
AcDbEntity
  8
1
  6
Continuous
 62
     7
100
AcDbCircle
 10
172.5
 20
561.2499999999999
 30
0.0
 40
1.5
  0
CIRCLE
  5
796
330
1E
100
AcDbEntity
  8
1
  6
Continuous
 62
     7
100
AcDbCircle
 10
166.5
 20
561.2499999999999
 30
0.0
 40
1.5
  0
CIRCLE
  5
797
330
1E
100
AcDbEntity
  8
1
  6
Continuous
 62
     7
100
AcDbCircle
 10
160.4999999999999
 20
561.2499999999999
 30
0.0
 40
1.5
  0
CIRCLE
  5
798
330
1E
100
AcDbEntity
  8
1
  6
Continuous
 62
     7
100
AcDbCircle
 10
154.4999999999999
 20
561.2499999999999
 30
0.0
 40
1.5
  0
CIRCLE
  5
799
330
1E
100
AcDbEntity
  8
1
  6
Continuous
 62
     7
100
AcDbCircle
 10
214.5
 20
555.25
 30
0.0
 40
1.5
  0
CIRCLE
  5
79A
330
1E
100
AcDbEntity
  8
1
  6
Continuous
 62
     7
100
AcDbCircle
 10
208.4999999999999
 20
555.25
 30
0.0
 40
1.5
  0
CIRCLE
  5
79B
330
1E
100
AcDbEntity
  8
1
  6
Continuous
 62
     7
100
AcDbCircle
 10
202.4999999999999
 20
555.25
 30
0.0
 40
1.5
  0
CIRCLE
  5
79C
330
1E
100
AcDbEntity
  8
1
  6
Continuous
 62
     7
100
AcDbCircle
 10
196.5
 20
555.25
 30
0.0
 40
1.5
  0
CIRCLE
  5
79D
330
1E
100
AcDbEntity
  8
1
  6
Continuous
 62
     7
100
AcDbCircle
 10
190.5
 20
555.25
 30
0.0
 40
1.5
  0
CIRCLE
  5
79E
330
1E
100
AcDbEntity
  8
1
  6
Continuous
 62
     7
100
AcDbCircle
 10
184.4999999999999
 20
555.25
 30
0.0
 40
1.5
  0
CIRCLE
  5
79F
330
1E
100
AcDbEntity
  8
1
  6
Continuous
 62
     7
100
AcDbCircle
 10
178.5
 20
555.25
 30
0.0
 40
1.5
  0
CIRCLE
  5
7A0
330
1E
100
AcDbEntity
  8
1
  6
Continuous
 62
     7
100
AcDbCircle
 10
172.5
 20
555.25
 30
0.0
 40
1.5
  0
CIRCLE
  5
7A1
330
1E
100
AcDbEntity
  8
1
  6
Continuous
 62
     7
100
AcDbCircle
 10
166.5
 20
555.25
 30
0.0
 40
1.5
  0
CIRCLE
  5
7A2
330
1E
100
AcDbEntity
  8
1
  6
Continuous
 62
     7
100
AcDbCircle
 10
160.4999999999999
 20
555.25
 30
0.0
 40
1.5
  0
CIRCLE
  5
7A3
330
1E
100
AcDbEntity
  8
1
  6
Continuous
 62
     7
100
AcDbCircle
 10
154.4999999999999
 20
555.25
 30
0.0
 40
1.5
  0
CIRCLE
  5
7A4
330
1E
100
AcDbEntity
  8
1
  6
Continuous
 62
     7
100
AcDbCircle
 10
214.5
 20
549.2499999999999
 30
0.0
 40
1.5
  0
CIRCLE
  5
7A5
330
1E
100
AcDbEntity
  8
1
  6
Continuous
 62
     7
100
AcDbCircle
 10
208.4999999999999
 20
549.2499999999999
 30
0.0
 40
1.5
  0
CIRCLE
  5
7A6
330
1E
100
AcDbEntity
  8
1
  6
Continuous
 62
     7
100
AcDbCircle
 10
202.4999999999999
 20
549.2499999999999
 30
0.0
 40
1.5
  0
CIRCLE
  5
7A7
330
1E
100
AcDbEntity
  8
1
  6
Continuous
 62
     7
100
AcDbCircle
 10
196.5
 20
549.2499999999999
 30
0.0
 40
1.5
  0
CIRCLE
  5
7A8
330
1E
100
AcDbEntity
  8
1
  6
Continuous
 62
     7
100
AcDbCircle
 10
190.5
 20
549.2499999999999
 30
0.0
 40
1.5
  0
CIRCLE
  5
7A9
330
1E
100
AcDbEntity
  8
1
  6
Continuous
 62
     7
100
AcDbCircle
 10
184.4999999999999
 20
549.2499999999999
 30
0.0
 40
1.5
  0
CIRCLE
  5
7AA
330
1E
100
AcDbEntity
  8
1
  6
Continuous
 62
     7
100
AcDbCircle
 10
178.5
 20
549.2499999999999
 30
0.0
 40
1.5
  0
CIRCLE
  5
7AB
330
1E
100
AcDbEntity
  8
1
  6
Continuous
 62
     7
100
AcDbCircle
 10
172.5
 20
549.2499999999999
 30
0.0
 40
1.5
  0
CIRCLE
  5
7AC
330
1E
100
AcDbEntity
  8
1
  6
Continuous
 62
     7
100
AcDbCircle
 10
166.5
 20
549.2499999999999
 30
0.0
 40
1.5
  0
CIRCLE
  5
7AD
330
1E
100
AcDbEntity
  8
1
  6
Continuous
 62
     7
100
AcDbCircle
 10
160.4999999999999
 20
549.2499999999999
 30
0.0
 40
1.5
  0
CIRCLE
  5
7AE
330
1E
100
AcDbEntity
  8
1
  6
Continuous
 62
     7
100
AcDbCircle
 10
154.4999999999999
 20
549.2499999999999
 30
0.0
 40
1.5
  0
CIRCLE
  5
7AF
330
1E
100
AcDbEntity
  8
1
  6
Continuous
 62
     7
100
AcDbCircle
 10
214.5
 20
543.25
 30
0.0
 40
1.5
  0
CIRCLE
  5
7B0
330
1E
100
AcDbEntity
  8
1
  6
Continuous
 62
     7
100
AcDbCircle
 10
208.4999999999999
 20
543.25
 30
0.0
 40
1.5
  0
CIRCLE
  5
7B1
330
1E
100
AcDbEntity
  8
1
  6
Continuous
 62
     7
100
AcDbCircle
 10
202.4999999999999
 20
543.25
 30
0.0
 40
1.5
  0
CIRCLE
  5
7B2
330
1E
100
AcDbEntity
  8
1
  6
Continuous
 62
     7
100
AcDbCircle
 10
196.5
 20
543.25
 30
0.0
 40
1.5
  0
CIRCLE
  5
7B3
330
1E
100
AcDbEntity
  8
1
  6
Continuous
 62
     7
100
AcDbCircle
 10
190.5
 20
543.25
 30
0.0
 40
1.5
  0
CIRCLE
  5
7B4
330
1E
100
AcDbEntity
  8
1
  6
Continuous
 62
     7
100
AcDbCircle
 10
184.4999999999999
 20
543.25
 30
0.0
 40
1.5
  0
CIRCLE
  5
7B5
330
1E
100
AcDbEntity
  8
1
  6
Continuous
 62
     7
100
AcDbCircle
 10
178.5
 20
543.25
 30
0.0
 40
1.5
  0
CIRCLE
  5
7B6
330
1E
100
AcDbEntity
  8
1
  6
Continuous
 62
     7
100
AcDbCircle
 10
172.5
 20
543.25
 30
0.0
 40
1.5
  0
CIRCLE
  5
7B7
330
1E
100
AcDbEntity
  8
1
  6
Continuous
 62
     7
100
AcDbCircle
 10
166.5
 20
543.25
 30
0.0
 40
1.5
  0
CIRCLE
  5
7B8
330
1E
100
AcDbEntity
  8
1
  6
Continuous
 62
     7
100
AcDbCircle
 10
160.4999999999999
 20
543.25
 30
0.0
 40
1.5
  0
CIRCLE
  5
7B9
330
1E
100
AcDbEntity
  8
1
  6
Continuous
 62
     7
100
AcDbCircle
 10
154.4999999999999
 20
543.25
 30
0.0
 40
1.5
  0
CIRCLE
  5
7BA
330
1E
100
AcDbEntity
  8
1
  6
Continuous
 62
     7
100
AcDbCircle
 10
214.5
 20
537.25
 30
0.0
 40
1.5
  0
CIRCLE
  5
7BB
330
1E
100
AcDbEntity
  8
1
  6
Continuous
 62
     7
100
AcDbCircle
 10
208.4999999999999
 20
537.25
 30
0.0
 40
1.5
  0
CIRCLE
  5
7BC
330
1E
100
AcDbEntity
  8
1
  6
Continuous
 62
     7
100
AcDbCircle
 10
202.4999999999999
 20
537.25
 30
0.0
 40
1.5
  0
CIRCLE
  5
7BD
330
1E
100
AcDbEntity
  8
1
  6
Continuous
 62
     7
100
AcDbCircle
 10
196.5
 20
537.25
 30
0.0
 40
1.5
  0
CIRCLE
  5
7BE
330
1E
100
AcDbEntity
  8
1
  6
Continuous
 62
     7
100
AcDbCircle
 10
190.5
 20
537.25
 30
0.0
 40
1.5
  0
CIRCLE
  5
7BF
330
1E
100
AcDbEntity
  8
1
  6
Continuous
 62
     7
100
AcDbCircle
 10
184.4999999999999
 20
537.25
 30
0.0
 40
1.5
  0
CIRCLE
  5
7C0
330
1E
100
AcDbEntity
  8
1
  6
Continuous
 62
     7
100
AcDbCircle
 10
178.5
 20
537.25
 30
0.0
 40
1.5
  0
CIRCLE
  5
7C1
330
1E
100
AcDbEntity
  8
1
  6
Continuous
 62
     7
100
AcDbCircle
 10
172.5
 20
537.25
 30
0.0
 40
1.5
  0
CIRCLE
  5
7C2
330
1E
100
AcDbEntity
  8
1
  6
Continuous
 62
     7
100
AcDbCircle
 10
166.5
 20
537.25
 30
0.0
 40
1.5
  0
CIRCLE
  5
7C3
330
1E
100
AcDbEntity
  8
1
  6
Continuous
 62
     7
100
AcDbCircle
 10
160.4999999999999
 20
537.25
 30
0.0
 40
1.5
  0
CIRCLE
  5
7C4
330
1E
100
AcDbEntity
  8
1
  6
Continuous
 62
     7
100
AcDbCircle
 10
154.4999999999999
 20
537.25
 30
0.0
 40
1.5
  0
CIRCLE
  5
7C5
330
1E
100
AcDbEntity
  8
1
  6
Continuous
 62
     7
100
AcDbCircle
 10
214.5
 20
531.25
 30
0.0
 40
1.5
  0
CIRCLE
  5
7C6
330
1E
100
AcDbEntity
  8
1
  6
Continuous
 62
     7
100
AcDbCircle
 10
208.4999999999999
 20
531.25
 30
0.0
 40
1.5
  0
CIRCLE
  5
7C7
330
1E
100
AcDbEntity
  8
1
  6
Continuous
 62
     7
100
AcDbCircle
 10
202.4999999999999
 20
531.25
 30
0.0
 40
1.5
  0
CIRCLE
  5
7C8
330
1E
100
AcDbEntity
  8
1
  6
Continuous
 62
     7
100
AcDbCircle
 10
196.5
 20
531.25
 30
0.0
 40
1.5
  0
CIRCLE
  5
7C9
330
1E
100
AcDbEntity
  8
1
  6
Continuous
 62
     7
100
AcDbCircle
 10
190.5
 20
531.25
 30
0.0
 40
1.5
  0
CIRCLE
  5
7CA
330
1E
100
AcDbEntity
  8
1
  6
Continuous
 62
     7
100
AcDbCircle
 10
184.4999999999999
 20
531.25
 30
0.0
 40
1.5
  0
CIRCLE
  5
7CB
330
1E
100
AcDbEntity
  8
1
  6
Continuous
 62
     7
100
AcDbCircle
 10
178.5
 20
531.25
 30
0.0
 40
1.5
  0
CIRCLE
  5
7CC
330
1E
100
AcDbEntity
  8
1
  6
Continuous
 62
     7
100
AcDbCircle
 10
172.5
 20
531.25
 30
0.0
 40
1.5
  0
CIRCLE
  5
7CD
330
1E
100
AcDbEntity
  8
1
  6
Continuous
 62
     7
100
AcDbCircle
 10
166.5
 20
531.25
 30
0.0
 40
1.5
  0
CIRCLE
  5
7CE
330
1E
100
AcDbEntity
  8
1
  6
Continuous
 62
     7
100
AcDbCircle
 10
160.4999999999999
 20
531.25
 30
0.0
 40
1.5
  0
CIRCLE
  5
7CF
330
1E
100
AcDbEntity
  8
1
  6
Continuous
 62
     7
100
AcDbCircle
 10
154.4999999999999
 20
531.25
 30
0.0
 40
1.5
  0
CIRCLE
  5
7D0
330
1E
100
AcDbEntity
  8
1
  6
Continuous
 62
     7
100
AcDbCircle
 10
214.5
 20
525.25
 30
0.0
 40
1.5
  0
CIRCLE
  5
7D1
330
1E
100
AcDbEntity
  8
1
  6
Continuous
 62
     7
100
AcDbCircle
 10
208.4999999999999
 20
525.25
 30
0.0
 40
1.5
  0
CIRCLE
  5
7D2
330
1E
100
AcDbEntity
  8
1
  6
Continuous
 62
     7
100
AcDbCircle
 10
202.4999999999999
 20
525.25
 30
0.0
 40
1.5
  0
CIRCLE
  5
7D3
330
1E
100
AcDbEntity
  8
1
  6
Continuous
 62
     7
100
AcDbCircle
 10
196.5
 20
525.25
 30
0.0
 40
1.5
  0
CIRCLE
  5
7D4
330
1E
100
AcDbEntity
  8
1
  6
Continuous
 62
     7
100
AcDbCircle
 10
190.5
 20
525.25
 30
0.0
 40
1.5
  0
CIRCLE
  5
7D5
330
1E
100
AcDbEntity
  8
1
  6
Continuous
 62
     7
100
AcDbCircle
 10
184.4999999999999
 20
525.25
 30
0.0
 40
1.5
  0
CIRCLE
  5
7D6
330
1E
100
AcDbEntity
  8
1
  6
Continuous
 62
     7
100
AcDbCircle
 10
178.5
 20
525.25
 30
0.0
 40
1.5
  0
CIRCLE
  5
7D7
330
1E
100
AcDbEntity
  8
1
  6
Continuous
 62
     7
100
AcDbCircle
 10
172.5
 20
525.25
 30
0.0
 40
1.5
  0
CIRCLE
  5
7D8
330
1E
100
AcDbEntity
  8
1
  6
Continuous
 62
     7
100
AcDbCircle
 10
166.5
 20
525.25
 30
0.0
 40
1.5
  0
CIRCLE
  5
7D9
330
1E
100
AcDbEntity
  8
1
  6
Continuous
 62
     7
100
AcDbCircle
 10
160.4999999999999
 20
525.25
 30
0.0
 40
1.5
  0
CIRCLE
  5
7DA
330
1E
100
AcDbEntity
  8
1
  6
Continuous
 62
     7
100
AcDbCircle
 10
154.4999999999999
 20
525.25
 30
0.0
 40
1.5
  0
CIRCLE
  5
7DB
330
1E
100
AcDbEntity
  8
1
  6
Continuous
 62
     7
100
AcDbCircle
 10
214.5
 20
519.2499999999999
 30
0.0
 40
1.5
  0
CIRCLE
  5
7DC
330
1E
100
AcDbEntity
  8
1
  6
Continuous
 62
     7
100
AcDbCircle
 10
208.4999999999999
 20
519.2499999999999
 30
0.0
 40
1.5
  0
CIRCLE
  5
7DD
330
1E
100
AcDbEntity
  8
1
  6
Continuous
 62
     7
100
AcDbCircle
 10
202.4999999999999
 20
519.2499999999999
 30
0.0
 40
1.5
  0
CIRCLE
  5
7DE
330
1E
100
AcDbEntity
  8
1
  6
Continuous
 62
     7
100
AcDbCircle
 10
196.5
 20
519.2499999999999
 30
0.0
 40
1.5
  0
CIRCLE
  5
7DF
330
1E
100
AcDbEntity
  8
1
  6
Continuous
 62
     7
100
AcDbCircle
 10
190.5
 20
519.2499999999999
 30
0.0
 40
1.5
  0
CIRCLE
  5
7E0
330
1E
100
AcDbEntity
  8
1
  6
Continuous
 62
     7
100
AcDbCircle
 10
184.4999999999999
 20
519.2499999999999
 30
0.0
 40
1.5
  0
CIRCLE
  5
7E1
330
1E
100
AcDbEntity
  8
1
  6
Continuous
 62
     7
100
AcDbCircle
 10
178.5
 20
519.2499999999999
 30
0.0
 40
1.5
  0
CIRCLE
  5
7E2
330
1E
100
AcDbEntity
  8
1
  6
Continuous
 62
     7
100
AcDbCircle
 10
172.5
 20
519.2499999999999
 30
0.0
 40
1.5
  0
CIRCLE
  5
7E3
330
1E
100
AcDbEntity
  8
1
  6
Continuous
 62
     7
100
AcDbCircle
 10
166.5
 20
519.2499999999999
 30
0.0
 40
1.5
  0
CIRCLE
  5
7E4
330
1E
100
AcDbEntity
  8
1
  6
Continuous
 62
     7
100
AcDbCircle
 10
160.4999999999999
 20
519.2499999999999
 30
0.0
 40
1.5
  0
CIRCLE
  5
7E5
330
1E
100
AcDbEntity
  8
1
  6
Continuous
 62
     7
100
AcDbCircle
 10
154.4999999999999
 20
519.2499999999999
 30
0.0
 40
1.5
  0
CIRCLE
  5
7E6
330
1E
100
AcDbEntity
  8
1
  6
Continuous
 62
     7
100
AcDbCircle
 10
214.5
 20
513.25
 30
0.0
 40
1.5
  0
CIRCLE
  5
7E7
330
1E
100
AcDbEntity
  8
1
  6
Continuous
 62
     7
100
AcDbCircle
 10
208.4999999999999
 20
513.25
 30
0.0
 40
1.5
  0
CIRCLE
  5
7E8
330
1E
100
AcDbEntity
  8
1
  6
Continuous
 62
     7
100
AcDbCircle
 10
202.4999999999999
 20
513.25
 30
0.0
 40
1.5
  0
CIRCLE
  5
7E9
330
1E
100
AcDbEntity
  8
1
  6
Continuous
 62
     7
100
AcDbCircle
 10
196.5
 20
513.25
 30
0.0
 40
1.5
  0
CIRCLE
  5
7EA
330
1E
100
AcDbEntity
  8
1
  6
Continuous
 62
     7
100
AcDbCircle
 10
190.5
 20
513.25
 30
0.0
 40
1.5
  0
CIRCLE
  5
7EB
330
1E
100
AcDbEntity
  8
1
  6
Continuous
 62
     7
100
AcDbCircle
 10
184.4999999999999
 20
513.25
 30
0.0
 40
1.5
  0
CIRCLE
  5
7EC
330
1E
100
AcDbEntity
  8
1
  6
Continuous
 62
     7
100
AcDbCircle
 10
178.5
 20
513.25
 30
0.0
 40
1.5
  0
CIRCLE
  5
7ED
330
1E
100
AcDbEntity
  8
1
  6
Continuous
 62
     7
100
AcDbCircle
 10
172.5
 20
513.25
 30
0.0
 40
1.5
  0
CIRCLE
  5
7EE
330
1E
100
AcDbEntity
  8
1
  6
Continuous
 62
     7
100
AcDbCircle
 10
166.5
 20
513.25
 30
0.0
 40
1.5
  0
CIRCLE
  5
7EF
330
1E
100
AcDbEntity
  8
1
  6
Continuous
 62
     7
100
AcDbCircle
 10
160.4999999999999
 20
513.25
 30
0.0
 40
1.5
  0
CIRCLE
  5
7F0
330
1E
100
AcDbEntity
  8
1
  6
Continuous
 62
     7
100
AcDbCircle
 10
154.4999999999999
 20
513.25
 30
0.0
 40
1.5
  0
CIRCLE
  5
7F1
330
1E
100
AcDbEntity
  8
1
  6
Continuous
 62
     7
100
AcDbCircle
 10
214.5
 20
507.2499999999999
 30
0.0
 40
1.5
  0
CIRCLE
  5
7F2
330
1E
100
AcDbEntity
  8
1
  6
Continuous
 62
     7
100
AcDbCircle
 10
208.4999999999999
 20
507.2499999999999
 30
0.0
 40
1.5
  0
CIRCLE
  5
7F3
330
1E
100
AcDbEntity
  8
1
  6
Continuous
 62
     7
100
AcDbCircle
 10
202.4999999999999
 20
507.2499999999999
 30
0.0
 40
1.5
  0
CIRCLE
  5
7F4
330
1E
100
AcDbEntity
  8
1
  6
Continuous
 62
     7
100
AcDbCircle
 10
196.5
 20
507.2499999999999
 30
0.0
 40
1.5
  0
CIRCLE
  5
7F5
330
1E
100
AcDbEntity
  8
1
  6
Continuous
 62
     7
100
AcDbCircle
 10
190.5
 20
507.2499999999999
 30
0.0
 40
1.5
  0
CIRCLE
  5
7F6
330
1E
100
AcDbEntity
  8
1
  6
Continuous
 62
     7
100
AcDbCircle
 10
184.4999999999999
 20
507.2499999999999
 30
0.0
 40
1.5
  0
CIRCLE
  5
7F7
330
1E
100
AcDbEntity
  8
1
  6
Continuous
 62
     7
100
AcDbCircle
 10
178.5
 20
507.2499999999999
 30
0.0
 40
1.5
  0
CIRCLE
  5
7F8
330
1E
100
AcDbEntity
  8
1
  6
Continuous
 62
     7
100
AcDbCircle
 10
172.5
 20
507.2499999999999
 30
0.0
 40
1.5
  0
CIRCLE
  5
7F9
330
1E
100
AcDbEntity
  8
1
  6
Continuous
 62
     7
100
AcDbCircle
 10
166.5
 20
507.2499999999999
 30
0.0
 40
1.5
  0
CIRCLE
  5
7FA
330
1E
100
AcDbEntity
  8
1
  6
Continuous
 62
     7
100
AcDbCircle
 10
160.4999999999999
 20
507.2499999999999
 30
0.0
 40
1.5
  0
CIRCLE
  5
7FB
330
1E
100
AcDbEntity
  8
1
  6
Continuous
 62
     7
100
AcDbCircle
 10
154.4999999999999
 20
507.2499999999999
 30
0.0
 40
1.5
  0
CIRCLE
  5
7FC
330
1E
100
AcDbEntity
  8
1
  6
Continuous
 62
     7
100
AcDbCircle
 10
214.5
 20
501.25
 30
0.0
 40
1.5
  0
CIRCLE
  5
7FD
330
1E
100
AcDbEntity
  8
1
  6
Continuous
 62
     7
100
AcDbCircle
 10
208.4999999999999
 20
501.25
 30
0.0
 40
1.5
  0
CIRCLE
  5
7FE
330
1E
100
AcDbEntity
  8
1
  6
Continuous
 62
     7
100
AcDbCircle
 10
202.4999999999999
 20
501.25
 30
0.0
 40
1.5
  0
CIRCLE
  5
7FF
330
1E
100
AcDbEntity
  8
1
  6
Continuous
 62
     7
100
AcDbCircle
 10
196.5
 20
501.25
 30
0.0
 40
1.5
  0
CIRCLE
  5
800
330
1E
100
AcDbEntity
  8
1
  6
Continuous
 62
     7
100
AcDbCircle
 10
190.5
 20
501.25
 30
0.0
 40
1.5
  0
CIRCLE
  5
801
330
1E
100
AcDbEntity
  8
1
  6
Continuous
 62
     7
100
AcDbCircle
 10
184.4999999999999
 20
501.25
 30
0.0
 40
1.5
  0
CIRCLE
  5
802
330
1E
100
AcDbEntity
  8
1
  6
Continuous
 62
     7
100
AcDbCircle
 10
178.5
 20
501.25
 30
0.0
 40
1.5
  0
CIRCLE
  5
803
330
1E
100
AcDbEntity
  8
1
  6
Continuous
 62
     7
100
AcDbCircle
 10
172.5
 20
501.25
 30
0.0
 40
1.5
  0
CIRCLE
  5
804
330
1E
100
AcDbEntity
  8
1
  6
Continuous
 62
     7
100
AcDbCircle
 10
166.5
 20
501.25
 30
0.0
 40
1.5
  0
CIRCLE
  5
805
330
1E
100
AcDbEntity
  8
1
  6
Continuous
 62
     7
100
AcDbCircle
 10
160.4999999999999
 20
501.25
 30
0.0
 40
1.5
  0
CIRCLE
  5
806
330
1E
100
AcDbEntity
  8
1
  6
Continuous
 62
     7
100
AcDbCircle
 10
154.4999999999999
 20
501.25
 30
0.0
 40
1.5
  0
CIRCLE
  5
807
330
1E
100
AcDbEntity
  8
1
  6
Continuous
 62
     7
100
AcDbCircle
 10
381.4999999999999
 20
567.25
 30
0.0
 40
1.5
  0
CIRCLE
  5
808
330
1E
100
AcDbEntity
  8
1
  6
Continuous
 62
     7
100
AcDbCircle
 10
375.4999999999999
 20
567.25
 30
0.0
 40
1.5
  0
CIRCLE
  5
809
330
1E
100
AcDbEntity
  8
1
  6
Continuous
 62
     7
100
AcDbCircle
 10
369.5
 20
567.25
 30
0.0
 40
1.5
  0
CIRCLE
  5
80A
330
1E
100
AcDbEntity
  8
1
  6
Continuous
 62
     7
100
AcDbCircle
 10
363.5
 20
567.25
 30
0.0
 40
1.5
  0
CIRCLE
  5
80B
330
1E
100
AcDbEntity
  8
1
  6
Continuous
 62
     7
100
AcDbCircle
 10
357.5
 20
567.25
 30
0.0
 40
1.5
  0
CIRCLE
  5
80C
330
1E
100
AcDbEntity
  8
1
  6
Continuous
 62
     7
100
AcDbCircle
 10
351.5
 20
567.25
 30
0.0
 40
1.5
  0
CIRCLE
  5
80D
330
1E
100
AcDbEntity
  8
1
  6
Continuous
 62
     7
100
AcDbCircle
 10
345.5
 20
567.25
 30
0.0
 40
1.5
  0
CIRCLE
  5
80E
330
1E
100
AcDbEntity
  8
1
  6
Continuous
 62
     7
100
AcDbCircle
 10
339.5
 20
567.25
 30
0.0
 40
1.5
  0
CIRCLE
  5
80F
330
1E
100
AcDbEntity
  8
1
  6
Continuous
 62
     7
100
AcDbCircle
 10
381.4999999999999
 20
561.2499999999999
 30
0.0
 40
1.5
  0
CIRCLE
  5
810
330
1E
100
AcDbEntity
  8
1
  6
Continuous
 62
     7
100
AcDbCircle
 10
375.4999999999999
 20
561.2499999999999
 30
0.0
 40
1.5
  0
CIRCLE
  5
811
330
1E
100
AcDbEntity
  8
1
  6
Continuous
 62
     7
100
AcDbCircle
 10
369.5
 20
561.2499999999999
 30
0.0
 40
1.5
  0
CIRCLE
  5
812
330
1E
100
AcDbEntity
  8
1
  6
Continuous
 62
     7
100
AcDbCircle
 10
363.5
 20
561.2499999999999
 30
0.0
 40
1.5
  0
CIRCLE
  5
813
330
1E
100
AcDbEntity
  8
1
  6
Continuous
 62
     7
100
AcDbCircle
 10
357.5
 20
561.2499999999999
 30
0.0
 40
1.5
  0
CIRCLE
  5
814
330
1E
100
AcDbEntity
  8
1
  6
Continuous
 62
     7
100
AcDbCircle
 10
351.5
 20
561.2499999999999
 30
0.0
 40
1.5
  0
CIRCLE
  5
815
330
1E
100
AcDbEntity
  8
1
  6
Continuous
 62
     7
100
AcDbCircle
 10
345.5
 20
561.2499999999999
 30
0.0
 40
1.5
  0
CIRCLE
  5
816
330
1E
100
AcDbEntity
  8
1
  6
Continuous
 62
     7
100
AcDbCircle
 10
339.5
 20
561.2499999999999
 30
0.0
 40
1.5
  0
CIRCLE
  5
817
330
1E
100
AcDbEntity
  8
1
  6
Continuous
 62
     7
100
AcDbCircle
 10
381.4999999999999
 20
555.25
 30
0.0
 40
1.5
  0
CIRCLE
  5
818
330
1E
100
AcDbEntity
  8
1
  6
Continuous
 62
     7
100
AcDbCircle
 10
375.4999999999999
 20
555.25
 30
0.0
 40
1.5
  0
CIRCLE
  5
819
330
1E
100
AcDbEntity
  8
1
  6
Continuous
 62
     7
100
AcDbCircle
 10
369.5
 20
555.25
 30
0.0
 40
1.5
  0
CIRCLE
  5
81A
330
1E
100
AcDbEntity
  8
1
  6
Continuous
 62
     7
100
AcDbCircle
 10
363.5
 20
555.25
 30
0.0
 40
1.5
  0
CIRCLE
  5
81B
330
1E
100
AcDbEntity
  8
1
  6
Continuous
 62
     7
100
AcDbCircle
 10
357.5
 20
555.25
 30
0.0
 40
1.5
  0
CIRCLE
  5
81C
330
1E
100
AcDbEntity
  8
1
  6
Continuous
 62
     7
100
AcDbCircle
 10
351.5
 20
555.25
 30
0.0
 40
1.5
  0
CIRCLE
  5
81D
330
1E
100
AcDbEntity
  8
1
  6
Continuous
 62
     7
100
AcDbCircle
 10
345.5
 20
555.25
 30
0.0
 40
1.5
  0
CIRCLE
  5
81E
330
1E
100
AcDbEntity
  8
1
  6
Continuous
 62
     7
100
AcDbCircle
 10
339.5
 20
555.25
 30
0.0
 40
1.5
  0
CIRCLE
  5
81F
330
1E
100
AcDbEntity
  8
1
  6
Continuous
 62
     7
100
AcDbCircle
 10
381.4999999999999
 20
549.2499999999999
 30
0.0
 40
1.5
  0
CIRCLE
  5
820
330
1E
100
AcDbEntity
  8
1
  6
Continuous
 62
     7
100
AcDbCircle
 10
375.4999999999999
 20
549.2499999999999
 30
0.0
 40
1.5
  0
CIRCLE
  5
821
330
1E
100
AcDbEntity
  8
1
  6
Continuous
 62
     7
100
AcDbCircle
 10
369.5
 20
549.2499999999999
 30
0.0
 40
1.5
  0
CIRCLE
  5
822
330
1E
100
AcDbEntity
  8
1
  6
Continuous
 62
     7
100
AcDbCircle
 10
363.5
 20
549.2499999999999
 30
0.0
 40
1.5
  0
CIRCLE
  5
823
330
1E
100
AcDbEntity
  8
1
  6
Continuous
 62
     7
100
AcDbCircle
 10
357.5
 20
549.2499999999999
 30
0.0
 40
1.5
  0
CIRCLE
  5
824
330
1E
100
AcDbEntity
  8
1
  6
Continuous
 62
     7
100
AcDbCircle
 10
351.5
 20
549.2499999999999
 30
0.0
 40
1.5
  0
CIRCLE
  5
825
330
1E
100
AcDbEntity
  8
1
  6
Continuous
 62
     7
100
AcDbCircle
 10
345.5
 20
549.2499999999999
 30
0.0
 40
1.5
  0
CIRCLE
  5
826
330
1E
100
AcDbEntity
  8
1
  6
Continuous
 62
     7
100
AcDbCircle
 10
339.5
 20
549.2499999999999
 30
0.0
 40
1.5
  0
CIRCLE
  5
827
330
1E
100
AcDbEntity
  8
1
  6
Continuous
 62
     7
100
AcDbCircle
 10
381.4999999999999
 20
543.25
 30
0.0
 40
1.5
  0
CIRCLE
  5
828
330
1E
100
AcDbEntity
  8
1
  6
Continuous
 62
     7
100
AcDbCircle
 10
375.4999999999999
 20
543.25
 30
0.0
 40
1.5
  0
CIRCLE
  5
829
330
1E
100
AcDbEntity
  8
1
  6
Continuous
 62
     7
100
AcDbCircle
 10
369.5
 20
543.25
 30
0.0
 40
1.5
  0
CIRCLE
  5
82A
330
1E
100
AcDbEntity
  8
1
  6
Continuous
 62
     7
100
AcDbCircle
 10
363.5
 20
543.25
 30
0.0
 40
1.5
  0
CIRCLE
  5
82B
330
1E
100
AcDbEntity
  8
1
  6
Continuous
 62
     7
100
AcDbCircle
 10
357.5
 20
543.25
 30
0.0
 40
1.5
  0
CIRCLE
  5
82C
330
1E
100
AcDbEntity
  8
1
  6
Continuous
 62
     7
100
AcDbCircle
 10
351.5
 20
543.25
 30
0.0
 40
1.5
  0
CIRCLE
  5
82D
330
1E
100
AcDbEntity
  8
1
  6
Continuous
 62
     7
100
AcDbCircle
 10
345.5
 20
543.25
 30
0.0
 40
1.5
  0
CIRCLE
  5
82E
330
1E
100
AcDbEntity
  8
1
  6
Continuous
 62
     7
100
AcDbCircle
 10
339.5
 20
543.25
 30
0.0
 40
1.5
  0
CIRCLE
  5
82F
330
1E
100
AcDbEntity
  8
1
  6
Continuous
 62
     7
100
AcDbCircle
 10
381.4999999999999
 20
537.25
 30
0.0
 40
1.5
  0
CIRCLE
  5
830
330
1E
100
AcDbEntity
  8
1
  6
Continuous
 62
     7
100
AcDbCircle
 10
375.4999999999999
 20
537.25
 30
0.0
 40
1.5
  0
CIRCLE
  5
831
330
1E
100
AcDbEntity
  8
1
  6
Continuous
 62
     7
100
AcDbCircle
 10
369.5
 20
537.25
 30
0.0
 40
1.5
  0
CIRCLE
  5
832
330
1E
100
AcDbEntity
  8
1
  6
Continuous
 62
     7
100
AcDbCircle
 10
363.5
 20
537.25
 30
0.0
 40
1.5
  0
CIRCLE
  5
833
330
1E
100
AcDbEntity
  8
1
  6
Continuous
 62
     7
100
AcDbCircle
 10
357.5
 20
537.25
 30
0.0
 40
1.5
  0
CIRCLE
  5
834
330
1E
100
AcDbEntity
  8
1
  6
Continuous
 62
     7
100
AcDbCircle
 10
351.5
 20
537.25
 30
0.0
 40
1.5
  0
CIRCLE
  5
835
330
1E
100
AcDbEntity
  8
1
  6
Continuous
 62
     7
100
AcDbCircle
 10
345.5
 20
537.25
 30
0.0
 40
1.5
  0
CIRCLE
  5
836
330
1E
100
AcDbEntity
  8
1
  6
Continuous
 62
     7
100
AcDbCircle
 10
339.5
 20
537.25
 30
0.0
 40
1.5
  0
CIRCLE
  5
837
330
1E
100
AcDbEntity
  8
1
  6
Continuous
 62
     7
100
AcDbCircle
 10
381.4999999999999
 20
531.25
 30
0.0
 40
1.5
  0
CIRCLE
  5
838
330
1E
100
AcDbEntity
  8
1
  6
Continuous
 62
     7
100
AcDbCircle
 10
375.4999999999999
 20
531.25
 30
0.0
 40
1.5
  0
CIRCLE
  5
839
330
1E
100
AcDbEntity
  8
1
  6
Continuous
 62
     7
100
AcDbCircle
 10
369.5
 20
531.25
 30
0.0
 40
1.5
  0
CIRCLE
  5
83A
330
1E
100
AcDbEntity
  8
1
  6
Continuous
 62
     7
100
AcDbCircle
 10
363.5
 20
531.25
 30
0.0
 40
1.5
  0
CIRCLE
  5
83B
330
1E
100
AcDbEntity
  8
1
  6
Continuous
 62
     7
100
AcDbCircle
 10
357.5
 20
531.25
 30
0.0
 40
1.5
  0
CIRCLE
  5
83C
330
1E
100
AcDbEntity
  8
1
  6
Continuous
 62
     7
100
AcDbCircle
 10
351.5
 20
531.25
 30
0.0
 40
1.5
  0
CIRCLE
  5
83D
330
1E
100
AcDbEntity
  8
1
  6
Continuous
 62
     7
100
AcDbCircle
 10
345.5
 20
531.25
 30
0.0
 40
1.5
  0
CIRCLE
  5
83E
330
1E
100
AcDbEntity
  8
1
  6
Continuous
 62
     7
100
AcDbCircle
 10
339.5
 20
531.25
 30
0.0
 40
1.5
  0
CIRCLE
  5
83F
330
1E
100
AcDbEntity
  8
1
  6
Continuous
 62
     7
100
AcDbCircle
 10
381.4999999999999
 20
525.25
 30
0.0
 40
1.5
  0
CIRCLE
  5
840
330
1E
100
AcDbEntity
  8
1
  6
Continuous
 62
     7
100
AcDbCircle
 10
375.4999999999999
 20
525.25
 30
0.0
 40
1.5
  0
CIRCLE
  5
841
330
1E
100
AcDbEntity
  8
1
  6
Continuous
 62
     7
100
AcDbCircle
 10
369.5
 20
525.25
 30
0.0
 40
1.5
  0
CIRCLE
  5
842
330
1E
100
AcDbEntity
  8
1
  6
Continuous
 62
     7
100
AcDbCircle
 10
363.5
 20
525.25
 30
0.0
 40
1.5
  0
CIRCLE
  5
843
330
1E
100
AcDbEntity
  8
1
  6
Continuous
 62
     7
100
AcDbCircle
 10
357.5
 20
525.25
 30
0.0
 40
1.5
  0
CIRCLE
  5
844
330
1E
100
AcDbEntity
  8
1
  6
Continuous
 62
     7
100
AcDbCircle
 10
351.5
 20
525.25
 30
0.0
 40
1.5
  0
CIRCLE
  5
845
330
1E
100
AcDbEntity
  8
1
  6
Continuous
 62
     7
100
AcDbCircle
 10
345.5
 20
525.25
 30
0.0
 40
1.5
  0
CIRCLE
  5
846
330
1E
100
AcDbEntity
  8
1
  6
Continuous
 62
     7
100
AcDbCircle
 10
339.5
 20
525.25
 30
0.0
 40
1.5
  0
CIRCLE
  5
847
330
1E
100
AcDbEntity
  8
1
  6
Continuous
 62
     7
100
AcDbCircle
 10
381.4999999999999
 20
519.2499999999999
 30
0.0
 40
1.5
  0
CIRCLE
  5
848
330
1E
100
AcDbEntity
  8
1
  6
Continuous
 62
     7
100
AcDbCircle
 10
375.4999999999999
 20
519.2499999999999
 30
0.0
 40
1.5
  0
CIRCLE
  5
849
330
1E
100
AcDbEntity
  8
1
  6
Continuous
 62
     7
100
AcDbCircle
 10
369.5
 20
519.2499999999999
 30
0.0
 40
1.5
  0
CIRCLE
  5
84A
330
1E
100
AcDbEntity
  8
1
  6
Continuous
 62
     7
100
AcDbCircle
 10
363.5
 20
519.2499999999999
 30
0.0
 40
1.5
  0
CIRCLE
  5
84B
330
1E
100
AcDbEntity
  8
1
  6
Continuous
 62
     7
100
AcDbCircle
 10
357.5
 20
519.2499999999999
 30
0.0
 40
1.5
  0
CIRCLE
  5
84C
330
1E
100
AcDbEntity
  8
1
  6
Continuous
 62
     7
100
AcDbCircle
 10
351.5
 20
519.2499999999999
 30
0.0
 40
1.5
  0
CIRCLE
  5
84D
330
1E
100
AcDbEntity
  8
1
  6
Continuous
 62
     7
100
AcDbCircle
 10
345.5
 20
519.2499999999999
 30
0.0
 40
1.5
  0
CIRCLE
  5
84E
330
1E
100
AcDbEntity
  8
1
  6
Continuous
 62
     7
100
AcDbCircle
 10
339.5
 20
519.2499999999999
 30
0.0
 40
1.5
  0
CIRCLE
  5
84F
330
1E
100
AcDbEntity
  8
1
  6
Continuous
 62
     7
100
AcDbCircle
 10
381.4999999999999
 20
513.25
 30
0.0
 40
1.5
  0
CIRCLE
  5
850
330
1E
100
AcDbEntity
  8
1
  6
Continuous
 62
     7
100
AcDbCircle
 10
375.4999999999999
 20
513.25
 30
0.0
 40
1.5
  0
CIRCLE
  5
851
330
1E
100
AcDbEntity
  8
1
  6
Continuous
 62
     7
100
AcDbCircle
 10
369.5
 20
513.25
 30
0.0
 40
1.5
  0
CIRCLE
  5
852
330
1E
100
AcDbEntity
  8
1
  6
Continuous
 62
     7
100
AcDbCircle
 10
363.5
 20
513.25
 30
0.0
 40
1.5
  0
CIRCLE
  5
853
330
1E
100
AcDbEntity
  8
1
  6
Continuous
 62
     7
100
AcDbCircle
 10
357.5
 20
513.25
 30
0.0
 40
1.5
  0
CIRCLE
  5
854
330
1E
100
AcDbEntity
  8
1
  6
Continuous
 62
     7
100
AcDbCircle
 10
351.5
 20
513.25
 30
0.0
 40
1.5
  0
CIRCLE
  5
855
330
1E
100
AcDbEntity
  8
1
  6
Continuous
 62
     7
100
AcDbCircle
 10
345.5
 20
513.25
 30
0.0
 40
1.5
  0
CIRCLE
  5
856
330
1E
100
AcDbEntity
  8
1
  6
Continuous
 62
     7
100
AcDbCircle
 10
339.5
 20
513.25
 30
0.0
 40
1.5
  0
CIRCLE
  5
857
330
1E
100
AcDbEntity
  8
1
  6
Continuous
 62
     7
100
AcDbCircle
 10
381.4999999999999
 20
507.2499999999999
 30
0.0
 40
1.5
  0
CIRCLE
  5
858
330
1E
100
AcDbEntity
  8
1
  6
Continuous
 62
     7
100
AcDbCircle
 10
375.4999999999999
 20
507.2499999999999
 30
0.0
 40
1.5
  0
CIRCLE
  5
859
330
1E
100
AcDbEntity
  8
1
  6
Continuous
 62
     7
100
AcDbCircle
 10
369.5
 20
507.2499999999999
 30
0.0
 40
1.5
  0
CIRCLE
  5
85A
330
1E
100
AcDbEntity
  8
1
  6
Continuous
 62
     7
100
AcDbCircle
 10
363.5
 20
507.2499999999999
 30
0.0
 40
1.5
  0
CIRCLE
  5
85B
330
1E
100
AcDbEntity
  8
1
  6
Continuous
 62
     7
100
AcDbCircle
 10
357.5
 20
507.2499999999999
 30
0.0
 40
1.5
  0
CIRCLE
  5
85C
330
1E
100
AcDbEntity
  8
1
  6
Continuous
 62
     7
100
AcDbCircle
 10
351.5
 20
507.2499999999999
 30
0.0
 40
1.5
  0
CIRCLE
  5
85D
330
1E
100
AcDbEntity
  8
1
  6
Continuous
 62
     7
100
AcDbCircle
 10
345.5
 20
507.2499999999999
 30
0.0
 40
1.5
  0
CIRCLE
  5
85E
330
1E
100
AcDbEntity
  8
1
  6
Continuous
 62
     7
100
AcDbCircle
 10
339.5
 20
507.2499999999999
 30
0.0
 40
1.5
  0
CIRCLE
  5
85F
330
1E
100
AcDbEntity
  8
1
  6
Continuous
 62
     7
100
AcDbCircle
 10
381.4999999999999
 20
501.25
 30
0.0
 40
1.5
  0
CIRCLE
  5
860
330
1E
100
AcDbEntity
  8
1
  6
Continuous
 62
     7
100
AcDbCircle
 10
375.4999999999999
 20
501.25
 30
0.0
 40
1.5
  0
CIRCLE
  5
861
330
1E
100
AcDbEntity
  8
1
  6
Continuous
 62
     7
100
AcDbCircle
 10
369.5
 20
501.25
 30
0.0
 40
1.5
  0
CIRCLE
  5
862
330
1E
100
AcDbEntity
  8
1
  6
Continuous
 62
     7
100
AcDbCircle
 10
363.5
 20
501.25
 30
0.0
 40
1.5
  0
CIRCLE
  5
863
330
1E
100
AcDbEntity
  8
1
  6
Continuous
 62
     7
100
AcDbCircle
 10
357.5
 20
501.25
 30
0.0
 40
1.5
  0
CIRCLE
  5
864
330
1E
100
AcDbEntity
  8
1
  6
Continuous
 62
     7
100
AcDbCircle
 10
351.5
 20
501.25
 30
0.0
 40
1.5
  0
CIRCLE
  5
865
330
1E
100
AcDbEntity
  8
1
  6
Continuous
 62
     7
100
AcDbCircle
 10
345.5
 20
501.25
 30
0.0
 40
1.5
  0
CIRCLE
  5
866
330
1E
100
AcDbEntity
  8
1
  6
Continuous
 62
     7
100
AcDbCircle
 10
339.5
 20
501.25
 30
0.0
 40
1.5
  0
CIRCLE
  5
867
330
1E
100
AcDbEntity
  8
1
  6
Continuous
 62
     7
100
AcDbCircle
 10
301.0
 20
567.25
 30
0.0
 40
1.5
  0
CIRCLE
  5
868
330
1E
100
AcDbEntity
  8
1
  6
Continuous
 62
     7
100
AcDbCircle
 10
295.0
 20
567.25
 30
0.0
 40
1.5
  0
CIRCLE
  5
869
330
1E
100
AcDbEntity
  8
1
  6
Continuous
 62
     7
100
AcDbCircle
 10
289.0
 20
567.25
 30
0.0
 40
1.5
  0
CIRCLE
  5
86A
330
1E
100
AcDbEntity
  8
1
  6
Continuous
 62
     7
100
AcDbCircle
 10
283.0
 20
567.25
 30
0.0
 40
1.5
  0
CIRCLE
  5
86B
330
1E
100
AcDbEntity
  8
1
  6
Continuous
 62
     7
100
AcDbCircle
 10
277.0
 20
567.25
 30
0.0
 40
1.5
  0
CIRCLE
  5
86C
330
1E
100
AcDbEntity
  8
1
  6
Continuous
 62
     7
100
AcDbCircle
 10
271.0
 20
567.25
 30
0.0
 40
1.5
  0
CIRCLE
  5
86D
330
1E
100
AcDbEntity
  8
1
  6
Continuous
 62
     7
100
AcDbCircle
 10
265.0
 20
567.25
 30
0.0
 40
1.5
  0
CIRCLE
  5
86E
330
1E
100
AcDbEntity
  8
1
  6
Continuous
 62
     7
100
AcDbCircle
 10
259.0
 20
567.25
 30
0.0
 40
1.5
  0
CIRCLE
  5
86F
330
1E
100
AcDbEntity
  8
1
  6
Continuous
 62
     7
100
AcDbCircle
 10
301.0
 20
561.2499999999999
 30
0.0
 40
1.5
  0
CIRCLE
  5
870
330
1E
100
AcDbEntity
  8
1
  6
Continuous
 62
     7
100
AcDbCircle
 10
295.0
 20
561.2499999999999
 30
0.0
 40
1.5
  0
CIRCLE
  5
871
330
1E
100
AcDbEntity
  8
1
  6
Continuous
 62
     7
100
AcDbCircle
 10
289.0
 20
561.2499999999999
 30
0.0
 40
1.5
  0
CIRCLE
  5
872
330
1E
100
AcDbEntity
  8
1
  6
Continuous
 62
     7
100
AcDbCircle
 10
283.0
 20
561.2499999999999
 30
0.0
 40
1.5
  0
CIRCLE
  5
873
330
1E
100
AcDbEntity
  8
1
  6
Continuous
 62
     7
100
AcDbCircle
 10
277.0
 20
561.2499999999999
 30
0.0
 40
1.5
  0
CIRCLE
  5
874
330
1E
100
AcDbEntity
  8
1
  6
Continuous
 62
     7
100
AcDbCircle
 10
271.0
 20
561.2499999999999
 30
0.0
 40
1.5
  0
CIRCLE
  5
875
330
1E
100
AcDbEntity
  8
1
  6
Continuous
 62
     7
100
AcDbCircle
 10
265.0
 20
561.2499999999999
 30
0.0
 40
1.5
  0
CIRCLE
  5
876
330
1E
100
AcDbEntity
  8
1
  6
Continuous
 62
     7
100
AcDbCircle
 10
259.0
 20
561.2499999999999
 30
0.0
 40
1.5
  0
CIRCLE
  5
877
330
1E
100
AcDbEntity
  8
1
  6
Continuous
 62
     7
100
AcDbCircle
 10
301.0
 20
555.25
 30
0.0
 40
1.5
  0
CIRCLE
  5
878
330
1E
100
AcDbEntity
  8
1
  6
Continuous
 62
     7
100
AcDbCircle
 10
295.0
 20
555.25
 30
0.0
 40
1.5
  0
CIRCLE
  5
879
330
1E
100
AcDbEntity
  8
1
  6
Continuous
 62
     7
100
AcDbCircle
 10
289.0
 20
555.25
 30
0.0
 40
1.5
  0
CIRCLE
  5
87A
330
1E
100
AcDbEntity
  8
1
  6
Continuous
 62
     7
100
AcDbCircle
 10
283.0
 20
555.25
 30
0.0
 40
1.5
  0
CIRCLE
  5
87B
330
1E
100
AcDbEntity
  8
1
  6
Continuous
 62
     7
100
AcDbCircle
 10
277.0
 20
555.25
 30
0.0
 40
1.5
  0
CIRCLE
  5
87C
330
1E
100
AcDbEntity
  8
1
  6
Continuous
 62
     7
100
AcDbCircle
 10
271.0
 20
555.25
 30
0.0
 40
1.5
  0
CIRCLE
  5
87D
330
1E
100
AcDbEntity
  8
1
  6
Continuous
 62
     7
100
AcDbCircle
 10
265.0
 20
555.25
 30
0.0
 40
1.5
  0
CIRCLE
  5
87E
330
1E
100
AcDbEntity
  8
1
  6
Continuous
 62
     7
100
AcDbCircle
 10
259.0
 20
555.25
 30
0.0
 40
1.5
  0
CIRCLE
  5
87F
330
1E
100
AcDbEntity
  8
1
  6
Continuous
 62
     7
100
AcDbCircle
 10
301.0
 20
549.2499999999999
 30
0.0
 40
1.5
  0
CIRCLE
  5
880
330
1E
100
AcDbEntity
  8
1
  6
Continuous
 62
     7
100
AcDbCircle
 10
295.0
 20
549.2499999999999
 30
0.0
 40
1.5
  0
CIRCLE
  5
881
330
1E
100
AcDbEntity
  8
1
  6
Continuous
 62
     7
100
AcDbCircle
 10
289.0
 20
549.2499999999999
 30
0.0
 40
1.5
  0
CIRCLE
  5
882
330
1E
100
AcDbEntity
  8
1
  6
Continuous
 62
     7
100
AcDbCircle
 10
283.0
 20
549.2499999999999
 30
0.0
 40
1.5
  0
CIRCLE
  5
883
330
1E
100
AcDbEntity
  8
1
  6
Continuous
 62
     7
100
AcDbCircle
 10
277.0
 20
549.2499999999999
 30
0.0
 40
1.5
  0
CIRCLE
  5
884
330
1E
100
AcDbEntity
  8
1
  6
Continuous
 62
     7
100
AcDbCircle
 10
271.0
 20
549.2499999999999
 30
0.0
 40
1.5
  0
CIRCLE
  5
885
330
1E
100
AcDbEntity
  8
1
  6
Continuous
 62
     7
100
AcDbCircle
 10
265.0
 20
549.2499999999999
 30
0.0
 40
1.5
  0
CIRCLE
  5
886
330
1E
100
AcDbEntity
  8
1
  6
Continuous
 62
     7
100
AcDbCircle
 10
259.0
 20
549.2499999999999
 30
0.0
 40
1.5
  0
CIRCLE
  5
887
330
1E
100
AcDbEntity
  8
1
  6
Continuous
 62
     7
100
AcDbCircle
 10
301.0
 20
543.25
 30
0.0
 40
1.5
  0
CIRCLE
  5
888
330
1E
100
AcDbEntity
  8
1
  6
Continuous
 62
     7
100
AcDbCircle
 10
295.0
 20
543.25
 30
0.0
 40
1.5
  0
CIRCLE
  5
889
330
1E
100
AcDbEntity
  8
1
  6
Continuous
 62
     7
100
AcDbCircle
 10
289.0
 20
543.25
 30
0.0
 40
1.5
  0
CIRCLE
  5
88A
330
1E
100
AcDbEntity
  8
1
  6
Continuous
 62
     7
100
AcDbCircle
 10
283.0
 20
543.25
 30
0.0
 40
1.5
  0
CIRCLE
  5
88B
330
1E
100
AcDbEntity
  8
1
  6
Continuous
 62
     7
100
AcDbCircle
 10
277.0
 20
543.25
 30
0.0
 40
1.5
  0
CIRCLE
  5
88C
330
1E
100
AcDbEntity
  8
1
  6
Continuous
 62
     7
100
AcDbCircle
 10
271.0
 20
543.25
 30
0.0
 40
1.5
  0
CIRCLE
  5
88D
330
1E
100
AcDbEntity
  8
1
  6
Continuous
 62
     7
100
AcDbCircle
 10
265.0
 20
543.25
 30
0.0
 40
1.5
  0
CIRCLE
  5
88E
330
1E
100
AcDbEntity
  8
1
  6
Continuous
 62
     7
100
AcDbCircle
 10
259.0
 20
543.25
 30
0.0
 40
1.5
  0
CIRCLE
  5
88F
330
1E
100
AcDbEntity
  8
1
  6
Continuous
 62
     7
100
AcDbCircle
 10
301.0
 20
537.25
 30
0.0
 40
1.5
  0
CIRCLE
  5
890
330
1E
100
AcDbEntity
  8
1
  6
Continuous
 62
     7
100
AcDbCircle
 10
295.0
 20
537.25
 30
0.0
 40
1.5
  0
CIRCLE
  5
891
330
1E
100
AcDbEntity
  8
1
  6
Continuous
 62
     7
100
AcDbCircle
 10
289.0
 20
537.25
 30
0.0
 40
1.5
  0
CIRCLE
  5
892
330
1E
100
AcDbEntity
  8
1
  6
Continuous
 62
     7
100
AcDbCircle
 10
283.0
 20
537.25
 30
0.0
 40
1.5
  0
CIRCLE
  5
893
330
1E
100
AcDbEntity
  8
1
  6
Continuous
 62
     7
100
AcDbCircle
 10
277.0
 20
537.25
 30
0.0
 40
1.5
  0
CIRCLE
  5
894
330
1E
100
AcDbEntity
  8
1
  6
Continuous
 62
     7
100
AcDbCircle
 10
271.0
 20
537.25
 30
0.0
 40
1.5
  0
CIRCLE
  5
895
330
1E
100
AcDbEntity
  8
1
  6
Continuous
 62
     7
100
AcDbCircle
 10
265.0
 20
537.25
 30
0.0
 40
1.5
  0
CIRCLE
  5
896
330
1E
100
AcDbEntity
  8
1
  6
Continuous
 62
     7
100
AcDbCircle
 10
259.0
 20
537.25
 30
0.0
 40
1.5
  0
CIRCLE
  5
897
330
1E
100
AcDbEntity
  8
1
  6
Continuous
 62
     7
100
AcDbCircle
 10
301.0
 20
531.25
 30
0.0
 40
1.5
  0
CIRCLE
  5
898
330
1E
100
AcDbEntity
  8
1
  6
Continuous
 62
     7
100
AcDbCircle
 10
295.0
 20
531.25
 30
0.0
 40
1.5
  0
CIRCLE
  5
899
330
1E
100
AcDbEntity
  8
1
  6
Continuous
 62
     7
100
AcDbCircle
 10
289.0
 20
531.25
 30
0.0
 40
1.5
  0
CIRCLE
  5
89A
330
1E
100
AcDbEntity
  8
1
  6
Continuous
 62
     7
100
AcDbCircle
 10
283.0
 20
531.25
 30
0.0
 40
1.5
  0
CIRCLE
  5
89B
330
1E
100
AcDbEntity
  8
1
  6
Continuous
 62
     7
100
AcDbCircle
 10
277.0
 20
531.25
 30
0.0
 40
1.5
  0
CIRCLE
  5
89C
330
1E
100
AcDbEntity
  8
1
  6
Continuous
 62
     7
100
AcDbCircle
 10
271.0
 20
531.25
 30
0.0
 40
1.5
  0
CIRCLE
  5
89D
330
1E
100
AcDbEntity
  8
1
  6
Continuous
 62
     7
100
AcDbCircle
 10
265.0
 20
531.25
 30
0.0
 40
1.5
  0
CIRCLE
  5
89E
330
1E
100
AcDbEntity
  8
1
  6
Continuous
 62
     7
100
AcDbCircle
 10
259.0
 20
531.25
 30
0.0
 40
1.5
  0
CIRCLE
  5
89F
330
1E
100
AcDbEntity
  8
1
  6
Continuous
 62
     7
100
AcDbCircle
 10
301.0
 20
525.25
 30
0.0
 40
1.5
  0
CIRCLE
  5
8A0
330
1E
100
AcDbEntity
  8
1
  6
Continuous
 62
     7
100
AcDbCircle
 10
295.0
 20
525.25
 30
0.0
 40
1.5
  0
CIRCLE
  5
8A1
330
1E
100
AcDbEntity
  8
1
  6
Continuous
 62
     7
100
AcDbCircle
 10
289.0
 20
525.25
 30
0.0
 40
1.5
  0
CIRCLE
  5
8A2
330
1E
100
AcDbEntity
  8
1
  6
Continuous
 62
     7
100
AcDbCircle
 10
283.0
 20
525.25
 30
0.0
 40
1.5
  0
CIRCLE
  5
8A3
330
1E
100
AcDbEntity
  8
1
  6
Continuous
 62
     7
100
AcDbCircle
 10
277.0
 20
525.25
 30
0.0
 40
1.5
  0
CIRCLE
  5
8A4
330
1E
100
AcDbEntity
  8
1
  6
Continuous
 62
     7
100
AcDbCircle
 10
271.0
 20
525.25
 30
0.0
 40
1.5
  0
CIRCLE
  5
8A5
330
1E
100
AcDbEntity
  8
1
  6
Continuous
 62
     7
100
AcDbCircle
 10
265.0
 20
525.25
 30
0.0
 40
1.5
  0
CIRCLE
  5
8A6
330
1E
100
AcDbEntity
  8
1
  6
Continuous
 62
     7
100
AcDbCircle
 10
259.0
 20
525.25
 30
0.0
 40
1.5
  0
CIRCLE
  5
8A7
330
1E
100
AcDbEntity
  8
1
  6
Continuous
 62
     7
100
AcDbCircle
 10
301.0
 20
519.2499999999999
 30
0.0
 40
1.5
  0
CIRCLE
  5
8A8
330
1E
100
AcDbEntity
  8
1
  6
Continuous
 62
     7
100
AcDbCircle
 10
295.0
 20
519.2499999999999
 30
0.0
 40
1.5
  0
CIRCLE
  5
8A9
330
1E
100
AcDbEntity
  8
1
  6
Continuous
 62
     7
100
AcDbCircle
 10
289.0
 20
519.2499999999999
 30
0.0
 40
1.5
  0
CIRCLE
  5
8AA
330
1E
100
AcDbEntity
  8
1
  6
Continuous
 62
     7
100
AcDbCircle
 10
283.0
 20
519.2499999999999
 30
0.0
 40
1.5
  0
CIRCLE
  5
8AB
330
1E
100
AcDbEntity
  8
1
  6
Continuous
 62
     7
100
AcDbCircle
 10
277.0
 20
519.2499999999999
 30
0.0
 40
1.5
  0
CIRCLE
  5
8AC
330
1E
100
AcDbEntity
  8
1
  6
Continuous
 62
     7
100
AcDbCircle
 10
271.0
 20
519.2499999999999
 30
0.0
 40
1.5
  0
CIRCLE
  5
8AD
330
1E
100
AcDbEntity
  8
1
  6
Continuous
 62
     7
100
AcDbCircle
 10
265.0
 20
519.2499999999999
 30
0.0
 40
1.5
  0
CIRCLE
  5
8AE
330
1E
100
AcDbEntity
  8
1
  6
Continuous
 62
     7
100
AcDbCircle
 10
259.0
 20
519.2499999999999
 30
0.0
 40
1.5
  0
CIRCLE
  5
8AF
330
1E
100
AcDbEntity
  8
1
  6
Continuous
 62
     7
100
AcDbCircle
 10
301.0
 20
513.25
 30
0.0
 40
1.5
  0
CIRCLE
  5
8B0
330
1E
100
AcDbEntity
  8
1
  6
Continuous
 62
     7
100
AcDbCircle
 10
295.0
 20
513.25
 30
0.0
 40
1.5
  0
CIRCLE
  5
8B1
330
1E
100
AcDbEntity
  8
1
  6
Continuous
 62
     7
100
AcDbCircle
 10
289.0
 20
513.25
 30
0.0
 40
1.5
  0
CIRCLE
  5
8B2
330
1E
100
AcDbEntity
  8
1
  6
Continuous
 62
     7
100
AcDbCircle
 10
283.0
 20
513.25
 30
0.0
 40
1.5
  0
CIRCLE
  5
8B3
330
1E
100
AcDbEntity
  8
1
  6
Continuous
 62
     7
100
AcDbCircle
 10
277.0
 20
513.25
 30
0.0
 40
1.5
  0
CIRCLE
  5
8B4
330
1E
100
AcDbEntity
  8
1
  6
Continuous
 62
     7
100
AcDbCircle
 10
271.0
 20
513.25
 30
0.0
 40
1.5
  0
CIRCLE
  5
8B5
330
1E
100
AcDbEntity
  8
1
  6
Continuous
 62
     7
100
AcDbCircle
 10
265.0
 20
513.25
 30
0.0
 40
1.5
  0
CIRCLE
  5
8B6
330
1E
100
AcDbEntity
  8
1
  6
Continuous
 62
     7
100
AcDbCircle
 10
259.0
 20
513.25
 30
0.0
 40
1.5
  0
CIRCLE
  5
8B7
330
1E
100
AcDbEntity
  8
1
  6
Continuous
 62
     7
100
AcDbCircle
 10
301.0
 20
507.2499999999999
 30
0.0
 40
1.5
  0
CIRCLE
  5
8B8
330
1E
100
AcDbEntity
  8
1
  6
Continuous
 62
     7
100
AcDbCircle
 10
295.0
 20
507.2499999999999
 30
0.0
 40
1.5
  0
CIRCLE
  5
8B9
330
1E
100
AcDbEntity
  8
1
  6
Continuous
 62
     7
100
AcDbCircle
 10
289.0
 20
507.2499999999999
 30
0.0
 40
1.5
  0
CIRCLE
  5
8BA
330
1E
100
AcDbEntity
  8
1
  6
Continuous
 62
     7
100
AcDbCircle
 10
283.0
 20
507.2499999999999
 30
0.0
 40
1.5
  0
CIRCLE
  5
8BB
330
1E
100
AcDbEntity
  8
1
  6
Continuous
 62
     7
100
AcDbCircle
 10
277.0
 20
507.2499999999999
 30
0.0
 40
1.5
  0
CIRCLE
  5
8BC
330
1E
100
AcDbEntity
  8
1
  6
Continuous
 62
     7
100
AcDbCircle
 10
271.0
 20
507.2499999999999
 30
0.0
 40
1.5
  0
CIRCLE
  5
8BD
330
1E
100
AcDbEntity
  8
1
  6
Continuous
 62
     7
100
AcDbCircle
 10
265.0
 20
507.2499999999999
 30
0.0
 40
1.5
  0
CIRCLE
  5
8BE
330
1E
100
AcDbEntity
  8
1
  6
Continuous
 62
     7
100
AcDbCircle
 10
259.0
 20
507.2499999999999
 30
0.0
 40
1.5
  0
CIRCLE
  5
8BF
330
1E
100
AcDbEntity
  8
1
  6
Continuous
 62
     7
100
AcDbCircle
 10
301.0
 20
501.25
 30
0.0
 40
1.5
  0
CIRCLE
  5
8C0
330
1E
100
AcDbEntity
  8
1
  6
Continuous
 62
     7
100
AcDbCircle
 10
295.0
 20
501.25
 30
0.0
 40
1.5
  0
CIRCLE
  5
8C1
330
1E
100
AcDbEntity
  8
1
  6
Continuous
 62
     7
100
AcDbCircle
 10
289.0
 20
501.25
 30
0.0
 40
1.5
  0
CIRCLE
  5
8C2
330
1E
100
AcDbEntity
  8
1
  6
Continuous
 62
     7
100
AcDbCircle
 10
283.0
 20
501.25
 30
0.0
 40
1.5
  0
CIRCLE
  5
8C3
330
1E
100
AcDbEntity
  8
1
  6
Continuous
 62
     7
100
AcDbCircle
 10
277.0
 20
501.25
 30
0.0
 40
1.5
  0
CIRCLE
  5
8C4
330
1E
100
AcDbEntity
  8
1
  6
Continuous
 62
     7
100
AcDbCircle
 10
271.0
 20
501.25
 30
0.0
 40
1.5
  0
CIRCLE
  5
8C5
330
1E
100
AcDbEntity
  8
1
  6
Continuous
 62
     7
100
AcDbCircle
 10
265.0
 20
501.25
 30
0.0
 40
1.5
  0
CIRCLE
  5
8C6
330
1E
100
AcDbEntity
  8
1
  6
Continuous
 62
     7
100
AcDbCircle
 10
259.0
 20
501.25
 30
0.0
 40
1.5
  0
LINE
  5
8DF
330
1E
100
AcDbEntity
  8
1
  6
Continuous
 62
     7
100
AcDbLine
 10
133.4999999999999
 20
300.0
 30
0.0
 11
133.4999999999999
 21
295.0
 31
0.0
  0
LINE
  5
8E0
330
1E
100
AcDbEntity
  8
1
  6
Continuous
 62
     7
100
AcDbLine
 10
133.4999999999999
 20
295.0
 30
0.0
 11
146.5
 21
295.0
 31
0.0
  0
LINE
  5
8E1
330
1E
100
AcDbEntity
  8
1
  6
Continuous
 62
     7
100
AcDbLine
 10
146.5
 20
295.0
 30
0.0
 11
146.5
 21
300.0
 31
0.0
  0
LINE
  5
8E2
330
1E
100
AcDbEntity
  8
1
  6
Continuous
 62
     7
100
AcDbLine
 10
426.4999999999999
 20
300.0
 30
0.0
 11
426.4999999999999
 21
295.0
 31
0.0
  0
LINE
  5
8E3
330
1E
100
AcDbEntity
  8
1
  6
Continuous
 62
     7
100
AcDbLine
 10
426.4999999999999
 20
295.0
 30
0.0
 11
413.4999999999999
 21
295.0
 31
0.0
  0
LINE
  5
8E4
330
1E
100
AcDbEntity
  8
1
  6
Continuous
 62
     7
100
AcDbLine
 10
413.4999999999999
 20
295.0
 30
0.0
 11
413.4999999999999
 21
300.0
 31
0.0
  0
LINE
  5
8E9
330
1E
100
AcDbEntity
  8
0
100
AcDbLine
 10
228.5
 20
437.25
 30
0.0
 11
220.0
 21
437.25
 31
0.0
  0
LINE
  5
8EA
330
1E
100
AcDbEntity
  8
0
100
AcDbLine
 10
228.5
 20
537.25
 30
0.0
 11
220.0
 21
537.25
 31
0.0
  0
LINE
  5
8EB
330
1E
100
AcDbEntity
  8
0
100
AcDbLine
 10
220.0
 20
438.25
 30
0.0
 11
220.0
 21
487.0699999999999
 31
0.0
  0
LINE
  5
8EC
330
1E
100
AcDbEntity
  8
0
100
AcDbLine
 10
220.0
 20
536.2499999999999
 30
0.0
 11
220.0
 21
487.4299999999999
 31
0.0
  0
SOLID
  5
8ED
330
1E
100
AcDbEntity
  8
0
100
AcDbTrace
 10
219.8333333333333
 20
438.25
 30
0.0
 11
220.1666666666666
 21
438.25
 31
0.0
 12
220.0
 22
437.25
 32
0.0
 13
220.0
 23
437.25
 33
0.0
  0
SOLID
  5
8EE
330
1E
100
AcDbEntity
  8
0
100
AcDbTrace
 10
219.8333333333333
 20
536.2499999999999
 30
0.0
 11
220.1666666666667
 21
536.2499999999999
 31
0.0
 12
220.0
 22
537.25
 32
0.0
 13
220.0
 23
537.25
 33
0.0
  0
MTEXT
  5
8EF
330
1E
100
AcDbEntity
  8
0
100
AcDbMText
 10
216.1749541913191
 20
487.25
 30
0.0
 40
5.0
 41
0.0
 71
     5
 72
     1
  1
{\Ftxt.shx,bigfont.shx;100}
 11
0.0000000000000001
 21
1.0
 31
0.0
 73
     1
 44
1.0
  0
LINE
  5
8F5
330
1E
100
AcDbEntity
  8
0
100
AcDbLine
 10
230.0
 20
420.0
 30
0.0
 11
230.0
 21
410.0
 31
0.0
  0
LINE
  5
8F6
330
1E
100
AcDbEntity
  8
0
100
AcDbLine
 10
330.0
 20
420.0
 30
0.0
 11
330.0
 21
410.0
 31
0.0
  0
LINE
  5
8F7
330
1E
100
AcDbEntity
  8
0
100
AcDbLine
 10
231.0
 20
410.0
 30
0.0
 11
279.73
 21
410.0
 31
0.0
  0
LINE
  5
8F8
330
1E
100
AcDbEntity
  8
0
100
AcDbLine
 10
329.0
 20
410.0
 30
0.0
 11
280.2699999999999
 21
410.0
 31
0.0
  0
SOLID
  5
8F9
330
1E
100
AcDbEntity
  8
0
100
AcDbTrace
 10
231.0
 20
410.1666666666666
 30
0.0
 11
231.0
 21
409.8333333333333
 31
0.0
 12
230.0
 22
410.0
 32
0.0
 13
230.0
 23
410.0
 33
0.0
  0
SOLID
  5
8FA
330
1E
100
AcDbEntity
  8
0
100
AcDbTrace
 10
329.0
 20
410.1666666666666
 30
0.0
 11
329.0
 21
409.8333333333333
 31
0.0
 12
330.0
 22
410.0
 32
0.0
 13
330.0
 23
410.0
 33
0.0
  0
MTEXT
  5
8FB
330
1E
100
AcDbEntity
  8
0
100
AcDbMText
 10
280.0
 20
414.3084516299968
 30
0.0
 40
5.0
 41
0.0
 71
     5
 72
     1
  1
{\Ftxt.shx,bigfont.shx;100}
 73
     1
 44
1.0
  0
LINE
  5
8FE
330
1E
100
AcDbEntity
  8
0
100
AcDbLine
 10
331.5
 20
537.25
 30
0.0
 11
340.0
 21
537.25
 31
0.0
  0
LINE
  5
8FF
330
1E
100
AcDbEntity
  8
0
100
AcDbLine
 10
331.4999999999999
 20
477.2499999999999
 30
0.0
 11
340.0
 21
477.2499999999999
 31
0.0
  0
LINE
  5
900
330
1E
100
AcDbEntity
  8
0
100
AcDbLine
 10
340.0
 20
536.2499999999999
 30
0.0
 11
340.0
 21
507.43
 31
0.0
  0
LINE
  5
901
330
1E
100
AcDbEntity
  8
0
100
AcDbLine
 10
340.0
 20
478.2499999999999
 30
0.0
 11
340.0
 21
507.07
 31
0.0
  0
SOLID
  5
902
330
1E
100
AcDbEntity
  8
0
100
AcDbTrace
 10
339.8333333333333
 20
536.2499999999999
 30
0.0
 11
340.1666666666666
 21
536.2499999999999
 31
0.0
 12
340.0
 22
537.25
 32
0.0
 13
340.0
 23
537.25
 33
0.0
  0
SOLID
  5
903
330
1E
100
AcDbEntity
  8
0
100
AcDbTrace
 10
339.8333333333333
 20
478.2499999999999
 30
0.0
 11
340.1666666666666
 21
478.2499999999999
 31
0.0
 12
340.0
 22
477.2499999999999
 32
0.0
 13
340.0
 23
477.2499999999999
 33
0.0
  0
MTEXT
  5
904
330
1E
100
AcDbEntity
  8
0
100
AcDbMText
 10
334.3936812685128
 20
507.2500000000001
 30
0.0
 40
5.0
 41
0.0
 71
     5
 72
     1
  1
{\Ftxt.shx,bigfont.shx;60}
 11
0.0000000000000001
 21
1.0
 31
0.0
 73
     1
 44
1.0
  0
LINE
  5
909
330
1E
100
AcDbEntity
  8
0
100
AcDbLine
 10
169.4157513452605
 20
597.25
 30
0.0
 11
148.7694505427375
 21
597.25
 31
0.0
  0
LINE
  5
90A
330
1E
100
AcDbEntity
  8
0
100
AcDbLine
 10
169.4157513452605
 20
477.2499999999999
 30
0.0
 11
148.7694505427375
 21
477.2499999999999
 31
0.0
  0
LINE
  5
90B
330
1E
100
AcDbEntity
  8
0
100
AcDbLine
 10
148.7694505427375
 20
596.25
 30
0.0
 11
148.7694505427375
 21
537.4299999999999
 31
0.0
  0
LINE
  5
90C
330
1E
100
AcDbEntity
  8
0
100
AcDbLine
 10
148.7694505427375
 20
478.2499999999999
 30
0.0
 11
148.7694505427375
 21
537.07
 31
0.0
  0
SOLID
  5
90D
330
1E
100
AcDbEntity
  8
0
100
AcDbTrace
 10
148.6027838760709
 20
596.25
 30
0.0
 11
148.9361172094042
 21
596.25
 31
0.0
 12
148.7694505427375
 22
597.25
 32
0.0
 13
148.7694505427375
 23
597.25
 33
0.0
  0
SOLID
  5
90E
330
1E
100
AcDbEntity
  8
0
100
AcDbTrace
 10
148.6027838760709
 20
478.2499999999999
 30
0.0
 11
148.9361172094042
 21
478.2499999999999
 31
0.0
 12
148.7694505427375
 22
477.2499999999999
 32
0.0
 13
148.7694505427375
 23
477.2499999999999
 33
0.0
  0
MTEXT
  5
90F
330
1E
100
AcDbEntity
  8
0
100
AcDbMText
 10
144.4587374547495
 20
537.25
 30
0.0
 40
5.0
 41
0.0
 71
     5
 72
     1
  1
{\Ftxt.shx,bigfont.shx;120}
 11
0.0000000000000001
 21
1.0
 31
0.0
 73
     1
 44
1.0
  0
LINE
  5
911
330
1E
100
AcDbEntity
  8
0
100
AcDbLine
 10
210.0
 20
602.2499999999999
 30
0.0
 11
210.0
 21
610.7499999999999
 31
0.0
  0
LINE
  5
912
330
1E
100
AcDbEntity
  8
0
100
AcDbLine
 10
350.0
 20
602.2499999999999
 30
0.0
 11
350.0
 21
610.7499999999999
 31
0.0
  0
LINE
  5
913
330
1E
100
AcDbEntity
  8
0
100
AcDbLine
 10
211.0
 20
610.7499999999999
 30
0.0
 11
279.7149999999999
 21
610.7499999999999
 31
0.0
  0
LINE
  5
914
330
1E
100
AcDbEntity
  8
0
100
AcDbLine
 10
349.0
 20
610.7499999999999
 30
0.0
 11
280.285
 21
610.7499999999999
 31
0.0
  0
SOLID
  5
915
330
1E
100
AcDbEntity
  8
0
100
AcDbTrace
 10
211.0
 20
610.9166666666666
 30
0.0
 11
211.0
 21
610.5833333333333
 31
0.0
 12
210.0
 22
610.7499999999999
 32
0.0
 13
210.0
 23
610.7499999999999
 33
0.0
  0
SOLID
  5
916
330
1E
100
AcDbEntity
  8
0
100
AcDbTrace
 10
349.0
 20
610.9166666666666
 30
0.0
 11
349.0
 21
610.5833333333333
 31
0.0
 12
350.0
 22
610.7499999999999
 32
0.0
 13
350.0
 23
610.7499999999999
 33
0.0
  0
MTEXT
  5
917
330
1E
100
AcDbEntity
  8
0
100
AcDbMText
 10
280.0
 20
615.2232058837293
 30
0.0
 40
5.0
 41
0.0
 71
     5
 72
     1
  1
{\Ftxt.shx,bigfont.shx;140}
 73
     1
 44
1.0
  0
LINE
  5
91F
330
1E
100
AcDbEntity
  8
0
100
AcDbLine
 10
540.0
 20
664.5
 30
0.0
 11
540.0
 21
680.0
 31
0.0
  0
LINE
  5
920
330
1E
100
AcDbEntity
  8
0
100
AcDbLine
 10
614.2
 20
664.5
 30
0.0
 11
614.2
 21
680.0
 31
0.0
  0
LINE
  5
921
330
1E
100
AcDbEntity
  8
0
100
AcDbLine
 10
541.0
 20
680.0
 30
0.0
 11
576.74
 21
680.0
 31
0.0
  0
LINE
  5
922
330
1E
100
AcDbEntity
  8
0
100
AcDbLine
 10
613.2
 20
680.0
 30
0.0
 11
577.46
 21
680.0
 31
0.0
  0
SOLID
  5
923
330
1E
100
AcDbEntity
  8
0
100
AcDbTrace
 10
541.0
 20
680.1666666666666
 30
0.0
 11
541.0
 21
679.8333333333333
 31
0.0
 12
540.0
 22
680.0
 32
0.0
 13
540.0
 23
680.0
 33
0.0
  0
SOLID
  5
924
330
1E
100
AcDbEntity
  8
0
100
AcDbTrace
 10
613.2
 20
680.1666666666666
 30
0.0
 11
613.2
 21
679.8333333333333
 31
0.0
 12
614.2
 22
680.0
 32
0.0
 13
614.2
 23
680.0
 33
0.0
  0
MTEXT
  5
925
330
1E
100
AcDbEntity
  8
0
100
AcDbMText
 10
577.0999999999999
 20
684.1663373137512
 30
0.0
 40
5.0
 41
0.0
 71
     5
 72
     1
  1
{\Ftxt.shx,bigfont.shx;74.2}
 73
     1
 44
1.0
  0
LINE
  5
926
330
1E
100
AcDbEntity
  8
0
100
AcDbLine
 10
685.0
 20
664.5
 30
0.0
 11
685.0
 21
680.0
 31
0.0
  0
LINE
  5
927
330
1E
100
AcDbEntity
  8
0
100
AcDbLine
 10
1075.0
 20
664.5
 30
0.0
 11
1075.0
 21
680.0
 31
0.0
  0
LINE
  5
928
330
1E
100
AcDbEntity
  8
0
100
AcDbLine
 10
686.0
 20
680.0
 30
0.0
 11
879.6849999999999
 21
680.0
 31
0.0
  0
LINE
  5
929
330
1E
100
AcDbEntity
  8
0
100
AcDbLine
 10
1074.0
 20
680.0
 30
0.0
 11
880.315
 21
680.0
 31
0.0
  0
SOLID
  5
92A
330
1E
100
AcDbEntity
  8
0
100
AcDbTrace
 10
686.0
 20
680.1666666666666
 30
0.0
 11
686.0
 21
679.8333333333333
 31
0.0
 12
685.0
 22
680.0
 32
0.0
 13
685.0
 23
680.0
 33
0.0
  0
SOLID
  5
92B
330
1E
100
AcDbEntity
  8
0
100
AcDbTrace
 10
1074.0
 20
680.1666666666666
 30
0.0
 11
1074.0
 21
679.8333333333333
 31
0.0
 12
1075.0
 22
680.0
 32
0.0
 13
1075.0
 23
680.0
 33
0.0
  0
MTEXT
  5
92C
330
1E
100
AcDbEntity
  8
0
100
AcDbMText
 10
880.0
 20
684.1326588267766
 30
0.0
 40
5.0
 41
0.0
 71
     5
 72
     1
  1
{\Ftxt.shx,bigfont.shx;390}
 73
     1
 44
1.0
  0
LINE
  5
931
330
1E
100
AcDbEntity
  8
0
100
AcDbLine
 10
1085.0
 20
300.0
 30
0.0
 11
1120.0
 21
300.0
 31
0.0
  0
LINE
  5
932
330
1E
100
AcDbEntity
  8
0
100
AcDbLine
 10
1085.0
 20
654.4999999999999
 30
0.0
 11
1120.0
 21
654.4999999999999
 31
0.0
  0
LINE
  5
933
330
1E
100
AcDbEntity
  8
0
100
AcDbLine
 10
1120.0
 20
301.0
 30
0.0
 11
1120.0
 21
477.0699999999999
 31
0.0
  0
LINE
  5
934
330
1E
100
AcDbEntity
  8
0
100
AcDbLine
 10
1120.0
 20
653.5
 30
0.0
 11
1120.0
 21
477.43
 31
0.0
  0
SOLID
  5
935
330
1E
100
AcDbEntity
  8
0
100
AcDbTrace
 10
1119.833333333333
 20
301.0
 30
0.0
 11
1120.166666666666
 21
301.0
 31
0.0
 12
1120.0
 22
300.0
 32
0.0
 13
1120.0
 23
300.0
 33
0.0
  0
SOLID
  5
936
330
1E
100
AcDbEntity
  8
0
100
AcDbTrace
 10
1119.833333333333
 20
653.5
 30
0.0
 11
1120.166666666666
 21
653.5
 31
0.0
 12
1120.0
 22
654.4999999999999
 32
0.0
 13
1120.0
 23
654.4999999999999
 33
0.0
  0
MTEXT
  5
937
330
1E
100
AcDbEntity
  8
0
100
AcDbMText
 10
1115.337264488153
 20
477.2500000000001
 30
0.0
 40
5.0
 41
0.0
 71
     5
 72
     1
  1
{\Ftxt.shx,bigfont.shx;354.5}
 11
0.0000000000000001
 21
1.0
 31
0.0
 73
     1
 44
1.0
  0
LEADER
  5
938
330
1E
100
AcDbEntity
  8
0
100
AcDbLeader
  3
Standard
 76
     3
 10
230.0
 20
538.75
 30
0.0
 10
250.7471164416715
 20
582.680724882689
 30
0.0
 10
304.180742529933
 20
582.680724882689
 30
0.0
1001
ACAD
1000
DSTYLE
1002
{
1070
   147
1040
0.09
1070
    77
1070
     0
1070
    41
1040
1.0
1070
    42
1040
0.0
1070
    43
1040
0.5
1070
    44
1040
0.0
1070
   141
1040
0.0
1070
   171
1070
     0
1002
}
  0
MTEXT
  5
939
330
1E
100
AcDbEntity
  8
0
100
AcDbMText
 10
251.6591374234017
 20
588.3494087968483
 30
0.0
 40
5.0
 41
21.03627815409527
 71
     1
 72
     5
  1
{\Ftxt.shx,bigfont.shx;4-M3}
 73
     1
 44
1.0
  0
MTEXT
  5
93B
330
1E
100
AcDbEntity
  8
0
100
AcDbMText
 10
272.6954155774969
 20
589.263678506728
 30
0.0
 40
6.0
 41
24.69476100058912
 71
     1
 72
     5
  1
{\Ftxt.shx,bigfont.shx;タップ}
 73
     1
 44
1.0
  0
ENDSEC
  0
SECTION
  2
OBJECTS
  0
DICTIONARY
  5
C
330
0
100
AcDbDictionary
281
     1
  3
ACAD_GROUP
350
D
  3
ACAD_PLOTSTYLENAME
350
E
  3
ACAD_MLINESTYLE
350
16
  3
ACAD_PLOTSETTINGS
350
18
  3
ACAD_LAYOUT
350
19
  0
DICTIONARY
  5
D
102
{ACAD_REACTORS
330
C
102
}
330
C
100
AcDbDictionary
281
     1
  0
ACDBDICTIONARYWDFLT
  5
E
102
{ACAD_REACTORS
330
C
102
}
330
C
100
AcDbDictionary
281
     1
  3
Normal
350
F
100
AcDbDictionaryWithDefault
340
F
  0
DICTIONARY
  5
16
102
{ACAD_REACTORS
330
C
102
}
330
C
100
AcDbDictionary
281
     1
  3
Standard
350
17
  0
DICTIONARY
  5
18
102
{ACAD_REACTORS
330
C
102
}
330
C
100
AcDbDictionary
281
     1
  0
DICTIONARY
  5
19
102
{ACAD_REACTORS
330
C
102
}
330
C
100
AcDbDictionary
281
     1
  3
ﾚｲｱｳﾄ1
350
1D
  3
Model
350
21
  0
ACDBPLACEHOLDER
  5
F
102
{ACAD_REACTORS
330
E
102
}
330
E
  0
MLINESTYLE
  5
17
102
{ACAD_REACTORS
330
16
102
}
330
16
100
AcDbMlineStyle
  2
STANDARD
 70
     0
  3

 62
   256
 51
90.0
 52
90.0
 71
     2
 49
0.5
 62
   256
  6
BYLAYER
 49
-0.5
 62
   256
  6
BYLAYER
  0
LAYOUT
  5
1D
102
{ACAD_REACTORS
330
19
102
}
330
19
100
AcDbPlotSettings
  1

  2
自動 Canon LASER SHOT LBP-1820 (merit 上)
  4

  6

 40
0.0
 41
0.0
 42
0.0
 43
0.0
 44
0.0
 45
0.0
 46
0.0
 47
0.0
 48
0.0
 49
0.0
140
0.0
141
0.0
142
1.0
143
1.0
 70
   688
 72
     0
 73
     0
 74
     5
  7

 75
    16
147
1.0
148
0.0
149
0.0
100
AcDbLayout
  1
ﾚｲｱｳﾄ1
 70
     1
 71
     1
 10
0.0
 20
0.0
 11
12.0
 21
9.0
 12
0.0
 22
0.0
 32
0.0
 14
0.0
 24
0.0
 34
0.0
 15
297.0
 25
210.0
 35
0.0
146
0.0
 13
0.0
 23
0.0
 33
0.0
 16
1.0
 26
0.0
 36
0.0
 17
0.0
 27
1.0
 37
0.0
 76
     0
330
1A
  0
LAYOUT
  5
21
102
{ACAD_REACTORS
330
19
102
}
330
19
100
AcDbPlotSettings
  1

  2
自動 Canon LASER SHOT LBP-1820 (merit 上)
  4

  6

 40
0.0
 41
0.0
 42
0.0
 43
0.0
 44
0.0
 45
0.0
 46
0.0
 47
0.0
 48
0.0
 49
0.0
140
0.0
141
0.0
142
1.0
143
1.0
 70
  1712
 72
     0
 73
     0
 74
     0
  7

 75
     0
147
1.0
148
0.0
149
0.0
100
AcDbLayout
  1
Model
 70
     1
 71
     0
 10
0.0
 20
0.0
 11
12.0
 21
9.0
 12
0.0
 22
0.0
 32
0.0
 14
0.0
 24
0.0
 34
0.0
 15
0.0
 25
0.0
 35
0.0
146
0.0
 13
0.0
 23
0.0
 33
0.0
 16
1.0
 26
0.0
 36
0.0
 17
0.0
 27
1.0
 37
0.0
 76
     0
330
1E
  0
ENDSEC
  0
EOF
