  0
SECTION
  2
HEADER
  9
$ACADVER
  1
AC1015
  9
$ACADMAINTVER
 70
     6
  9
$DWGCODEPAGE
  3
ANSI_932
  9
$INSBASE
 10
0.0
 20
0.0
 30
0.0
  9
$EXTMIN
 10
72.9821787972262
 20
31.97680806086486
 30
-0.0015258207003583
  9
$EXTMAX
 10
381.6888437067261
 20
545.2553113848614
 30
0.0000000349246037
  9
$LIMMIN
 10
0.0
 20
0.0
  9
$LIMMAX
 10
420.0
 20
594.0
  9
$ORTHOMODE
 70
     1
  9
$REGENMODE
 70
     1
  9
$FILLMODE
 70
     1
  9
$QTEXTMODE
 70
     0
  9
$MIRRTEXT
 70
     1
  9
$LTSCALE
 40
0.5
  9
$ATTMODE
 70
     1
  9
$TEXTSIZE
 40
0.2
  9
$TRACEWID
 40
0.05
  9
$TEXTSTYLE
  7
STANDARD
  9
$CLAYER
  8
0
  9
$CELTYPE
  6
ByLayer
  9
$CECOLOR
 62
   256
  9
$CELTSCALE
 40
1.0
  9
$DISPSILH
 70
     0
  9
$DIMSCALE
 40
1.0
  9
$DIMASZ
 40
1.0
  9
$DIMEXO
 40
0.0
  9
$DIMDLI
 40
0.5
  9
$DIMRND
 40
0.0
  9
$DIMDLE
 40
0.0
  9
$DIMEXE
 40
0.0
  9
$DIMTP
 40
0.0
  9
$DIMTM
 40
0.0
  9
$DIMTXT
 40
0.18
  9
$DIMCEN
 40
0.0
  9
$DIMTSZ
 40
0.0
  9
$DIMTOL
 70
     0
  9
$DIMLIM
 70
     0
  9
$DIMTIH
 70
     1
  9
$DIMTOH
 70
     1
  9
$DIMSE1
 70
     0
  9
$DIMSE2
 70
     0
  9
$DIMTAD
 70
     0
  9
$DIMZIN
 70
     0
  9
$DIMBLK
  1

  9
$DIMASO
 70
     0
  9
$DIMSHO
 70
     0
  9
$DIMPOST
  1

  9
$DIMAPOST
  1

  9
$DIMALT
 70
     0
  9
$DIMALTD
 70
     0
  9
$DIMALTF
 40
25.4
  9
$DIMLFAC
 40
1.0
  9
$DIMTOFL
 70
     0
  9
$DIMTVP
 40
0.0
  9
$DIMTIX
 70
     0
  9
$DIMSOXD
 70
     0
  9
$DIMSAH
 70
     0
  9
$DIMBLK1
  1

  9
$DIMBLK2
  1

  9
$DIMSTYLE
  2
Standard
  9
$DIMCLRD
 70
     0
  9
$DIMCLRE
 70
     0
  9
$DIMCLRT
 70
     0
  9
$DIMTFAC
 40
1.0
  9
$DIMGAP
 40
0.09
  9
$DIMJUST
 70
     0
  9
$DIMSD1
 70
     0
  9
$DIMSD2
 70
     0
  9
$DIMTOLJ
 70
     1
  9
$DIMTZIN
 70
     0
  9
$DIMALTZ
 70
     0
  9
$DIMALTTZ
 70
     0
  9
$DIMUPT
 70
     0
  9
$DIMDEC
 70
     4
  9
$DIMTDEC
 70
     4
  9
$DIMALTU
 70
     2
  9
$DIMALTTD
 70
     2
  9
$DIMTXSTY
  7
STANDARD
  9
$DIMAUNIT
 70
     0
  9
$DIMADEC
 70
     0
  9
$DIMALTRND
 40
0.0
  9
$DIMAZIN
 70
     0
  9
$DIMDSEP
 70
    46
  9
$DIMATFIT
 70
     3
  9
$DIMFRAC
 70
     0
  9
$DIMLDRBLK
  1

  9
$DIMLUNIT
 70
     2
  9
$DIMLWD
 70
    -2
  9
$DIMLWE
 70
    -2
  9
$DIMTMOVE
 70
     0
  9
$LUNITS
 70
     2
  9
$LUPREC
 70
     2
  9
$SKETCHINC
 40
0.0
  9
$FILLETRAD
 40
0.0
  9
$AUNITS
 70
     1
  9
$AUPREC
 70
     2
  9
$MENU
  1
ACAD
  9
$ELEVATION
 40
0.0
  9
$PELEVATION
 40
0.0
  9
$THICKNESS
 40
0.0
  9
$LIMCHECK
 70
     1
  9
$CHAMFERA
 40
0.0
  9
$CHAMFERB
 40
0.0
  9
$CHAMFERC
 40
0.0
  9
$CHAMFERD
 40
0.0
  9
$SKPOLY
 70
     0
  9
$TDCREATE
 40
2311945.483467650
  9
$TDUCREATE
 40
2311945.108467650
  9
$TDUPDATE
 40
2454792.637333622
  9
$TDUUPDATE
 40
2454792.262333622
  9
$TDINDWG
 40
0.0115820255
  9
$TDUSRTIMER
 40
0.0115798611
  9
$USRTIMER
 70
     1
  9
$ANGBASE
 50
0.0
  9
$ANGDIR
 70
     0
  9
$PDMODE
 70
     0
  9
$PDSIZE
 40
0.0
  9
$PLINEWID
 40
0.0
  9
$SPLFRAME
 70
     0
  9
$SPLINETYPE
 70
     6
  9
$SPLINESEGS
 70
     8
  9
$HANDSEED
  5
267
  9
$SURFTAB1
 70
     6
  9
$SURFTAB2
 70
     6
  9
$SURFTYPE
 70
     6
  9
$SURFU
 70
     6
  9
$SURFV
 70
     6
  9
$UCSBASE
  2

  9
$UCSNAME
  2

  9
$UCSORG
 10
0.0
 20
0.0
 30
0.0
  9
$UCSXDIR
 10
1.0
 20
0.0
 30
0.0
  9
$UCSYDIR
 10
0.0
 20
1.0
 30
0.0
  9
$UCSORTHOREF
  2

  9
$UCSORTHOVIEW
 70
     0
  9
$UCSORGTOP
 10
0.0
 20
0.0
 30
0.0
  9
$UCSORGBOTTOM
 10
0.0
 20
0.0
 30
0.0
  9
$UCSORGLEFT
 10
0.0
 20
0.0
 30
0.0
  9
$UCSORGRIGHT
 10
0.0
 20
0.0
 30
0.0
  9
$UCSORGFRONT
 10
0.0
 20
0.0
 30
0.0
  9
$UCSORGBACK
 10
0.0
 20
0.0
 30
0.0
  9
$PUCSBASE
  2

  9
$PUCSNAME
  2

  9
$PUCSORG
 10
0.0
 20
0.0
 30
0.0
  9
$PUCSXDIR
 10
1.0
 20
0.0
 30
0.0
  9
$PUCSYDIR
 10
0.0
 20
1.0
 30
0.0
  9
$PUCSORTHOREF
  2

  9
$PUCSORTHOVIEW
 70
     0
  9
$PUCSORGTOP
 10
0.0
 20
0.0
 30
0.0
  9
$PUCSORGBOTTOM
 10
0.0
 20
0.0
 30
0.0
  9
$PUCSORGLEFT
 10
0.0
 20
0.0
 30
0.0
  9
$PUCSORGRIGHT
 10
0.0
 20
0.0
 30
0.0
  9
$PUCSORGFRONT
 10
0.0
 20
0.0
 30
0.0
  9
$PUCSORGBACK
 10
0.0
 20
0.0
 30
0.0
  9
$USERI1
 70
     0
  9
$USERI2
 70
     0
  9
$USERI3
 70
     0
  9
$USERI4
 70
     0
  9
$USERI5
 70
     0
  9
$USERR1
 40
0.0
  9
$USERR2
 40
0.0
  9
$USERR3
 40
0.0
  9
$USERR4
 40
0.0
  9
$USERR5
 40
0.0
  9
$WORLDVIEW
 70
     1
  9
$SHADEDGE
 70
     3
  9
$SHADEDIF
 70
    70
  9
$TILEMODE
 70
     1
  9
$MAXACTVP
 70
    64
  9
$PINSBASE
 10
0.0
 20
0.0
 30
0.0
  9
$PLIMCHECK
 70
     0
  9
$PEXTMIN
 10
0.0
 20
0.0
 30
0.0
  9
$PEXTMAX
 10
210.0
 20
297.0
 30
0.0
  9
$PLIMMIN
 10
0.0
 20
0.0
  9
$PLIMMAX
 10
12.0
 20
9.0
  9
$UNITMODE
 70
     0
  9
$VISRETAIN
 70
     1
  9
$PLINEGEN
 70
     0
  9
$PSLTSCALE
 70
     1
  9
$TREEDEPTH
 70
  3020
  9
$CMLSTYLE
  2
Standard
  9
$CMLJUST
 70
     0
  9
$CMLSCALE
 40
1.0
  9
$PROXYGRAPHICS
 70
     1
  9
$MEASUREMENT
 70
     0
  9
$CELWEIGHT
370
    -1
  9
$ENDCAPS
280
     0
  9
$JOINSTYLE
280
     0
  9
$LWDISPLAY
290
     0
  9
$INSUNITS
 70
     0
  9
$HYPERLINKBASE
  1

  9
$STYLESHEET
  1

  9
$XEDIT
290
     1
  9
$CEPSNTYPE
380
     0
  9
$PSTYLEMODE
290
     1
  9
$FINGERPRINTGUID
  2
{D9D2B70B-E9BD-4BC0-96CC-06EFCB093237}
  9
$VERSIONGUID
  2
{B5B39B12-FB76-43C8-8BC2-C4F6DB8801A9}
  9
$EXTNAMES
290
     1
  9
$PSVPSCALE
 40
0.0
  9
$OLESTARTUP
290
     0
  0
ENDSEC
  0
SECTION
  2
CLASSES
  0
CLASS
  1
ACDBDICTIONARYWDFLT
  2
AcDbDictionaryWithDefault
  3
AutoCAD 2000
 90
        0
280
     0
281
     0
  0
CLASS
  1
ACDBPLACEHOLDER
  2
AcDbPlaceHolder
  3
AutoCAD 2000
 90
        0
280
     0
281
     0
  0
CLASS
  1
LAYOUT
  2
AcDbLayout
  3
AutoCAD 2000
 90
        0
280
     0
281
     0
  0
ENDSEC
  0
SECTION
  2
TABLES
  0
TABLE
  2
VPORT
  5
8
330
0
100
AcDbSymbolTable
 70
     2
  0
VPORT
  5
266
330
8
100
AcDbSymbolTableRecord
100
AcDbViewportTableRecord
  2
*Active
 70
     0
 10
0.0
 20
0.0
 11
1.0
 21
1.0
 12
114.0411490303633
 22
346.8076043089922
 13
0.0
 23
0.0
 14
1.0
 24
1.0
 15
0.0
 25
0.0
 16
0.0
 26
0.0
 36
1.0
 17
0.0
 27
0.0
 37
0.0
 40
709.7362062099728
 41
1.461725394896719
 42
50.0
 43
0.0
 44
0.0
 50
0.0
 51
0.0
 71
     0
 72
   100
 73
     1
 74
     1
 75
     0
 76
     0
 77
     0
 78
     0
281
     0
 65
     1
110
0.0
120
0.0
130
0.0
111
1.0
121
0.0
131
0.0
112
0.0
122
1.0
132
0.0
 79
     0
146
0.0
  0
ENDTAB
  0
TABLE
  2
LTYPE
  5
5
330
0
100
AcDbSymbolTable
 70
     5
  0
LTYPE
  5
13
330
5
100
AcDbSymbolTableRecord
100
AcDbLinetypeTableRecord
  2
ByBlock
 70
     0
  3

 72
    65
 73
     0
 40
0.0
  0
LTYPE
  5
14
330
5
100
AcDbSymbolTableRecord
100
AcDbLinetypeTableRecord
  2
ByLayer
 70
     0
  3

 72
    65
 73
     0
 40
0.0
  0
LTYPE
  5
15
330
5
100
AcDbSymbolTableRecord
100
AcDbLinetypeTableRecord
  2
CONTINUOUS
 70
     0
  3
Solid line
 72
    65
 73
     0
 40
0.0
  0
LTYPE
  5
22
330
5
100
AcDbSymbolTableRecord
100
AcDbLinetypeTableRecord
  2
HIDDEN
 70
     0
  3
------------------------
 72
    65
 73
     2
 40
12.6
 49
8.4
 74
     0
 49
-4.2
 74
     0
  0
LTYPE
  5
23
330
5
100
AcDbSymbolTableRecord
100
AcDbLinetypeTableRecord
  2
DOT
 70
     0
  3
････････････････････････
 72
    65
 73
     2
 40
8.0
 49
6.0
 74
     0
 49
-2.0
 74
     0
  0
LTYPE
  5
24
330
5
100
AcDbSymbolTableRecord
100
AcDbLinetypeTableRecord
  2
DASHDOT
 70
     0
  3
--･--･--･--･--･--･--･--
 72
    65
 73
     4
 40
50.5
 49
30.0
 74
     0
 49
-9.0
 74
     0
 49
2.5
 74
     0
 49
-9.0
 74
     0
  0
LTYPE
  5
25
330
5
100
AcDbSymbolTableRecord
100
AcDbLinetypeTableRecord
  2
DIVIDE
 70
     0
  3
--･･--･･--･･--･･--･･--
 72
    65
 73
     6
 40
58.0
 49
30.0
 74
     0
 49
-9.0
 74
     0
 49
2.5
 74
     0
 49
-5.0
 74
     0
 49
2.5
 74
     0
 49
-9.0
 74
     0
  0
ENDTAB
  0
TABLE
  2
LAYER
  5
2
330
0
100
AcDbSymbolTable
 70
     2
  0
LAYER
  5
10
330
2
100
AcDbSymbolTableRecord
100
AcDbLayerTableRecord
  2
0
 70
     0
 62
     7
  6
CONTINUOUS
370
    -3
390
F
  0
LAYER
  5
26
330
2
100
AcDbSymbolTableRecord
100
AcDbLayerTableRecord
  2
1
 70
     0
 62
     7
  6
CONTINUOUS
370
    -3
390
F
  0
ENDTAB
  0
TABLE
  2
STYLE
  5
3
330
0
100
AcDbSymbolTable
 70
     2
  0
STYLE
  5
11
330
3
100
AcDbSymbolTableRecord
100
AcDbTextStyleTableRecord
  2
STANDARD
 70
     0
 40
0.0
 41
1.0
 50
0.0
 71
     0
 42
0.2
  3
TXT
  4

  0
STYLE
  5
27
330
3
100
AcDbSymbolTableRecord
100
AcDbTextStyleTableRecord
  2
KANJI
 70
     0
 40
0.0
 41
1.0
 50
0.0
 71
     0
 42
0.2
  3
TXT
  4
BIGFONT
  0
ENDTAB
  0
TABLE
  2
VIEW
  5
6
330
0
100
AcDbSymbolTable
 70
     0
  0
ENDTAB
  0
TABLE
  2
UCS
  5
7
330
0
100
AcDbSymbolTable
 70
     0
  0
ENDTAB
  0
TABLE
  2
APPID
  5
9
330
0
100
AcDbSymbolTable
 70
     1
  0
APPID
  5
12
330
9
100
AcDbSymbolTableRecord
100
AcDbRegAppTableRecord
  2
ACAD
 70
     0
  0
ENDTAB
  0
TABLE
  2
DIMSTYLE
  5
A
330
0
100
AcDbSymbolTable
 70
     1
100
AcDbDimStyleTable
 71
     1
340
245
  0
DIMSTYLE
105
245
330
A
100
AcDbSymbolTableRecord
100
AcDbDimStyleTableRecord
  2
Standard
 70
     0
340
11
  0
ENDTAB
  0
TABLE
  2
BLOCK_RECORD
  5
1
330
0
100
AcDbSymbolTable
 70
     0
  0
BLOCK_RECORD
  5
1E
330
1
100
AcDbSymbolTableRecord
100
AcDbBlockTableRecord
  2
*Model_Space
340
21
  0
BLOCK_RECORD
  5
1A
330
1
100
AcDbSymbolTableRecord
100
AcDbBlockTableRecord
  2
*Paper_Space
340
1D
  0
ENDTAB
  0
ENDSEC
  0
SECTION
  2
BLOCKS
  0
BLOCK
  5
1F
330
1E
100
AcDbEntity
  8
0
100
AcDbBlockBegin
  2
*Model_Space
 70
     0
 10
0.0
 20
0.0
 30
0.0
  3
*Model_Space
  1

  0
ENDBLK
  5
20
330
1E
100
AcDbEntity
  8
0
100
AcDbBlockEnd
  0
BLOCK
  5
1B
330
1A
100
AcDbEntity
 67
     1
  8
0
100
AcDbBlockBegin
  2
*Paper_Space
 70
     0
 10
0.0
 20
0.0
 30
0.0
  3
*Paper_Space
  1

  0
ENDBLK
  5
1C
330
1A
100
AcDbEntity
 67
     1
  8
0
100
AcDbBlockEnd
  0
ENDSEC
  0
SECTION
  2
ENTITIES
  0
ARC
  5
2B
330
1E
100
AcDbEntity
  8
1
  6
Continuous
 62
     7
100
AcDbCircle
 10
210.0
 20
376.0281689999999
 30
0.0
 40
69.02816899999999
100
AcDbArc
 50
178.3630889999999
 51
1.636911
  0
LINE
  5
2C
330
1E
100
AcDbEntity
  8
1
  6
Continuous
 62
     7
100
AcDbLine
 10
282.5
 20
378.0
 30
0.0
 11
137.5
 21
378.0
 31
0.0
  0
LINE
  5
2D
330
1E
100
AcDbEntity
  8
1
  6
Continuous
 62
     7
100
AcDbLine
 10
73.0
 20
414.0
 30
0.0
 11
347.0
 21
414.0
 31
0.0
  0
LINE
  5
2E
330
1E
100
AcDbEntity
  8
1
  6
Continuous
 62
     7
100
AcDbLine
 10
73.0
 20
400.0
 30
0.0
 11
347.0
 21
400.0
 31
0.0
  0
LINE
  5
2F
330
1E
100
AcDbEntity
  8
1
  6
Continuous
 62
     7
100
AcDbLine
 10
73.0
 20
404.421342
 30
0.0
 11
82.57865699999999
 21
414.0
 31
0.0
  0
LINE
  5
30
330
1E
100
AcDbEntity
  8
1
  6
Continuous
 62
     7
100
AcDbLine
 10
82.720795
 20
400.0
 30
0.0
 11
96.72079100000001
 21
414.0
 31
0.0
  0
LINE
  5
31
330
1E
100
AcDbEntity
  8
1
  6
Continuous
 62
     7
100
AcDbLine
 10
96.86293
 20
400.0
 30
0.0
 11
110.8629269999999
 21
414.0
 31
0.0
  0
LINE
  5
32
330
1E
100
AcDbEntity
  8
1
  6
Continuous
 62
     7
100
AcDbLine
 10
111.0050649999999
 20
400.0
 30
0.0
 11
125.005061
 21
414.0
 31
0.0
  0
LINE
  5
33
330
1E
100
AcDbEntity
  8
1
  6
Continuous
 62
     7
100
AcDbLine
 10
125.1471929999999
 20
400.0
 30
0.0
 11
139.147189
 21
414.0
 31
0.0
  0
LINE
  5
34
330
1E
100
AcDbEntity
  8
1
  6
Continuous
 62
     7
100
AcDbLine
 10
139.289328
 20
400.0
 30
0.0
 11
153.2893249999999
 21
414.0
 31
0.0
  0
LINE
  5
35
330
1E
100
AcDbEntity
  8
1
  6
Continuous
 62
     7
100
AcDbLine
 10
153.4314659999999
 20
400.0
 30
0.0
 11
167.431462
 21
414.0
 31
0.0
  0
LINE
  5
36
330
1E
100
AcDbEntity
  8
1
  6
Continuous
 62
     7
100
AcDbLine
 10
167.5735949999999
 20
400.0
 30
0.0
 11
181.5735909999999
 21
414.0
 31
0.0
  0
LINE
  5
37
330
1E
100
AcDbEntity
  8
1
  6
Continuous
 62
     7
100
AcDbLine
 10
181.715729
 20
400.0
 30
0.0
 11
195.715725
 21
414.0
 31
0.0
  0
LINE
  5
38
330
1E
100
AcDbEntity
  8
1
  6
Continuous
 62
     7
100
AcDbLine
 10
195.857866
 20
400.0
 30
0.0
 11
209.857862
 21
414.0
 31
0.0
  0
LINE
  5
39
330
1E
100
AcDbEntity
  8
1
  6
Continuous
 62
     7
100
AcDbLine
 10
210.0
 20
399.999997
 30
0.0
 11
223.999996
 21
413.9999969999999
 31
0.0
  0
LINE
  5
3A
330
1E
100
AcDbEntity
  8
1
  6
Continuous
 62
     7
100
AcDbLine
 10
224.1421319999999
 20
400.0
 30
0.0
 11
238.142128
 21
414.0
 31
0.0
  0
LINE
  5
3B
330
1E
100
AcDbEntity
  8
1
  6
Continuous
 62
     7
100
AcDbLine
 10
238.2842689999999
 20
400.0
 30
0.0
 11
252.284266
 21
414.0
 31
0.0
  0
LINE
  5
3C
330
1E
100
AcDbEntity
  8
1
  6
Continuous
 62
     7
100
AcDbLine
 10
252.4264019999999
 20
400.0
 30
0.0
 11
266.426398
 21
414.0
 31
0.0
  0
LINE
  5
3D
330
1E
100
AcDbEntity
  8
1
  6
Continuous
 62
     7
100
AcDbLine
 10
266.5685349999999
 20
400.0
 30
0.0
 11
280.568531
 21
414.0
 31
0.0
  0
LINE
  5
3E
330
1E
100
AcDbEntity
  8
1
  6
Continuous
 62
     7
100
AcDbLine
 10
280.7106689999999
 20
400.0
 30
0.0
 11
294.710665
 21
414.0
 31
0.0
  0
LINE
  5
3F
330
1E
100
AcDbEntity
  8
1
  6
Continuous
 62
     7
100
AcDbLine
 10
294.8528039999999
 20
400.0
 30
0.0
 11
308.852801
 21
414.0
 31
0.0
  0
LINE
  5
40
330
1E
100
AcDbEntity
  8
1
  6
Continuous
 62
     7
100
AcDbLine
 10
308.9949349999999
 20
400.0
 30
0.0
 11
322.994931
 21
414.0
 31
0.0
  0
LINE
  5
41
330
1E
100
AcDbEntity
  8
1
  6
Continuous
 62
     7
100
AcDbLine
 10
323.137071
 20
400.0
 30
0.0
 11
337.137067
 21
414.0
 31
0.0
  0
LINE
  5
42
330
1E
100
AcDbEntity
  8
1
  6
Continuous
 62
     7
100
AcDbLine
 10
337.279205
 20
400.0
 30
0.0
 11
347.0
 21
409.720798
 31
0.0
  0
ARC
  5
43
330
1E
100
AcDbEntity
  8
1
  6
Continuous
 62
     7
100
AcDbCircle
 10
21.946429
 20
461.0
 30
0.0
 40
126.0535709999999
100
AcDbArc
 50
343.4057099999999
 51
0.0
  0
ARC
  5
44
330
1E
100
AcDbEntity
  8
1
  6
Continuous
 62
     7
100
AcDbCircle
 10
-248.5000009999999
 20
461.0
 30
0.0
 40
396.500001
100
AcDbArc
 50
0.0
 51
12.231007
  0
LINE
  5
45
330
1E
100
AcDbEntity
  8
1
  6
Continuous
 62
     7
100
AcDbLine
 10
135.4999999999999
 20
545.0
 30
0.0
 11
136.3
 21
499.0
 31
0.0
  0
LINE
  5
46
330
1E
100
AcDbEntity
  8
1
  6
Continuous
 62
     7
100
AcDbLine
 10
136.3
 20
499.0
 30
0.0
 11
146.1748659999999
 21
499.0
 31
0.0
  0
LINE
  5
47
330
1E
100
AcDbEntity
  8
1
  6
Continuous
 62
     7
100
AcDbLine
 10
135.4999999999999
 20
545.0
 30
0.0
 11
139.0
 21
545.0
 31
0.0
  0
ARC
  5
48
330
1E
100
AcDbEntity
  8
1
  6
Continuous
 62
     7
100
AcDbCircle
 10
398.0535709999999
 20
461.0
 30
0.0
 40
126.0535709999999
100
AcDbArc
 50
180.0
 51
196.59429
  0
ARC
  5
49
330
1E
100
AcDbEntity
  8
1
  6
Continuous
 62
     7
100
AcDbCircle
 10
668.500001
 20
461.0
 30
0.0
 40
396.500001
100
AcDbArc
 50
167.768993
 51
180.0
  0
LINE
  5
4A
330
1E
100
AcDbEntity
  8
1
  6
Continuous
 62
     7
100
AcDbLine
 10
284.5
 20
545.0
 30
0.0
 11
283.6999999999999
 21
499.0
 31
0.0
  0
LINE
  5
4B
330
1E
100
AcDbEntity
  8
1
  6
Continuous
 62
     7
100
AcDbLine
 10
283.6999999999999
 20
499.0
 30
0.0
 11
273.825134
 21
499.0
 31
0.0
  0
LINE
  5
4C
330
1E
100
AcDbEntity
  8
1
  6
Continuous
 62
     7
100
AcDbLine
 10
284.5
 20
545.0
 30
0.0
 11
281.0
 21
545.0
 31
0.0
  0
LINE
  5
4D
330
1E
100
AcDbEntity
  8
1
  6
Continuous
 62
     7
100
AcDbLine
 10
281.0
 20
545.0
 30
0.0
 11
139.0
 21
545.0
 31
0.0
  0
LINE
  5
4E
330
1E
100
AcDbEntity
  8
1
  6
Continuous
 62
     7
100
AcDbLine
 10
136.108696
 20
510.0
 30
0.0
 11
283.8913039999999
 21
510.0
 31
0.0
  0
LINE
  5
4F
330
1E
100
AcDbEntity
  8
1
  6
Continuous
 62
     7
100
AcDbLine
 10
148.0
 20
461.0
 30
0.0
 11
272.0
 21
461.0000089999999
 31
0.0
  0
LINE
  5
50
330
1E
100
AcDbEntity
  8
1
  6
Continuous
 62
     7
100
AcDbLine
 10
196.5
 20
545.0
 30
0.0
 11
197.541162
 21
539.4471339999999
 31
0.0
  0
ARC
  5
51
330
1E
100
AcDbEntity
  8
1
  6
Continuous
 62
     7
100
AcDbCircle
 10
200.489779
 20
540.0
 30
0.0
 40
3.0
100
AcDbArc
 50
190.6196549999999
 51
270.0
  0
LINE
  5
52
330
1E
100
AcDbEntity
  8
1
  6
Continuous
 62
     7
100
AcDbLine
 10
200.489779
 20
537.0
 30
0.0
 11
219.5102209999999
 21
537.0
 31
0.0
  0
LINE
  5
53
330
1E
100
AcDbEntity
  8
1
  6
Continuous
 62
     7
100
AcDbLine
 10
222.4588379999999
 20
539.4471339999999
 30
0.0
 11
223.4999999999999
 21
545.0
 31
0.0
  0
ARC
  5
54
330
1E
100
AcDbEntity
  8
1
  6
Continuous
 62
     7
100
AcDbCircle
 10
219.5102209999999
 20
540.0
 30
0.0
 40
3.0
100
AcDbArc
 50
270.0
 51
349.380345
  0
ARC
  5
55
330
1E
100
AcDbEntity
  8
1
  6
Continuous
 62
     7
100
AcDbCircle
 10
263.553585
 20
388.999997
 30
0.0
 40
126.053585
100
AcDbArc
 50
163.4057099999999
 51
168.560776
  0
ARC
  5
56
330
1E
100
AcDbEntity
  8
1
  6
Continuous
 62
     7
100
AcDbCircle
 10
156.446415
 20
388.999997
 30
0.0
 40
126.053585
100
AcDbArc
 50
11.439224
 51
16.59428899999999
  0
CIRCLE
  5
57
330
1E
100
AcDbEntity
  8
1
  6
Continuous
 62
     7
100
AcDbCircle
 10
210.0
 20
135.0
 30
0.0
 40
103.0
  0
CIRCLE
  5
58
330
1E
100
AcDbEntity
  8
1
  6
Continuous
 62
     7
100
AcDbCircle
 10
210.0
 20
135.0
 30
0.0
 40
72.5
  0
CIRCLE
  5
59
330
1E
100
AcDbEntity
  8
1
  6
Continuous
 62
     7
100
AcDbCircle
 10
210.0
 20
135.0
 30
0.0
 40
69.0
  0
CIRCLE
  5
5A
330
1E
100
AcDbEntity
  8
1
  6
HIDDEN
 62
     7
100
AcDbCircle
 10
210.0
 20
360.0
 30
0.0
 40
15.0
  0
LINE
  5
5B
330
1E
100
AcDbEntity
  8
1
  6
HIDDEN
 62
     7
100
AcDbLine
 10
228.0
 20
315.1032929999999
 30
0.0
 11
228.0
 21
378.0
 31
0.0
  0
LINE
  5
5C
330
1E
100
AcDbEntity
  8
1
  6
HIDDEN
 62
     7
100
AcDbLine
 10
192.0
 20
315.1032929999999
 30
0.0
 11
192.0
 21
378.0
 31
0.0
  0
ARC
  5
5D
330
1E
100
AcDbEntity
  8
1
  6
HIDDEN
 62
     7
100
AcDbCircle
 10
210.0
 20
376.0305339999999
 30
0.0
 40
63.530534
100
AcDbArc
 50
286.458951
 51
1.776471999999999
  0
ARC
  5
5E
330
1E
100
AcDbEntity
  8
1
  6
HIDDEN
 62
     7
100
AcDbCircle
 10
210.0
 20
376.0305339999999
 30
0.0
 40
63.530534
100
AcDbArc
 50
178.223528
 51
253.5410489999999
  0
ARC
  5
5F
330
1E
100
AcDbEntity
  8
1
  6
HIDDEN
 62
     7
100
AcDbCircle
 10
210.0
 20
389.430638
 30
0.0
 40
64.520612
100
AcDbArc
 50
253.8006259999999
 51
286.199374
  0
ARC
  5
60
330
1E
100
AcDbEntity
  8
1
  6
HIDDEN
 62
     7
100
AcDbCircle
 10
210.0
 20
135.0
 30
0.0
 40
63.5
100
AcDbArc
 50
106.46709
 51
73.53291
  0
LINE
  5
61
330
1E
100
AcDbEntity
  8
1
  6
HIDDEN
 62
     7
100
AcDbLine
 10
192.0
 20
195.895402
 30
0.0
 11
192.0
 21
116.990731
 31
0.0
  0
ARC
  5
62
330
1E
100
AcDbEntity
  8
1
  6
HIDDEN
 62
     7
100
AcDbCircle
 10
197.0
 20
116.990731
 30
0.0
 40
5.0
100
AcDbArc
 50
180.0
 51
270.0
  0
LINE
  5
63
330
1E
100
AcDbEntity
  8
1
  6
HIDDEN
 62
     7
100
AcDbLine
 10
197.0
 20
111.990731
 30
0.0
 11
223.0
 21
111.990731
 31
0.0
  0
LINE
  5
64
330
1E
100
AcDbEntity
  8
1
  6
HIDDEN
 62
     7
100
AcDbLine
 10
228.0
 20
116.990731
 30
0.0
 11
228.0
 21
195.895402
 31
0.0
  0
ARC
  5
65
330
1E
100
AcDbEntity
  8
1
  6
HIDDEN
 62
     7
100
AcDbCircle
 10
223.0
 20
116.990731
 30
0.0
 40
5.0
100
AcDbArc
 50
270.0
 51
0.0
  0
CIRCLE
  5
66
330
1E
100
AcDbEntity
  8
1
  6
Continuous
 62
     7
100
AcDbCircle
 10
210.0
 20
135.0
 30
0.0
 40
76.0
  0
ARC
  5
67
330
1E
100
AcDbEntity
  8
1
  6
Continuous
 62
     7
100
AcDbCircle
 10
113.591847
 20
130.7907289999999
 30
0.0
 40
1.5
100
AcDbArc
 50
92.50000299999999
 51
272.499998
  0
ARC
  5
68
330
1E
100
AcDbEntity
  8
1
  6
Continuous
 62
     7
100
AcDbCircle
 10
127.5785219999999
 20
131.4014009999999
 30
0.0
 40
1.5
100
AcDbArc
 50
272.5
 51
92.50000099999999
  0
LINE
  5
69
330
1E
100
AcDbEntity
  8
1
  6
Continuous
 62
     7
100
AcDbLine
 10
113.5264179999999
 20
132.289301
 30
0.0
 11
127.5130929999999
 21
132.8999729999999
 31
0.0
  0
LINE
  5
6A
330
1E
100
AcDbEntity
  8
1
  6
Continuous
 62
     7
100
AcDbLine
 10
113.6572759999999
 20
129.292157
 30
0.0
 11
127.643951
 21
129.9028279999999
 31
0.0
  0
ARC
  5
6B
330
1E
100
AcDbEntity
  8
1
  6
Continuous
 62
     7
100
AcDbCircle
 10
114.325571
 20
122.404222
 30
0.0
 40
1.5
100
AcDbArc
 50
97.50000300000001
 51
277.499998
  0
ARC
  5
6C
330
1E
100
AcDbEntity
  8
1
  6
Continuous
 62
     7
100
AcDbCircle
 10
128.205799
 20
124.2315889999999
 30
0.0
 40
1.5
100
AcDbArc
 50
277.4999999999999
 51
97.50000100000001
  0
LINE
  5
6D
330
1E
100
AcDbEntity
  8
1
  6
Continuous
 62
     7
100
AcDbLine
 10
114.129782
 20
123.8913899999999
 30
0.0
 11
128.01001
 21
125.7187559999999
 31
0.0
  0
LINE
  5
6E
330
1E
100
AcDbEntity
  8
1
  6
Continuous
 62
     7
100
AcDbLine
 10
114.52136
 20
120.917055
 30
0.0
 11
128.4015879999999
 21
122.7444219999999
 31
0.0
  0
ARC
  5
6F
330
1E
100
AcDbEntity
  8
1
  6
Continuous
 62
     7
100
AcDbCircle
 10
115.787436
 20
114.1135769999999
 30
0.0
 40
1.5
100
AcDbArc
 50
102.5000029999999
 51
282.499998
  0
ARC
  5
70
330
1E
100
AcDbEntity
  8
1
  6
Continuous
 62
     7
100
AcDbCircle
 10
129.4555789999999
 20
117.143732
 30
0.0
 40
1.5
100
AcDbArc
 50
282.5
 51
102.500001
  0
LINE
  5
71
330
1E
100
AcDbEntity
  8
1
  6
Continuous
 62
     7
100
AcDbLine
 10
115.462776
 20
115.5780209999999
 30
0.0
 11
129.13092
 21
118.6081759999999
 31
0.0
  0
LINE
  5
72
330
1E
100
AcDbEntity
  8
1
  6
Continuous
 62
     7
100
AcDbLine
 10
116.1120949999999
 20
112.649133
 30
0.0
 11
129.7802389999999
 21
115.6792879999999
 31
0.0
  0
ARC
  5
73
330
1E
100
AcDbEntity
  8
1
  6
Continuous
 62
     7
100
AcDbCircle
 10
117.9663139999999
 20
105.98189
 30
0.0
 40
1.5
100
AcDbArc
 50
107.5000029999999
 51
287.4999979999999
  0
ARC
  5
74
330
1E
100
AcDbEntity
  8
1
  6
Continuous
 62
     7
100
AcDbCircle
 10
131.318352
 20
110.191771
 30
0.0
 40
1.5
100
AcDbArc
 50
287.5
 51
107.5000009999999
  0
LINE
  5
75
330
1E
100
AcDbEntity
  8
1
  6
Continuous
 62
     7
100
AcDbLine
 10
117.515256
 20
107.412466
 30
0.0
 11
130.8672929999999
 21
111.6223469999999
 31
0.0
  0
LINE
  5
76
330
1E
100
AcDbEntity
  8
1
  6
Continuous
 62
     7
100
AcDbLine
 10
118.4173729999999
 20
104.551315
 30
0.0
 11
131.76941
 21
108.761196
 31
0.0
  0
ARC
  5
77
330
1E
100
AcDbEntity
  8
1
  6
Continuous
 62
     7
100
AcDbCircle
 10
120.845625
 20
98.071049
 30
0.0
 40
1.5
100
AcDbArc
 50
112.500003
 51
292.4999979999999
  0
ARC
  5
78
330
1E
100
AcDbEntity
  8
1
  6
Continuous
 62
     7
100
AcDbCircle
 10
133.7799389999999
 20
103.428617
 30
0.0
 40
1.5
100
AcDbArc
 50
292.5
 51
112.5000009999999
  0
LINE
  5
79
330
1E
100
AcDbEntity
  8
1
  6
Continuous
 62
     7
100
AcDbLine
 10
120.2716
 20
99.456868
 30
0.0
 11
133.2059129999999
 21
104.8144359999999
 31
0.0
  0
LINE
  5
7A
330
1E
100
AcDbEntity
  8
1
  6
Continuous
 62
     7
100
AcDbLine
 10
121.41965
 20
96.68522900000001
 30
0.0
 11
134.3539639999999
 21
102.0427969999999
 31
0.0
  0
ARC
  5
7B
330
1E
100
AcDbEntity
  8
1
  6
Continuous
 62
     7
100
AcDbCircle
 10
124.403455
 20
90.441259
 30
0.0
 40
1.5
100
AcDbArc
 50
117.500003
 51
297.499998
  0
ARC
  5
7C
330
1E
100
AcDbEntity
  8
1
  6
Continuous
 62
     7
100
AcDbCircle
 10
136.8216059999999
 20
96.905739
 30
0.0
 40
1.5
100
AcDbArc
 50
297.5
 51
117.5000009999999
  0
LINE
  5
7D
330
1E
100
AcDbEntity
  8
1
  6
Continuous
 62
     7
100
AcDbLine
 10
123.710832
 20
91.771775
 30
0.0
 11
136.128983
 21
98.23625600000001
 31
0.0
  0
LINE
  5
7E
330
1E
100
AcDbEntity
  8
1
  6
Continuous
 62
     7
100
AcDbLine
 10
125.0960779999999
 20
89.11074199999999
 30
0.0
 11
137.514229
 21
95.575223
 31
0.0
  0
ARC
  5
7F
330
1E
100
AcDbEntity
  8
1
  6
Continuous
 62
     7
100
AcDbCircle
 10
128.612726
 20
83.150588
 30
0.0
 40
1.5
100
AcDbArc
 50
122.500003
 51
302.499998
  0
ARC
  5
80
330
1E
100
AcDbEntity
  8
1
  6
Continuous
 62
     7
100
AcDbCircle
 10
140.420206
 20
90.672782
 30
0.0
 40
1.5
100
AcDbArc
 50
302.4999999999999
 51
122.500001
  0
LINE
  5
81
330
1E
100
AcDbEntity
  8
1
  6
Continuous
 62
     7
100
AcDbLine
 10
127.806776
 20
84.41567499999999
 30
0.0
 11
139.614256
 21
91.93786899999999
 31
0.0
  0
LINE
  5
82
330
1E
100
AcDbEntity
  8
1
  6
Continuous
 62
     7
100
AcDbLine
 10
129.418675
 20
81.885501
 30
0.0
 11
141.226155
 21
89.407695
 31
0.0
  0
ARC
  5
83
330
1E
100
AcDbEntity
  8
1
  6
Continuous
 62
     7
100
AcDbCircle
 10
133.441404
 20
76.25452199999999
 30
0.0
 40
1.5
100
AcDbArc
 50
127.500003
 51
307.499998
  0
ARC
  5
84
330
1E
100
AcDbEntity
  8
1
  6
Continuous
 62
     7
100
AcDbCircle
 10
144.5483499999999
 20
84.77718199999999
 30
0.0
 40
1.5
100
AcDbArc
 50
307.5
 51
127.500001
  0
LINE
  5
85
330
1E
100
AcDbEntity
  8
1
  6
Continuous
 62
     7
100
AcDbLine
 10
132.528261
 20
77.444552
 30
0.0
 11
143.6352079999999
 21
85.96721200000001
 31
0.0
  0
LINE
  5
86
330
1E
100
AcDbEntity
  8
1
  6
Continuous
 62
     7
100
AcDbLine
 10
134.354546
 20
75.064492
 30
0.0
 11
145.461492
 21
83.587152
 31
0.0
  0
ARC
  5
87
330
1E
100
AcDbEntity
  8
1
  6
Continuous
 62
     7
100
AcDbCircle
 10
138.852737
 20
69.805545
 30
0.0
 40
1.5
100
AcDbArc
 50
132.5000029999999
 51
312.499998
  0
ARC
  5
88
330
1E
100
AcDbEntity
  8
1
  6
Continuous
 62
     7
100
AcDbCircle
 10
149.17462
 20
79.263808
 30
0.0
 40
1.5
100
AcDbArc
 50
312.5
 51
132.5000009999999
  0
LINE
  5
89
330
1E
100
AcDbEntity
  8
1
  6
Continuous
 62
     7
100
AcDbLine
 10
137.8393519999999
 20
70.911461
 30
0.0
 11
148.161234
 21
80.36972400000001
 31
0.0
  0
LINE
  5
8A
330
1E
100
AcDbEntity
  8
1
  6
Continuous
 62
     7
100
AcDbLine
 10
139.8661219999999
 20
68.699629
 30
0.0
 11
150.188005
 21
78.15789200000001
 31
0.0
  0
ARC
  5
8B
330
1E
100
AcDbEntity
  8
1
  6
Continuous
 62
     7
100
AcDbCircle
 10
144.805545
 20
63.85273699999999
 30
0.0
 40
1.5
100
AcDbArc
 50
137.500003
 51
317.4999979999999
  0
ARC
  5
8C
330
1E
100
AcDbEntity
  8
1
  6
Continuous
 62
     7
100
AcDbCircle
 10
154.263808
 20
74.17461999999999
 30
0.0
 40
1.5
100
AcDbArc
 50
317.5
 51
137.5000009999999
  0
LINE
  5
8D
330
1E
100
AcDbEntity
  8
1
  6
Continuous
 62
     7
100
AcDbLine
 10
143.699629
 20
64.866122
 30
0.0
 11
153.157892
 21
75.18800500000001
 31
0.0
  0
LINE
  5
8E
330
1E
100
AcDbEntity
  8
1
  6
Continuous
 62
     7
100
AcDbLine
 10
145.911461
 20
62.83935200000001
 30
0.0
 11
155.3697239999999
 21
73.16123399999999
 31
0.0
  0
ARC
  5
8F
330
1E
100
AcDbEntity
  8
1
  6
Continuous
 62
     7
100
AcDbCircle
 10
151.254523
 20
58.441403
 30
0.0
 40
1.5
100
AcDbArc
 50
142.5000029999999
 51
322.499998
  0
ARC
  5
90
330
1E
100
AcDbEntity
  8
1
  6
Continuous
 62
     7
100
AcDbCircle
 10
159.777183
 20
69.548349
 30
0.0
 40
1.5
100
AcDbArc
 50
322.5
 51
142.5000009999999
  0
LINE
  5
91
330
1E
100
AcDbEntity
  8
1
  6
Continuous
 62
     7
100
AcDbLine
 10
150.0644929999999
 20
59.35454499999999
 30
0.0
 11
158.587153
 21
70.46149200000001
 31
0.0
  0
LINE
  5
92
330
1E
100
AcDbEntity
  8
1
  6
Continuous
 62
     7
100
AcDbLine
 10
152.444553
 20
57.528261
 30
0.0
 11
160.9672129999999
 21
68.63520699999999
 31
0.0
  0
ARC
  5
93
330
1E
100
AcDbEntity
  8
1
  6
Continuous
 62
     7
100
AcDbCircle
 10
158.1505879999999
 20
53.612726
 30
0.0
 40
1.5
100
AcDbArc
 50
147.5000029999999
 51
327.4999979999999
  0
ARC
  5
94
330
1E
100
AcDbEntity
  8
1
  6
Continuous
 62
     7
100
AcDbCircle
 10
165.672782
 20
65.420206
 30
0.0
 40
1.5
100
AcDbArc
 50
327.4999999999999
 51
147.500001
  0
LINE
  5
95
330
1E
100
AcDbEntity
  8
1
  6
Continuous
 62
     7
100
AcDbLine
 10
156.885501
 20
54.418675
 30
0.0
 11
164.4076949999999
 21
66.22615500000001
 31
0.0
  0
LINE
  5
96
330
1E
100
AcDbEntity
  8
1
  6
Continuous
 62
     7
100
AcDbLine
 10
159.4156749999999
 20
52.806776
 30
0.0
 11
166.937869
 21
64.61425600000001
 31
0.0
  0
ARC
  5
97
330
1E
100
AcDbEntity
  8
1
  6
Continuous
 62
     7
100
AcDbCircle
 10
165.4412589999999
 20
49.403455
 30
0.0
 40
1.5
100
AcDbArc
 50
152.5000029999999
 51
332.499998
  0
ARC
  5
98
330
1E
100
AcDbEntity
  8
1
  6
Continuous
 62
     7
100
AcDbCircle
 10
171.9057389999999
 20
61.821606
 30
0.0
 40
1.5
100
AcDbArc
 50
332.5
 51
152.500001
  0
LINE
  5
99
330
1E
100
AcDbEntity
  8
1
  6
Continuous
 62
     7
100
AcDbLine
 10
164.1107429999999
 20
50.09607800000001
 30
0.0
 11
170.5752229999999
 21
62.514229
 31
0.0
  0
LINE
  5
9A
330
1E
100
AcDbEntity
  8
1
  6
Continuous
 62
     7
100
AcDbLine
 10
166.7717749999999
 20
48.71083200000001
 30
0.0
 11
173.236256
 21
61.128983
 31
0.0
  0
ARC
  5
9B
330
1E
100
AcDbEntity
  8
1
  6
Continuous
 62
     7
100
AcDbCircle
 10
173.071051
 20
45.84562499999999
 30
0.0
 40
1.5
100
AcDbArc
 50
157.5000029999999
 51
337.499998
  0
ARC
  5
9C
330
1E
100
AcDbEntity
  8
1
  6
Continuous
 62
     7
100
AcDbCircle
 10
178.4286189999999
 20
58.77993899999999
 30
0.0
 40
1.5
100
AcDbArc
 50
337.5
 51
157.500001
  0
LINE
  5
9D
330
1E
100
AcDbEntity
  8
1
  6
Continuous
 62
     7
100
AcDbLine
 10
171.685232
 20
46.41964999999999
 30
0.0
 11
177.0428
 21
59.35396400000001
 31
0.0
  0
LINE
  5
9E
330
1E
100
AcDbEntity
  8
1
  6
Continuous
 62
     7
100
AcDbLine
 10
174.45687
 20
45.2716
 30
0.0
 11
179.814438
 21
58.205913
 31
0.0
  0
ARC
  5
9F
330
1E
100
AcDbEntity
  8
1
  6
Continuous
 62
     7
100
AcDbCircle
 10
180.9818899999999
 20
42.966314
 30
0.0
 40
1.5
100
AcDbArc
 50
162.5000029999999
 51
342.4999979999999
  0
ARC
  5
A0
330
1E
100
AcDbEntity
  8
1
  6
Continuous
 62
     7
100
AcDbCircle
 10
185.1917719999999
 20
56.31835200000001
 30
0.0
 40
1.5
100
AcDbArc
 50
342.5
 51
162.5000009999999
  0
LINE
  5
A1
330
1E
100
AcDbEntity
  8
1
  6
Continuous
 62
     7
100
AcDbLine
 10
179.5513149999999
 20
43.417373
 30
0.0
 11
183.7611959999999
 21
56.76941
 31
0.0
  0
LINE
  5
A2
330
1E
100
AcDbEntity
  8
1
  6
Continuous
 62
     7
100
AcDbLine
 10
182.412466
 20
42.51525599999999
 30
0.0
 11
186.6223469999999
 21
55.867293
 31
0.0
  0
ARC
  5
A3
330
1E
100
AcDbEntity
  8
1
  6
Continuous
 62
     7
100
AcDbCircle
 10
189.1135769999999
 20
40.78743499999999
 30
0.0
 40
1.5
100
AcDbArc
 50
167.5000029999999
 51
347.499998
  0
ARC
  5
A4
330
1E
100
AcDbEntity
  8
1
  6
Continuous
 62
     7
100
AcDbCircle
 10
192.143732
 20
54.455579
 30
0.0
 40
1.5
100
AcDbArc
 50
347.5
 51
167.5000009999999
  0
LINE
  5
A5
330
1E
100
AcDbEntity
  8
1
  6
Continuous
 62
     7
100
AcDbLine
 10
187.649133
 20
41.112095
 30
0.0
 11
190.6792879999999
 21
54.780239
 31
0.0
  0
LINE
  5
A6
330
1E
100
AcDbEntity
  8
1
  6
Continuous
 62
     7
100
AcDbLine
 10
190.5780209999999
 20
40.46277599999999
 30
0.0
 11
193.608176
 21
54.13091999999999
 31
0.0
  0
ARC
  5
A7
330
1E
100
AcDbEntity
  8
1
  6
Continuous
 62
     7
100
AcDbCircle
 10
197.404223
 20
39.325571
 30
0.0
 40
1.5
100
AcDbArc
 50
172.5000029999999
 51
352.499998
  0
ARC
  5
A8
330
1E
100
AcDbEntity
  8
1
  6
Continuous
 62
     7
100
AcDbCircle
 10
199.231589
 20
53.205799
 30
0.0
 40
1.5
100
AcDbArc
 50
352.4999999999999
 51
172.500001
  0
LINE
  5
A9
330
1E
100
AcDbEntity
  8
1
  6
Continuous
 62
     7
100
AcDbLine
 10
195.9170549999999
 20
39.52135999999999
 30
0.0
 11
197.7444219999999
 21
53.40158800000001
 31
0.0
  0
LINE
  5
AA
330
1E
100
AcDbEntity
  8
1
  6
Continuous
 62
     7
100
AcDbLine
 10
198.89139
 20
39.12978199999999
 30
0.0
 11
200.718756
 21
53.01001
 31
0.0
  0
ARC
  5
AB
330
1E
100
AcDbEntity
  8
1
  6
Continuous
 62
     7
100
AcDbCircle
 10
205.790729
 20
38.59184699999999
 30
0.0
 40
1.5
100
AcDbArc
 50
177.5000029999999
 51
357.499998
  0
ARC
  5
AC
330
1E
100
AcDbEntity
  8
1
  6
Continuous
 62
     7
100
AcDbCircle
 10
206.401401
 20
52.578522
 30
0.0
 40
1.5
100
AcDbArc
 50
357.5
 51
177.500001
  0
LINE
  5
AD
330
1E
100
AcDbEntity
  8
1
  6
Continuous
 62
     7
100
AcDbLine
 10
204.2921569999999
 20
38.657276
 30
0.0
 11
204.9028279999999
 21
52.643951
 31
0.0
  0
LINE
  5
AE
330
1E
100
AcDbEntity
  8
1
  6
Continuous
 62
     7
100
AcDbLine
 10
207.2893019999999
 20
38.526418
 30
0.0
 11
207.899973
 21
52.513093
 31
0.0
  0
ARC
  5
AF
330
1E
100
AcDbEntity
  8
1
  6
Continuous
 62
     7
100
AcDbCircle
 10
214.209271
 20
38.59184699999999
 30
0.0
 40
1.5
100
AcDbArc
 50
182.5000029999999
 51
2.499998
  0
ARC
  5
B0
330
1E
100
AcDbEntity
  8
1
  6
Continuous
 62
     7
100
AcDbCircle
 10
213.598599
 20
52.578522
 30
0.0
 40
1.5
100
AcDbArc
 50
2.5
 51
182.500001
  0
LINE
  5
B1
330
1E
100
AcDbEntity
  8
1
  6
Continuous
 62
     7
100
AcDbLine
 10
212.710699
 20
38.526418
 30
0.0
 11
212.100027
 21
52.513093
 31
0.0
  0
LINE
  5
B2
330
1E
100
AcDbEntity
  8
1
  6
Continuous
 62
     7
100
AcDbLine
 10
215.707843
 20
38.657276
 30
0.0
 11
215.097172
 21
52.643951
 31
0.0
  0
ARC
  5
B3
330
1E
100
AcDbEntity
  8
1
  6
Continuous
 62
     7
100
AcDbCircle
 10
222.5957779999999
 20
39.325571
 30
0.0
 40
1.5
100
AcDbArc
 50
187.5000029999999
 51
7.499997999999999
  0
ARC
  5
B4
330
1E
100
AcDbEntity
  8
1
  6
Continuous
 62
     7
100
AcDbCircle
 10
220.7684109999999
 20
53.205799
 30
0.0
 40
1.5
100
AcDbArc
 50
7.499999999999999
 51
187.5000009999999
  0
LINE
  5
B5
330
1E
100
AcDbEntity
  8
1
  6
Continuous
 62
     7
100
AcDbLine
 10
221.10861
 20
39.12978199999999
 30
0.0
 11
219.281243
 21
53.01001
 31
0.0
  0
LINE
  5
B6
330
1E
100
AcDbEntity
  8
1
  6
Continuous
 62
     7
100
AcDbLine
 10
224.082945
 20
39.52135999999999
 30
0.0
 11
222.2555779999999
 21
53.40158800000001
 31
0.0
  0
ARC
  5
B7
330
1E
100
AcDbEntity
  8
1
  6
Continuous
 62
     7
100
AcDbCircle
 10
230.886423
 20
40.78743499999999
 30
0.0
 40
1.5
100
AcDbArc
 50
192.5000029999999
 51
12.499998
  0
ARC
  5
B8
330
1E
100
AcDbEntity
  8
1
  6
Continuous
 62
     7
100
AcDbCircle
 10
227.856268
 20
54.455579
 30
0.0
 40
1.5
100
AcDbArc
 50
12.5
 51
192.5000009999999
  0
LINE
  5
B9
330
1E
100
AcDbEntity
  8
1
  6
Continuous
 62
     7
100
AcDbLine
 10
229.421979
 20
40.46277599999999
 30
0.0
 11
226.391824
 21
54.13091999999999
 31
0.0
  0
LINE
  5
BA
330
1E
100
AcDbEntity
  8
1
  6
Continuous
 62
     7
100
AcDbLine
 10
232.3508669999999
 20
41.112095
 30
0.0
 11
229.320712
 21
54.780239
 31
0.0
  0
ARC
  5
BB
330
1E
100
AcDbEntity
  8
1
  6
Continuous
 62
     7
100
AcDbCircle
 10
239.0181099999999
 20
42.966314
 30
0.0
 40
1.5
100
AcDbArc
 50
197.5000029999999
 51
17.499998
  0
ARC
  5
BC
330
1E
100
AcDbEntity
  8
1
  6
Continuous
 62
     7
100
AcDbCircle
 10
234.8082279999999
 20
56.31835099999999
 30
0.0
 40
1.5
100
AcDbArc
 50
17.5
 51
197.500001
  0
LINE
  5
BD
330
1E
100
AcDbEntity
  8
1
  6
Continuous
 62
     7
100
AcDbLine
 10
237.5875339999999
 20
42.51525599999999
 30
0.0
 11
233.3776529999999
 21
55.867293
 31
0.0
  0
LINE
  5
BE
330
1E
100
AcDbEntity
  8
1
  6
Continuous
 62
     7
100
AcDbLine
 10
240.448685
 20
43.417373
 30
0.0
 11
236.238804
 21
56.76941
 31
0.0
  0
ARC
  5
BF
330
1E
100
AcDbEntity
  8
1
  6
Continuous
 62
     7
100
AcDbCircle
 10
246.9289509999999
 20
45.84562499999999
 30
0.0
 40
1.5
100
AcDbArc
 50
202.500003
 51
22.499998
  0
ARC
  5
C0
330
1E
100
AcDbEntity
  8
1
  6
Continuous
 62
     7
100
AcDbCircle
 10
241.571383
 20
58.779938
 30
0.0
 40
1.5
100
AcDbArc
 50
22.5
 51
202.5000009999999
  0
LINE
  5
C1
330
1E
100
AcDbEntity
  8
1
  6
Continuous
 62
     7
100
AcDbLine
 10
245.5431319999999
 20
45.2716
 30
0.0
 11
240.1855639999999
 21
58.205913
 31
0.0
  0
LINE
  5
C2
330
1E
100
AcDbEntity
  8
1
  6
Continuous
 62
     7
100
AcDbLine
 10
248.314771
 20
46.41964999999999
 30
0.0
 11
242.957202
 21
59.35396400000001
 31
0.0
  0
ARC
  5
C3
330
1E
100
AcDbEntity
  8
1
  6
Continuous
 62
     7
100
AcDbCircle
 10
254.558741
 20
49.403455
 30
0.0
 40
1.5
100
AcDbArc
 50
207.5000029999999
 51
27.499998
  0
ARC
  5
C4
330
1E
100
AcDbEntity
  8
1
  6
Continuous
 62
     7
100
AcDbCircle
 10
248.094261
 20
61.821606
 30
0.0
 40
1.5
100
AcDbArc
 50
27.5
 51
207.500001
  0
LINE
  5
C5
330
1E
100
AcDbEntity
  8
1
  6
Continuous
 62
     7
100
AcDbLine
 10
253.228225
 20
48.71083200000001
 30
0.0
 11
246.763744
 21
61.128983
 31
0.0
  0
LINE
  5
C6
330
1E
100
AcDbEntity
  8
1
  6
Continuous
 62
     7
100
AcDbLine
 10
255.8892569999999
 20
50.09607800000001
 30
0.0
 11
249.424777
 21
62.514229
 31
0.0
  0
ARC
  5
C7
330
1E
100
AcDbEntity
  8
1
  6
Continuous
 62
     7
100
AcDbCircle
 10
261.849412
 20
53.612726
 30
0.0
 40
1.5
100
AcDbArc
 50
212.5000029999999
 51
32.49999799999999
  0
ARC
  5
C8
330
1E
100
AcDbEntity
  8
1
  6
Continuous
 62
     7
100
AcDbCircle
 10
254.327218
 20
65.420206
 30
0.0
 40
1.5
100
AcDbArc
 50
32.5
 51
212.5000009999999
  0
LINE
  5
C9
330
1E
100
AcDbEntity
  8
1
  6
Continuous
 62
     7
100
AcDbLine
 10
260.5843249999999
 20
52.806776
 30
0.0
 11
253.0621309999999
 21
64.61425600000001
 31
0.0
  0
LINE
  5
CA
330
1E
100
AcDbEntity
  8
1
  6
Continuous
 62
     7
100
AcDbLine
 10
263.114499
 20
54.418675
 30
0.0
 11
255.592305
 21
66.22615500000001
 31
0.0
  0
ARC
  5
CB
330
1E
100
AcDbEntity
  8
1
  6
Continuous
 62
     7
100
AcDbCircle
 10
268.7454779999999
 20
58.441403
 30
0.0
 40
1.5
100
AcDbArc
 50
217.500003
 51
37.49999799999999
  0
ARC
  5
CC
330
1E
100
AcDbEntity
  8
1
  6
Continuous
 62
     7
100
AcDbCircle
 10
260.222818
 20
69.54835
 30
0.0
 40
1.5
100
AcDbArc
 50
37.5
 51
217.500001
  0
LINE
  5
CD
330
1E
100
AcDbEntity
  8
1
  6
Continuous
 62
     7
100
AcDbLine
 10
267.555448
 20
57.528261
 30
0.0
 11
259.0327879999999
 21
68.63520799999999
 31
0.0
  0
LINE
  5
CE
330
1E
100
AcDbEntity
  8
1
  6
Continuous
 62
     7
100
AcDbLine
 10
269.935508
 20
59.35454599999999
 30
0.0
 11
261.412848
 21
70.46149200000001
 31
0.0
  0
ARC
  5
CF
330
1E
100
AcDbEntity
  8
1
  6
Continuous
 62
     7
100
AcDbCircle
 10
275.194455
 20
63.85273699999999
 30
0.0
 40
1.5
100
AcDbArc
 50
222.5000029999999
 51
42.499998
  0
ARC
  5
D0
330
1E
100
AcDbEntity
  8
1
  6
Continuous
 62
     7
100
AcDbCircle
 10
265.736192
 20
74.17461999999999
 30
0.0
 40
1.5
100
AcDbArc
 50
42.5
 51
222.500001
  0
LINE
  5
D1
330
1E
100
AcDbEntity
  8
1
  6
Continuous
 62
     7
100
AcDbLine
 10
274.088539
 20
62.83935200000001
 30
0.0
 11
264.6302759999999
 21
73.16123399999999
 31
0.0
  0
LINE
  5
D2
330
1E
100
AcDbEntity
  8
1
  6
Continuous
 62
     7
100
AcDbLine
 10
276.300371
 20
64.866122
 30
0.0
 11
266.8421079999999
 21
75.18800500000001
 31
0.0
  0
ARC
  5
D3
330
1E
100
AcDbEntity
  8
1
  6
Continuous
 62
     7
100
AcDbCircle
 10
281.147263
 20
69.805545
 30
0.0
 40
1.5
100
AcDbArc
 50
227.500003
 51
47.499998
  0
ARC
  5
D4
330
1E
100
AcDbEntity
  8
1
  6
Continuous
 62
     7
100
AcDbCircle
 10
270.82538
 20
79.263808
 30
0.0
 40
1.5
100
AcDbArc
 50
47.5
 51
227.5000009999999
  0
LINE
  5
D5
330
1E
100
AcDbEntity
  8
1
  6
Continuous
 62
     7
100
AcDbLine
 10
280.133878
 20
68.699629
 30
0.0
 11
269.811995
 21
78.15789200000001
 31
0.0
  0
LINE
  5
D6
330
1E
100
AcDbEntity
  8
1
  6
Continuous
 62
     7
100
AcDbLine
 10
282.1606479999999
 20
70.911461
 30
0.0
 11
271.838766
 21
80.36972400000001
 31
0.0
  0
ARC
  5
D7
330
1E
100
AcDbEntity
  8
1
  6
Continuous
 62
     7
100
AcDbCircle
 10
286.558597
 20
76.25452299999999
 30
0.0
 40
1.5
100
AcDbArc
 50
232.500003
 51
52.499998
  0
ARC
  5
D8
330
1E
100
AcDbEntity
  8
1
  6
Continuous
 62
     7
100
AcDbCircle
 10
275.4516499999999
 20
84.77718299999999
 30
0.0
 40
1.5
100
AcDbArc
 50
52.5
 51
232.5000009999999
  0
LINE
  5
D9
330
1E
100
AcDbEntity
  8
1
  6
Continuous
 62
     7
100
AcDbLine
 10
285.6454549999999
 20
75.06449299999999
 30
0.0
 11
274.538508
 21
83.587153
 31
0.0
  0
LINE
  5
DA
330
1E
100
AcDbEntity
  8
1
  6
Continuous
 62
     7
100
AcDbLine
 10
287.471739
 20
77.444553
 30
0.0
 11
276.364793
 21
85.967213
 31
0.0
  0
ARC
  5
DB
330
1E
100
AcDbEntity
  8
1
  6
Continuous
 62
     7
100
AcDbCircle
 10
291.387274
 20
83.150588
 30
0.0
 40
1.5
100
AcDbArc
 50
237.500003
 51
57.49999800000001
  0
ARC
  5
DC
330
1E
100
AcDbEntity
  8
1
  6
Continuous
 62
     7
100
AcDbCircle
 10
279.5797939999999
 20
90.672782
 30
0.0
 40
1.5
100
AcDbArc
 50
57.5
 51
237.5000009999999
  0
LINE
  5
DD
330
1E
100
AcDbEntity
  8
1
  6
Continuous
 62
     7
100
AcDbLine
 10
290.5813249999999
 20
81.885501
 30
0.0
 11
278.7738449999999
 21
89.407695
 31
0.0
  0
LINE
  5
DE
330
1E
100
AcDbEntity
  8
1
  6
Continuous
 62
     7
100
AcDbLine
 10
292.193224
 20
84.41567499999999
 30
0.0
 11
280.3857439999999
 21
91.93786899999999
 31
0.0
  0
ARC
  5
DF
330
1E
100
AcDbEntity
  8
1
  6
Continuous
 62
     7
100
AcDbCircle
 10
295.5965449999999
 20
90.441259
 30
0.0
 40
1.5
100
AcDbArc
 50
242.500003
 51
62.499998
  0
ARC
  5
E0
330
1E
100
AcDbEntity
  8
1
  6
Continuous
 62
     7
100
AcDbCircle
 10
283.1783939999999
 20
96.905739
 30
0.0
 40
1.5
100
AcDbArc
 50
62.5
 51
242.5000009999999
  0
LINE
  5
E1
330
1E
100
AcDbEntity
  8
1
  6
Continuous
 62
     7
100
AcDbLine
 10
294.903922
 20
89.11074300000001
 30
0.0
 11
282.4857709999999
 21
95.575223
 31
0.0
  0
LINE
  5
E2
330
1E
100
AcDbEntity
  8
1
  6
Continuous
 62
     7
100
AcDbLine
 10
296.289168
 20
91.771775
 30
0.0
 11
283.871017
 21
98.23625600000001
 31
0.0
  0
ARC
  5
E3
330
1E
100
AcDbEntity
  8
1
  6
Continuous
 62
     7
100
AcDbCircle
 10
299.154375
 20
98.07105100000001
 30
0.0
 40
1.5
100
AcDbArc
 50
247.500003
 51
67.49999800000001
  0
ARC
  5
E4
330
1E
100
AcDbEntity
  8
1
  6
Continuous
 62
     7
100
AcDbCircle
 10
286.220061
 20
103.4286189999999
 30
0.0
 40
1.5
100
AcDbArc
 50
67.5
 51
247.5000009999999
  0
LINE
  5
E5
330
1E
100
AcDbEntity
  8
1
  6
Continuous
 62
     7
100
AcDbLine
 10
298.58035
 20
96.685232
 30
0.0
 11
285.6460359999999
 21
102.0428
 31
0.0
  0
LINE
  5
E6
330
1E
100
AcDbEntity
  8
1
  6
Continuous
 62
     7
100
AcDbLine
 10
299.7284
 20
99.45686999999999
 30
0.0
 11
286.7940869999999
 21
104.8144379999999
 31
0.0
  0
ARC
  5
E7
330
1E
100
AcDbEntity
  8
1
  6
Continuous
 62
     7
100
AcDbCircle
 10
302.033686
 20
105.98189
 30
0.0
 40
1.5
100
AcDbArc
 50
252.500003
 51
72.49999800000001
  0
ARC
  5
E8
330
1E
100
AcDbEntity
  8
1
  6
Continuous
 62
     7
100
AcDbCircle
 10
288.6816479999999
 20
110.191771
 30
0.0
 40
1.5
100
AcDbArc
 50
72.5
 51
252.5000009999999
  0
LINE
  5
E9
330
1E
100
AcDbEntity
  8
1
  6
Continuous
 62
     7
100
AcDbLine
 10
301.582627
 20
104.551315
 30
0.0
 11
288.23059
 21
108.761196
 31
0.0
  0
LINE
  5
EA
330
1E
100
AcDbEntity
  8
1
  6
Continuous
 62
     7
100
AcDbLine
 10
302.4847439999999
 20
107.412466
 30
0.0
 11
289.1327069999999
 21
111.6223469999999
 31
0.0
  0
ARC
  5
EB
330
1E
100
AcDbEntity
  8
1
  6
Continuous
 62
     7
100
AcDbCircle
 10
304.212564
 20
114.1135769999999
 30
0.0
 40
1.5
100
AcDbArc
 50
257.5000029999999
 51
77.49999800000001
  0
ARC
  5
EC
330
1E
100
AcDbEntity
  8
1
  6
Continuous
 62
     7
100
AcDbCircle
 10
290.544421
 20
117.143732
 30
0.0
 40
1.5
100
AcDbArc
 50
77.5
 51
257.500001
  0
LINE
  5
ED
330
1E
100
AcDbEntity
  8
1
  6
Continuous
 62
     7
100
AcDbLine
 10
303.8879049999999
 20
112.649133
 30
0.0
 11
290.2197609999999
 21
115.6792879999999
 31
0.0
  0
LINE
  5
EE
330
1E
100
AcDbEntity
  8
1
  6
Continuous
 62
     7
100
AcDbLine
 10
304.537224
 20
115.5780209999999
 30
0.0
 11
290.86908
 21
118.6081759999999
 31
0.0
  0
ARC
  5
EF
330
1E
100
AcDbEntity
  8
1
  6
Continuous
 62
     7
100
AcDbCircle
 10
305.674429
 20
122.404223
 30
0.0
 40
1.5
100
AcDbArc
 50
262.5000029999999
 51
82.49999800000001
  0
ARC
  5
F0
330
1E
100
AcDbEntity
  8
1
  6
Continuous
 62
     7
100
AcDbCircle
 10
291.7942009999999
 20
124.2315889999999
 30
0.0
 40
1.5
100
AcDbArc
 50
82.5
 51
262.500001
  0
LINE
  5
F1
330
1E
100
AcDbEntity
  8
1
  6
Continuous
 62
     7
100
AcDbLine
 10
305.4786399999999
 20
120.917055
 30
0.0
 11
291.598412
 21
122.7444219999999
 31
0.0
  0
LINE
  5
F2
330
1E
100
AcDbEntity
  8
1
  6
Continuous
 62
     7
100
AcDbLine
 10
305.870218
 20
123.8913899999999
 30
0.0
 11
291.9899899999999
 21
125.7187559999999
 31
0.0
  0
ARC
  5
F3
330
1E
100
AcDbEntity
  8
1
  6
Continuous
 62
     7
100
AcDbCircle
 10
306.4081529999999
 20
130.7907289999999
 30
0.0
 40
1.5
100
AcDbArc
 50
267.500003
 51
87.49999800000001
  0
ARC
  5
F4
330
1E
100
AcDbEntity
  8
1
  6
Continuous
 62
     7
100
AcDbCircle
 10
292.4214779999999
 20
131.4014
 30
0.0
 40
1.5
100
AcDbArc
 50
87.5
 51
267.500001
  0
LINE
  5
F5
330
1E
100
AcDbEntity
  8
1
  6
Continuous
 62
     7
100
AcDbLine
 10
306.342724
 20
129.292157
 30
0.0
 11
292.356049
 21
129.9028279999999
 31
0.0
  0
LINE
  5
F6
330
1E
100
AcDbEntity
  8
1
  6
Continuous
 62
     7
100
AcDbLine
 10
306.4735819999999
 20
132.289301
 30
0.0
 11
292.4869069999999
 21
132.8999729999999
 31
0.0
  0
ARC
  5
F7
330
1E
100
AcDbEntity
  8
1
  6
Continuous
 62
     7
100
AcDbCircle
 10
306.4081529999999
 20
139.209271
 30
0.0
 40
1.5
100
AcDbArc
 50
272.5000029999999
 51
92.49999800000001
  0
ARC
  5
F8
330
1E
100
AcDbEntity
  8
1
  6
Continuous
 62
     7
100
AcDbCircle
 10
292.4214779999999
 20
138.598599
 30
0.0
 40
1.5
100
AcDbArc
 50
92.5
 51
272.500001
  0
LINE
  5
F9
330
1E
100
AcDbEntity
  8
1
  6
Continuous
 62
     7
100
AcDbLine
 10
306.4735819999999
 20
137.710698
 30
0.0
 11
292.4869069999999
 21
137.100027
 31
0.0
  0
LINE
  5
FA
330
1E
100
AcDbEntity
  8
1
  6
Continuous
 62
     7
100
AcDbLine
 10
306.342724
 20
140.707843
 30
0.0
 11
292.356049
 21
140.097172
 31
0.0
  0
ARC
  5
FB
330
1E
100
AcDbEntity
  8
1
  6
Continuous
 62
     7
100
AcDbCircle
 10
305.674429
 20
147.5957769999999
 30
0.0
 40
1.5
100
AcDbArc
 50
277.500003
 51
97.49999800000001
  0
ARC
  5
FC
330
1E
100
AcDbEntity
  8
1
  6
Continuous
 62
     7
100
AcDbCircle
 10
291.7942009999999
 20
145.768411
 30
0.0
 40
1.5
100
AcDbArc
 50
97.50000000000001
 51
277.5000009999999
  0
LINE
  5
FD
330
1E
100
AcDbEntity
  8
1
  6
Continuous
 62
     7
100
AcDbLine
 10
305.870218
 20
146.1086099999999
 30
0.0
 11
291.9899899999999
 21
144.2812429999999
 31
0.0
  0
LINE
  5
FE
330
1E
100
AcDbEntity
  8
1
  6
Continuous
 62
     7
100
AcDbLine
 10
305.4786399999999
 20
149.0829449999999
 30
0.0
 11
291.598412
 21
147.255578
 31
0.0
  0
ARC
  5
FF
330
1E
100
AcDbEntity
  8
1
  6
Continuous
 62
     7
100
AcDbCircle
 10
304.212564
 20
155.886423
 30
0.0
 40
1.5
100
AcDbArc
 50
282.500003
 51
102.499998
  0
ARC
  5
100
330
1E
100
AcDbEntity
  8
1
  6
Continuous
 62
     7
100
AcDbCircle
 10
290.544421
 20
152.856268
 30
0.0
 40
1.5
100
AcDbArc
 50
102.4999999999999
 51
282.500001
  0
LINE
  5
101
330
1E
100
AcDbEntity
  8
1
  6
Continuous
 62
     7
100
AcDbLine
 10
304.537224
 20
154.4219789999999
 30
0.0
 11
290.86908
 21
151.3918239999999
 31
0.0
  0
LINE
  5
102
330
1E
100
AcDbEntity
  8
1
  6
Continuous
 62
     7
100
AcDbLine
 10
303.8879049999999
 20
157.350867
 30
0.0
 11
290.2197609999999
 21
154.320712
 31
0.0
  0
ARC
  5
103
330
1E
100
AcDbEntity
  8
1
  6
Continuous
 62
     7
100
AcDbCircle
 10
302.033686
 20
164.01811
 30
0.0
 40
1.5
100
AcDbArc
 50
287.5000029999999
 51
107.499998
  0
ARC
  5
104
330
1E
100
AcDbEntity
  8
1
  6
Continuous
 62
     7
100
AcDbCircle
 10
288.6816479999999
 20
159.808228
 30
0.0
 40
1.5
100
AcDbArc
 50
107.4999999999999
 51
287.5000009999999
  0
LINE
  5
105
330
1E
100
AcDbEntity
  8
1
  6
Continuous
 62
     7
100
AcDbLine
 10
302.4847439999999
 20
162.587534
 30
0.0
 11
289.1327069999999
 21
158.377653
 31
0.0
  0
LINE
  5
106
330
1E
100
AcDbEntity
  8
1
  6
Continuous
 62
     7
100
AcDbLine
 10
301.582627
 20
165.448685
 30
0.0
 11
288.23059
 21
161.238804
 31
0.0
  0
ARC
  5
107
330
1E
100
AcDbEntity
  8
1
  6
Continuous
 62
     7
100
AcDbCircle
 10
299.154375
 20
171.928951
 30
0.0
 40
1.5
100
AcDbArc
 50
292.5000029999999
 51
112.499998
  0
ARC
  5
108
330
1E
100
AcDbEntity
  8
1
  6
Continuous
 62
     7
100
AcDbCircle
 10
286.220061
 20
166.571383
 30
0.0
 40
1.5
100
AcDbArc
 50
112.5
 51
292.500001
  0
LINE
  5
109
330
1E
100
AcDbEntity
  8
1
  6
Continuous
 62
     7
100
AcDbLine
 10
299.7284
 20
170.543132
 30
0.0
 11
286.7940869999999
 21
165.1855639999999
 31
0.0
  0
LINE
  5
10A
330
1E
100
AcDbEntity
  8
1
  6
Continuous
 62
     7
100
AcDbLine
 10
298.58035
 20
173.3147699999999
 30
0.0
 11
285.6460359999999
 21
167.9572019999999
 31
0.0
  0
ARC
  5
10B
330
1E
100
AcDbEntity
  8
1
  6
Continuous
 62
     7
100
AcDbCircle
 10
295.5965449999999
 20
179.5587409999999
 30
0.0
 40
1.5
100
AcDbArc
 50
297.5000029999999
 51
117.499998
  0
ARC
  5
10C
330
1E
100
AcDbEntity
  8
1
  6
Continuous
 62
     7
100
AcDbCircle
 10
283.1783939999999
 20
173.094261
 30
0.0
 40
1.5
100
AcDbArc
 50
117.5
 51
297.500001
  0
LINE
  5
10D
330
1E
100
AcDbEntity
  8
1
  6
Continuous
 62
     7
100
AcDbLine
 10
296.289168
 20
178.228225
 30
0.0
 11
283.871017
 21
171.763744
 31
0.0
  0
LINE
  5
10E
330
1E
100
AcDbEntity
  8
1
  6
Continuous
 62
     7
100
AcDbLine
 10
294.903922
 20
180.889257
 30
0.0
 11
282.4857709999999
 21
174.424777
 31
0.0
  0
ARC
  5
10F
330
1E
100
AcDbEntity
  8
1
  6
Continuous
 62
     7
100
AcDbCircle
 10
291.387274
 20
186.849412
 30
0.0
 40
1.5
100
AcDbArc
 50
302.500003
 51
122.4999979999999
  0
ARC
  5
110
330
1E
100
AcDbEntity
  8
1
  6
Continuous
 62
     7
100
AcDbCircle
 10
279.5797939999999
 20
179.3272179999999
 30
0.0
 40
1.5
100
AcDbArc
 50
122.5
 51
302.5000009999999
  0
LINE
  5
111
330
1E
100
AcDbEntity
  8
1
  6
Continuous
 62
     7
100
AcDbLine
 10
292.193224
 20
185.584325
 30
0.0
 11
280.3857439999999
 21
178.0621299999999
 31
0.0
  0
LINE
  5
112
330
1E
100
AcDbEntity
  8
1
  6
Continuous
 62
     7
100
AcDbLine
 10
290.5813249999999
 20
188.1144989999999
 30
0.0
 11
278.7738449999999
 21
180.592305
 31
0.0
  0
ARC
  5
113
330
1E
100
AcDbEntity
  8
1
  6
Continuous
 62
     7
100
AcDbCircle
 10
286.558596
 20
193.7454779999999
 30
0.0
 40
1.5
100
AcDbArc
 50
307.5000029999999
 51
127.499998
  0
ARC
  5
114
330
1E
100
AcDbEntity
  8
1
  6
Continuous
 62
     7
100
AcDbCircle
 10
275.4516499999999
 20
185.222818
 30
0.0
 40
1.5
100
AcDbArc
 50
127.5
 51
307.500001
  0
LINE
  5
115
330
1E
100
AcDbEntity
  8
1
  6
Continuous
 62
     7
100
AcDbLine
 10
287.471739
 20
192.5554479999999
 30
0.0
 11
276.3647919999999
 21
184.0327879999999
 31
0.0
  0
LINE
  5
116
330
1E
100
AcDbEntity
  8
1
  6
Continuous
 62
     7
100
AcDbLine
 10
285.645454
 20
194.935508
 30
0.0
 11
274.538508
 21
186.4128479999999
 31
0.0
  0
ARC
  5
117
330
1E
100
AcDbEntity
  8
1
  6
Continuous
 62
     7
100
AcDbCircle
 10
281.147263
 20
200.194455
 30
0.0
 40
1.5
100
AcDbArc
 50
312.5000029999999
 51
132.499998
  0
ARC
  5
118
330
1E
100
AcDbEntity
  8
1
  6
Continuous
 62
     7
100
AcDbCircle
 10
270.82538
 20
190.7361919999999
 30
0.0
 40
1.5
100
AcDbArc
 50
132.4999999999999
 51
312.5000009999999
  0
LINE
  5
119
330
1E
100
AcDbEntity
  8
1
  6
Continuous
 62
     7
100
AcDbLine
 10
282.1606479999999
 20
199.088539
 30
0.0
 11
271.838766
 21
189.630276
 31
0.0
  0
LINE
  5
11A
330
1E
100
AcDbEntity
  8
1
  6
Continuous
 62
     7
100
AcDbLine
 10
280.133878
 20
201.300371
 30
0.0
 11
269.811995
 21
191.8421079999999
 31
0.0
  0
ARC
  5
11B
330
1E
100
AcDbEntity
  8
1
  6
Continuous
 62
     7
100
AcDbCircle
 10
275.194455
 20
206.1472629999999
 30
0.0
 40
1.5
100
AcDbArc
 50
317.500003
 51
137.499998
  0
ARC
  5
11C
330
1E
100
AcDbEntity
  8
1
  6
Continuous
 62
     7
100
AcDbCircle
 10
265.736192
 20
195.8253799999999
 30
0.0
 40
1.5
100
AcDbArc
 50
137.5
 51
317.500001
  0
LINE
  5
11D
330
1E
100
AcDbEntity
  8
1
  6
Continuous
 62
     7
100
AcDbLine
 10
276.300371
 20
205.133878
 30
0.0
 11
266.8421079999999
 21
194.8119949999999
 31
0.0
  0
LINE
  5
11E
330
1E
100
AcDbEntity
  8
1
  6
Continuous
 62
     7
100
AcDbLine
 10
274.088539
 20
207.160648
 30
0.0
 11
264.6302759999999
 21
196.8387659999999
 31
0.0
  0
ARC
  5
11F
330
1E
100
AcDbEntity
  8
1
  6
Continuous
 62
     7
100
AcDbCircle
 10
268.7454769999999
 20
211.558597
 30
0.0
 40
1.5
100
AcDbArc
 50
322.5000029999999
 51
142.499998
  0
ARC
  5
120
330
1E
100
AcDbEntity
  8
1
  6
Continuous
 62
     7
100
AcDbCircle
 10
260.222817
 20
200.45165
 30
0.0
 40
1.5
100
AcDbArc
 50
142.5
 51
322.5000009999999
  0
LINE
  5
121
330
1E
100
AcDbEntity
  8
1
  6
Continuous
 62
     7
100
AcDbLine
 10
269.9355069999999
 20
210.6454549999999
 30
0.0
 11
261.412847
 21
199.538508
 31
0.0
  0
LINE
  5
122
330
1E
100
AcDbEntity
  8
1
  6
Continuous
 62
     7
100
AcDbLine
 10
267.555447
 20
212.471739
 30
0.0
 11
259.0327869999999
 21
201.3647929999999
 31
0.0
  0
ARC
  5
123
330
1E
100
AcDbEntity
  8
1
  6
Continuous
 62
     7
100
AcDbCircle
 10
261.849412
 20
216.387274
 30
0.0
 40
1.5
100
AcDbArc
 50
327.500003
 51
147.4999979999999
  0
ARC
  5
124
330
1E
100
AcDbEntity
  8
1
  6
Continuous
 62
     7
100
AcDbCircle
 10
254.327218
 20
204.5797939999999
 30
0.0
 40
1.5
100
AcDbArc
 50
147.5
 51
327.5000009999999
  0
LINE
  5
125
330
1E
100
AcDbEntity
  8
1
  6
Continuous
 62
     7
100
AcDbLine
 10
263.114499
 20
215.581325
 30
0.0
 11
255.592305
 21
203.7738449999999
 31
0.0
  0
LINE
  5
126
330
1E
100
AcDbEntity
  8
1
  6
Continuous
 62
     7
100
AcDbLine
 10
260.5843249999999
 20
217.193224
 30
0.0
 11
253.0621309999999
 21
205.3857439999999
 31
0.0
  0
ARC
  5
127
330
1E
100
AcDbEntity
  8
1
  6
Continuous
 62
     7
100
AcDbCircle
 10
254.558741
 20
220.596545
 30
0.0
 40
1.5
100
AcDbArc
 50
332.5000029999999
 51
152.499998
  0
ARC
  5
128
330
1E
100
AcDbEntity
  8
1
  6
Continuous
 62
     7
100
AcDbCircle
 10
248.094261
 20
208.178394
 30
0.0
 40
1.5
100
AcDbArc
 50
152.5
 51
332.500001
  0
LINE
  5
129
330
1E
100
AcDbEntity
  8
1
  6
Continuous
 62
     7
100
AcDbLine
 10
255.8892569999999
 20
219.903922
 30
0.0
 11
249.424777
 21
207.4857709999999
 31
0.0
  0
LINE
  5
12A
330
1E
100
AcDbEntity
  8
1
  6
Continuous
 62
     7
100
AcDbLine
 10
253.228225
 20
221.289168
 30
0.0
 11
246.763744
 21
208.871017
 31
0.0
  0
ARC
  5
12B
330
1E
100
AcDbEntity
  8
1
  6
Continuous
 62
     7
100
AcDbCircle
 10
246.928949
 20
224.1543749999999
 30
0.0
 40
1.5
100
AcDbArc
 50
337.5000029999999
 51
157.499998
  0
ARC
  5
12C
330
1E
100
AcDbEntity
  8
1
  6
Continuous
 62
     7
100
AcDbCircle
 10
241.571381
 20
211.2200609999999
 30
0.0
 40
1.5
100
AcDbArc
 50
157.5
 51
337.5000009999999
  0
LINE
  5
12D
330
1E
100
AcDbEntity
  8
1
  6
Continuous
 62
     7
100
AcDbLine
 10
248.314768
 20
223.580349
 30
0.0
 11
242.9571999999999
 21
210.6460359999999
 31
0.0
  0
LINE
  5
12E
330
1E
100
AcDbEntity
  8
1
  6
Continuous
 62
     7
100
AcDbLine
 10
245.5431299999999
 20
224.7284
 30
0.0
 11
240.185562
 21
211.794086
 31
0.0
  0
ARC
  5
12F
330
1E
100
AcDbEntity
  8
1
  6
Continuous
 62
     7
100
AcDbCircle
 10
239.0181099999999
 20
227.033685
 30
0.0
 40
1.5
100
AcDbArc
 50
342.500003
 51
162.499998
  0
ARC
  5
130
330
1E
100
AcDbEntity
  8
1
  6
Continuous
 62
     7
100
AcDbCircle
 10
234.8082279999999
 20
213.6816479999999
 30
0.0
 40
1.5
100
AcDbArc
 50
162.5
 51
342.500001
  0
LINE
  5
131
330
1E
100
AcDbEntity
  8
1
  6
Continuous
 62
     7
100
AcDbLine
 10
240.448685
 20
226.582627
 30
0.0
 11
236.238804
 21
213.2305899999999
 31
0.0
  0
LINE
  5
132
330
1E
100
AcDbEntity
  8
1
  6
Continuous
 62
     7
100
AcDbLine
 10
237.5875339999999
 20
227.484744
 30
0.0
 11
233.3776529999999
 21
214.1327069999999
 31
0.0
  0
ARC
  5
133
330
1E
100
AcDbEntity
  8
1
  6
Continuous
 62
     7
100
AcDbCircle
 10
230.886423
 20
229.212564
 30
0.0
 40
1.5
100
AcDbArc
 50
347.5000029999999
 51
167.499998
  0
ARC
  5
134
330
1E
100
AcDbEntity
  8
1
  6
Continuous
 62
     7
100
AcDbCircle
 10
227.856268
 20
215.54442
 30
0.0
 40
1.5
100
AcDbArc
 50
167.5
 51
347.500001
  0
LINE
  5
135
330
1E
100
AcDbEntity
  8
1
  6
Continuous
 62
     7
100
AcDbLine
 10
232.3508669999999
 20
228.8879049999999
 30
0.0
 11
229.320712
 21
215.2197609999999
 31
0.0
  0
LINE
  5
136
330
1E
100
AcDbEntity
  8
1
  6
Continuous
 62
     7
100
AcDbLine
 10
229.421979
 20
229.537224
 30
0.0
 11
226.391824
 21
215.8690799999999
 31
0.0
  0
ARC
  5
137
330
1E
100
AcDbEntity
  8
1
  6
Continuous
 62
     7
100
AcDbCircle
 10
220.7684109999999
 20
216.7942009999999
 30
0.0
 40
1.5
100
AcDbArc
 50
172.5
 51
352.5000009999999
  0
ARC
  5
138
330
1E
100
AcDbEntity
  8
1
  6
Continuous
 62
     7
100
AcDbCircle
 10
213.598599
 20
217.4214779999999
 30
0.0
 40
1.5
100
AcDbArc
 50
177.5
 51
357.500001
  0
ARC
  5
139
330
1E
100
AcDbEntity
  8
1
  6
Continuous
 62
     7
100
AcDbCircle
 10
206.401401
 20
217.4214779999999
 30
0.0
 40
1.5
100
AcDbArc
 50
182.5
 51
2.500001
  0
ARC
  5
13A
330
1E
100
AcDbEntity
  8
1
  6
Continuous
 62
     7
100
AcDbCircle
 10
199.231589
 20
216.7942009999999
 30
0.0
 40
1.5
100
AcDbArc
 50
187.5
 51
7.500000999999998
  0
ARC
  5
13B
330
1E
100
AcDbEntity
  8
1
  6
Continuous
 62
     7
100
AcDbCircle
 10
189.1135769999999
 20
229.212564
 30
0.0
 40
1.5
100
AcDbArc
 50
12.50000299999999
 51
192.499998
  0
ARC
  5
13C
330
1E
100
AcDbEntity
  8
1
  6
Continuous
 62
     7
100
AcDbCircle
 10
192.143732
 20
215.544421
 30
0.0
 40
1.5
100
AcDbArc
 50
192.4999999999999
 51
12.50000099999999
  0
LINE
  5
13D
330
1E
100
AcDbEntity
  8
1
  6
Continuous
 62
     7
100
AcDbLine
 10
190.5780209999999
 20
229.537224
 30
0.0
 11
193.608176
 21
215.8690799999999
 31
0.0
  0
LINE
  5
13E
330
1E
100
AcDbEntity
  8
1
  6
Continuous
 62
     7
100
AcDbLine
 10
187.649133
 20
228.8879049999999
 30
0.0
 11
190.6792879999999
 21
215.2197609999999
 31
0.0
  0
ARC
  5
13F
330
1E
100
AcDbEntity
  8
1
  6
Continuous
 62
     7
100
AcDbCircle
 10
180.9818899999999
 20
227.033685
 30
0.0
 40
1.5
100
AcDbArc
 50
17.50000299999999
 51
197.4999979999999
  0
ARC
  5
140
330
1E
100
AcDbEntity
  8
1
  6
Continuous
 62
     7
100
AcDbCircle
 10
185.1917719999999
 20
213.6816479999999
 30
0.0
 40
1.5
100
AcDbArc
 50
197.5
 51
17.500001
  0
LINE
  5
141
330
1E
100
AcDbEntity
  8
1
  6
Continuous
 62
     7
100
AcDbLine
 10
182.412466
 20
227.484744
 30
0.0
 11
186.6223469999999
 21
214.1327069999999
 31
0.0
  0
LINE
  5
142
330
1E
100
AcDbEntity
  8
1
  6
Continuous
 62
     7
100
AcDbLine
 10
179.5513149999999
 20
226.582627
 30
0.0
 11
183.7611959999999
 21
213.2305899999999
 31
0.0
  0
ARC
  5
143
330
1E
100
AcDbEntity
  8
1
  6
Continuous
 62
     7
100
AcDbCircle
 10
173.0710489999999
 20
224.1543749999999
 30
0.0
 40
1.5
100
AcDbArc
 50
22.50000299999999
 51
202.499998
  0
ARC
  5
144
330
1E
100
AcDbEntity
  8
1
  6
Continuous
 62
     7
100
AcDbCircle
 10
178.428617
 20
211.2200609999999
 30
0.0
 40
1.5
100
AcDbArc
 50
202.4999999999999
 51
22.500001
  0
LINE
  5
145
330
1E
100
AcDbEntity
  8
1
  6
Continuous
 62
     7
100
AcDbLine
 10
174.4568679999999
 20
224.7284
 30
0.0
 11
179.814436
 21
211.794087
 31
0.0
  0
LINE
  5
146
330
1E
100
AcDbEntity
  8
1
  6
Continuous
 62
     7
100
AcDbLine
 10
171.685229
 20
223.58035
 30
0.0
 11
177.042798
 21
210.6460359999999
 31
0.0
  0
ARC
  5
147
330
1E
100
AcDbEntity
  8
1
  6
Continuous
 62
     7
100
AcDbCircle
 10
165.4412589999999
 20
220.596545
 30
0.0
 40
1.5
100
AcDbArc
 50
27.50000299999999
 51
207.499998
  0
ARC
  5
148
330
1E
100
AcDbEntity
  8
1
  6
Continuous
 62
     7
100
AcDbCircle
 10
171.9057389999999
 20
208.178394
 30
0.0
 40
1.5
100
AcDbArc
 50
207.5
 51
27.500001
  0
LINE
  5
149
330
1E
100
AcDbEntity
  8
1
  6
Continuous
 62
     7
100
AcDbLine
 10
166.7717749999999
 20
221.289168
 30
0.0
 11
173.236256
 21
208.871017
 31
0.0
  0
LINE
  5
14A
330
1E
100
AcDbEntity
  8
1
  6
Continuous
 62
     7
100
AcDbLine
 10
164.1107429999999
 20
219.903922
 30
0.0
 11
170.5752229999999
 21
207.4857709999999
 31
0.0
  0
ARC
  5
14B
330
1E
100
AcDbEntity
  8
1
  6
Continuous
 62
     7
100
AcDbCircle
 10
158.1505879999999
 20
216.387274
 30
0.0
 40
1.5
100
AcDbArc
 50
32.50000299999999
 51
212.499998
  0
ARC
  5
14C
330
1E
100
AcDbEntity
  8
1
  6
Continuous
 62
     7
100
AcDbCircle
 10
165.672782
 20
204.5797939999999
 30
0.0
 40
1.5
100
AcDbArc
 50
212.5
 51
32.50000099999999
  0
LINE
  5
14D
330
1E
100
AcDbEntity
  8
1
  6
Continuous
 62
     7
100
AcDbLine
 10
159.4156749999999
 20
217.193224
 30
0.0
 11
166.937869
 21
205.3857439999999
 31
0.0
  0
LINE
  5
14E
330
1E
100
AcDbEntity
  8
1
  6
Continuous
 62
     7
100
AcDbLine
 10
156.885501
 20
215.581325
 30
0.0
 11
164.4076949999999
 21
203.7738449999999
 31
0.0
  0
ARC
  5
14F
330
1E
100
AcDbEntity
  8
1
  6
Continuous
 62
     7
100
AcDbCircle
 10
151.2545219999999
 20
211.5585959999999
 30
0.0
 40
1.5
100
AcDbArc
 50
37.50000299999999
 51
217.4999979999999
  0
ARC
  5
150
330
1E
100
AcDbEntity
  8
1
  6
Continuous
 62
     7
100
AcDbCircle
 10
159.777182
 20
200.45165
 30
0.0
 40
1.5
100
AcDbArc
 50
217.5
 51
37.50000099999999
  0
LINE
  5
151
330
1E
100
AcDbEntity
  8
1
  6
Continuous
 62
     7
100
AcDbLine
 10
152.444552
 20
212.4717379999999
 30
0.0
 11
160.967212
 21
201.3647919999999
 31
0.0
  0
LINE
  5
152
330
1E
100
AcDbEntity
  8
1
  6
Continuous
 62
     7
100
AcDbLine
 10
150.064492
 20
210.645454
 30
0.0
 11
158.5871519999999
 21
199.538508
 31
0.0
  0
ARC
  5
153
330
1E
100
AcDbEntity
  8
1
  6
Continuous
 62
     7
100
AcDbCircle
 10
144.805545
 20
206.1472629999999
 30
0.0
 40
1.5
100
AcDbArc
 50
42.50000299999999
 51
222.499998
  0
ARC
  5
154
330
1E
100
AcDbEntity
  8
1
  6
Continuous
 62
     7
100
AcDbCircle
 10
154.263808
 20
195.8253799999999
 30
0.0
 40
1.5
100
AcDbArc
 50
222.5
 51
42.500001
  0
LINE
  5
155
330
1E
100
AcDbEntity
  8
1
  6
Continuous
 62
     7
100
AcDbLine
 10
145.911461
 20
207.160648
 30
0.0
 11
155.3697239999999
 21
196.8387659999999
 31
0.0
  0
LINE
  5
156
330
1E
100
AcDbEntity
  8
1
  6
Continuous
 62
     7
100
AcDbLine
 10
143.699629
 20
205.133877
 30
0.0
 11
153.157892
 21
194.8119949999999
 31
0.0
  0
ARC
  5
157
330
1E
100
AcDbEntity
  8
1
  6
Continuous
 62
     7
100
AcDbCircle
 10
138.852737
 20
200.194455
 30
0.0
 40
1.5
100
AcDbArc
 50
47.50000299999999
 51
227.499998
  0
ARC
  5
158
330
1E
100
AcDbEntity
  8
1
  6
Continuous
 62
     7
100
AcDbCircle
 10
149.17462
 20
190.7361919999999
 30
0.0
 40
1.5
100
AcDbArc
 50
227.4999999999999
 51
47.500001
  0
LINE
  5
159
330
1E
100
AcDbEntity
  8
1
  6
Continuous
 62
     7
100
AcDbLine
 10
139.8661219999999
 20
201.300371
 30
0.0
 11
150.188005
 21
191.8421079999999
 31
0.0
  0
LINE
  5
15A
330
1E
100
AcDbEntity
  8
1
  6
Continuous
 62
     7
100
AcDbLine
 10
137.8393519999999
 20
199.088539
 30
0.0
 11
148.161234
 21
189.630276
 31
0.0
  0
ARC
  5
15B
330
1E
100
AcDbEntity
  8
1
  6
Continuous
 62
     7
100
AcDbCircle
 10
133.441403
 20
193.745477
 30
0.0
 40
1.5
100
AcDbArc
 50
52.500003
 51
232.499998
  0
ARC
  5
15C
330
1E
100
AcDbEntity
  8
1
  6
Continuous
 62
     7
100
AcDbCircle
 10
144.5483499999999
 20
185.222817
 30
0.0
 40
1.5
100
AcDbArc
 50
232.5
 51
52.500001
  0
LINE
  5
15D
330
1E
100
AcDbEntity
  8
1
  6
Continuous
 62
     7
100
AcDbLine
 10
134.354545
 20
194.935507
 30
0.0
 11
145.461492
 21
186.4128469999999
 31
0.0
  0
LINE
  5
15E
330
1E
100
AcDbEntity
  8
1
  6
Continuous
 62
     7
100
AcDbLine
 10
132.528261
 20
192.5554469999999
 30
0.0
 11
143.635207
 21
184.032787
 31
0.0
  0
ARC
  5
15F
330
1E
100
AcDbEntity
  8
1
  6
Continuous
 62
     7
100
AcDbCircle
 10
128.612726
 20
186.849412
 30
0.0
 40
1.5
100
AcDbArc
 50
57.50000299999999
 51
237.499998
  0
ARC
  5
160
330
1E
100
AcDbEntity
  8
1
  6
Continuous
 62
     7
100
AcDbCircle
 10
140.420206
 20
179.3272179999999
 30
0.0
 40
1.5
100
AcDbArc
 50
237.4999999999999
 51
57.50000100000001
  0
LINE
  5
161
330
1E
100
AcDbEntity
  8
1
  6
Continuous
 62
     7
100
AcDbLine
 10
129.418675
 20
188.1144989999999
 30
0.0
 11
141.226155
 21
180.592305
 31
0.0
  0
LINE
  5
162
330
1E
100
AcDbEntity
  8
1
  6
Continuous
 62
     7
100
AcDbLine
 10
127.806776
 20
185.584325
 30
0.0
 11
139.614256
 21
178.0621299999999
 31
0.0
  0
ARC
  5
163
330
1E
100
AcDbEntity
  8
1
  6
Continuous
 62
     7
100
AcDbCircle
 10
124.403455
 20
179.5587409999999
 30
0.0
 40
1.5
100
AcDbArc
 50
62.500003
 51
242.499998
  0
ARC
  5
164
330
1E
100
AcDbEntity
  8
1
  6
Continuous
 62
     7
100
AcDbCircle
 10
136.8216059999999
 20
173.094261
 30
0.0
 40
1.5
100
AcDbArc
 50
242.4999999999999
 51
62.500001
  0
LINE
  5
165
330
1E
100
AcDbEntity
  8
1
  6
Continuous
 62
     7
100
AcDbLine
 10
125.0960779999999
 20
180.889257
 30
0.0
 11
137.514229
 21
174.424777
 31
0.0
  0
LINE
  5
166
330
1E
100
AcDbEntity
  8
1
  6
Continuous
 62
     7
100
AcDbLine
 10
123.710832
 20
178.228225
 30
0.0
 11
136.128983
 21
171.763744
 31
0.0
  0
ARC
  5
167
330
1E
100
AcDbEntity
  8
1
  6
Continuous
 62
     7
100
AcDbCircle
 10
120.845625
 20
171.9289489999999
 30
0.0
 40
1.5
100
AcDbArc
 50
67.500003
 51
247.499998
  0
ARC
  5
168
330
1E
100
AcDbEntity
  8
1
  6
Continuous
 62
     7
100
AcDbCircle
 10
133.7799389999999
 20
166.5713809999999
 30
0.0
 40
1.5
100
AcDbArc
 50
247.4999999999999
 51
67.500001
  0
LINE
  5
169
330
1E
100
AcDbEntity
  8
1
  6
Continuous
 62
     7
100
AcDbLine
 10
121.41965
 20
173.3147679999999
 30
0.0
 11
134.3539639999999
 21
167.9572
 31
0.0
  0
LINE
  5
16A
330
1E
100
AcDbEntity
  8
1
  6
Continuous
 62
     7
100
AcDbLine
 10
120.2716
 20
170.5431299999999
 30
0.0
 11
133.2059129999999
 21
165.185562
 31
0.0
  0
ARC
  5
16B
330
1E
100
AcDbEntity
  8
1
  6
Continuous
 62
     7
100
AcDbCircle
 10
117.9663139999999
 20
164.018109
 30
0.0
 40
1.5
100
AcDbArc
 50
72.500003
 51
252.499998
  0
ARC
  5
16C
330
1E
100
AcDbEntity
  8
1
  6
Continuous
 62
     7
100
AcDbCircle
 10
131.318352
 20
159.808228
 30
0.0
 40
1.5
100
AcDbArc
 50
252.5
 51
72.500001
  0
LINE
  5
16D
330
1E
100
AcDbEntity
  8
1
  6
Continuous
 62
     7
100
AcDbLine
 10
118.4173729999999
 20
165.448685
 30
0.0
 11
131.76941
 21
161.238804
 31
0.0
  0
LINE
  5
16E
330
1E
100
AcDbEntity
  8
1
  6
Continuous
 62
     7
100
AcDbLine
 10
117.515256
 20
162.587534
 30
0.0
 11
130.8672929999999
 21
158.377653
 31
0.0
  0
ARC
  5
16F
330
1E
100
AcDbEntity
  8
1
  6
Continuous
 62
     7
100
AcDbCircle
 10
115.787436
 20
155.886423
 30
0.0
 40
1.5
100
AcDbArc
 50
77.500003
 51
257.499998
  0
ARC
  5
170
330
1E
100
AcDbEntity
  8
1
  6
Continuous
 62
     7
100
AcDbCircle
 10
129.4555789999999
 20
152.856268
 30
0.0
 40
1.5
100
AcDbArc
 50
257.5
 51
77.50000100000001
  0
LINE
  5
171
330
1E
100
AcDbEntity
  8
1
  6
Continuous
 62
     7
100
AcDbLine
 10
116.1120949999999
 20
157.3508659999999
 30
0.0
 11
129.7802389999999
 21
154.320712
 31
0.0
  0
LINE
  5
172
330
1E
100
AcDbEntity
  8
1
  6
Continuous
 62
     7
100
AcDbLine
 10
115.462776
 20
154.4219789999999
 30
0.0
 11
129.13092
 21
151.3918239999999
 31
0.0
  0
ARC
  5
173
330
1E
100
AcDbEntity
  8
1
  6
Continuous
 62
     7
100
AcDbCircle
 10
114.325571
 20
147.5957769999999
 30
0.0
 40
1.5
100
AcDbArc
 50
82.50000300000001
 51
262.499998
  0
ARC
  5
174
330
1E
100
AcDbEntity
  8
1
  6
Continuous
 62
     7
100
AcDbCircle
 10
128.205799
 20
145.768411
 30
0.0
 40
1.5
100
AcDbArc
 50
262.4999999999999
 51
82.50000099999999
  0
LINE
  5
175
330
1E
100
AcDbEntity
  8
1
  6
Continuous
 62
     7
100
AcDbLine
 10
114.52136
 20
149.0829449999999
 30
0.0
 11
128.4015879999999
 21
147.255578
 31
0.0
  0
LINE
  5
176
330
1E
100
AcDbEntity
  8
1
  6
Continuous
 62
     7
100
AcDbLine
 10
114.129782
 20
146.1086099999999
 30
0.0
 11
128.01001
 21
144.2812429999999
 31
0.0
  0
ARC
  5
177
330
1E
100
AcDbEntity
  8
1
  6
Continuous
 62
     7
100
AcDbCircle
 10
113.591847
 20
139.209271
 30
0.0
 40
1.5
100
AcDbArc
 50
87.50000300000001
 51
267.4999979999999
  0
ARC
  5
178
330
1E
100
AcDbEntity
  8
1
  6
Continuous
 62
     7
100
AcDbCircle
 10
127.5785219999999
 20
138.598599
 30
0.0
 40
1.5
100
AcDbArc
 50
267.5
 51
87.50000099999999
  0
LINE
  5
179
330
1E
100
AcDbEntity
  8
1
  6
Continuous
 62
     7
100
AcDbLine
 10
113.6572759999999
 20
140.707843
 30
0.0
 11
127.643951
 21
140.097172
 31
0.0
  0
LINE
  5
17A
330
1E
100
AcDbEntity
  8
1
  6
Continuous
 62
     7
100
AcDbLine
 10
113.5264179999999
 20
137.710698
 30
0.0
 11
127.5130929999999
 21
137.100027
 31
0.0
  0
LINE
  5
17B
330
1E
100
AcDbEntity
  8
1
  6
Continuous
 62
     7
100
AcDbLine
 10
107.0
 20
400.0
 30
0.0
 11
107.0
 21
392.5
 31
0.0
  0
LINE
  5
17C
330
1E
100
AcDbEntity
  8
1
  6
Continuous
 62
     7
100
AcDbLine
 10
133.999997
 20
381.7499999999999
 30
0.0
 11
286.0
 21
381.7499999999999
 31
0.0
  0
LINE
  5
17D
330
1E
100
AcDbEntity
  8
1
  6
Continuous
 62
     7
100
AcDbLine
 10
313.0
 20
392.500002
 30
0.0
 11
313.0
 21
400.0
 31
0.0
  0
LINE
  5
17E
330
1E
100
AcDbEntity
  8
1
  6
Continuous
 62
     7
100
AcDbLine
 10
137.5
 20
378.0
 30
0.0
 11
137.5
 21
381.7499999999999
 31
0.0
  0
LINE
  5
17F
330
1E
100
AcDbEntity
  8
1
  6
Continuous
 62
     7
100
AcDbLine
 10
282.5
 20
378.0
 30
0.0
 11
282.5
 21
381.7499999999999
 31
0.0
  0
LINE
  5
180
330
1E
100
AcDbEntity
  8
1
  6
Continuous
 62
     7
100
AcDbLine
 10
107.0
 20
392.4999979999999
 30
0.0
 11
313.0
 21
392.5000029999999
 31
0.0
  0
LINE
  5
181
330
1E
100
AcDbEntity
  8
1
  6
Continuous
 62
     7
100
AcDbLine
 10
195.0
 20
233.0
 30
0.0
 11
195.0
 21
221.4999999999999
 31
0.0
  0
LINE
  5
182
330
1E
100
AcDbEntity
  8
1
  6
Continuous
 62
     7
100
AcDbLine
 10
195.0
 20
221.4999999999999
 30
0.0
 11
225.0
 21
221.4999999999999
 31
0.0
  0
LINE
  5
183
330
1E
100
AcDbEntity
  8
1
  6
Continuous
 62
     7
100
AcDbLine
 10
225.0
 20
221.4999999999999
 30
0.0
 11
225.0
 21
233.0
 31
0.0
  0
LINE
  5
184
330
1E
100
AcDbEntity
  8
1
  6
Continuous
 62
     7
100
AcDbLine
 10
225.0
 20
233.0
 30
0.0
 11
195.0
 21
233.0
 31
0.0
  0
LINE
  5
185
330
1E
100
AcDbEntity
  8
1
  6
Continuous
 62
     7
100
AcDbLine
 10
197.7444219999999
 20
216.598412
 30
0.0
 11
197.0991159999999
 21
221.4999999999999
 31
0.0
  0
LINE
  5
186
330
1E
100
AcDbEntity
  8
1
  6
Continuous
 62
     7
100
AcDbLine
 10
200.718757
 20
216.9899899999999
 30
0.0
 11
200.125002
 21
221.4999999999999
 31
0.0
  0
LINE
  5
187
330
1E
100
AcDbEntity
  8
1
  6
Continuous
 62
     7
100
AcDbLine
 10
204.9028279999999
 20
217.356049
 30
0.0
 11
204.721899
 21
221.4999999999999
 31
0.0
  0
LINE
  5
188
330
1E
100
AcDbEntity
  8
1
  6
Continuous
 62
     7
100
AcDbLine
 10
207.899973
 20
217.4869069999999
 30
0.0
 11
207.724758
 21
221.4999999999999
 31
0.0
  0
LINE
  5
189
330
1E
100
AcDbEntity
  8
1
  6
Continuous
 62
     7
100
AcDbLine
 10
212.100027
 20
217.4869069999999
 30
0.0
 11
212.275243
 21
221.4999999999999
 31
0.0
  0
LINE
  5
18A
330
1E
100
AcDbEntity
  8
1
  6
Continuous
 62
     7
100
AcDbLine
 10
215.097172
 20
217.356049
 30
0.0
 11
215.2781009999999
 21
221.4999999999999
 31
0.0
  0
LINE
  5
18B
330
1E
100
AcDbEntity
  8
1
  6
Continuous
 62
     7
100
AcDbLine
 10
219.2812439999999
 20
216.9899899999999
 30
0.0
 11
219.874998
 21
221.4999999999999
 31
0.0
  0
LINE
  5
18C
330
1E
100
AcDbEntity
  8
1
  6
Continuous
 62
     7
100
AcDbLine
 10
222.2555779999999
 20
216.598412
 30
0.0
 11
222.900884
 21
221.4999999999999
 31
0.0
  0
ARC
  5
18D
330
1E
100
AcDbEntity
  8
1
  6
Continuous
 62
     7
100
AcDbCircle
 10
230.612946
 20
389.4018319999999
 30
0.0
 40
1.25
100
AcDbArc
 50
331.4662239999999
 51
151.466312
  0
ARC
  5
18E
330
1E
100
AcDbEntity
  8
1
  6
Continuous
 62
     7
100
AcDbCircle
 10
228.137039
 20
384.8481709999999
 30
0.0
 40
1.25
100
AcDbArc
 50
151.4663159999999
 51
331.466265
  0
LINE
  5
18F
330
1E
100
AcDbEntity
  8
1
  6
Continuous
 62
     7
100
AcDbLine
 10
229.235206
 20
384.251072
 30
0.0
 11
231.711114
 21
388.8047339999999
 31
0.0
  0
LINE
  5
190
330
1E
100
AcDbEntity
  8
1
  6
Continuous
 62
     7
100
AcDbLine
 10
227.038866
 20
385.4452609999999
 30
0.0
 11
229.514773
 21
389.9989279999999
 31
0.0
  0
LINE
  5
191
330
1E
100
AcDbEntity
  8
1
  6
Continuous
 62
     7
100
AcDbLine
 10
236.1202779999999
 20
383.99394
 30
0.0
 11
239.712474
 21
388.749145
 31
0.0
  0
LINE
  5
192
330
1E
100
AcDbEntity
  8
1
  6
Continuous
 62
     7
100
AcDbLine
 10
242.780849
 20
383.7848029999999
 30
0.0
 11
247.537544
 21
388.7325779999999
 31
0.0
  0
LINE
  5
193
330
1E
100
AcDbEntity
  8
1
  6
Continuous
 62
     7
100
AcDbLine
 10
249.1843139999999
 20
383.619396
 30
0.0
 11
255.1209029999999
 21
388.737062
 31
0.0
  0
ARC
  5
194
330
1E
100
AcDbEntity
  8
1
  6
Continuous
 62
     7
100
AcDbCircle
 10
238.7150779999999
 20
389.5025999999999
 30
0.0
 40
1.249997999999999
100
AcDbArc
 50
322.9318039999999
 51
52.93170899999999
  0
ARC
  5
195
330
1E
100
AcDbEntity
  8
1
  6
Continuous
 62
     7
100
AcDbCircle
 10
235.1228819999999
 20
384.747395
 30
0.0
 40
1.250004
100
AcDbArc
 50
232.9315599999999
 51
322.931741
  0
ARC
  5
196
330
1E
100
AcDbEntity
  8
1
  6
Continuous
 62
     7
100
AcDbCircle
 10
235.047538
 20
384.6476559999999
 30
0.0
 40
1.125005999999999
100
AcDbArc
 50
142.931784
 51
232.931752
  0
ARC
  5
197
330
1E
100
AcDbEntity
  8
1
  6
Continuous
 62
     7
100
AcDbCircle
 10
238.790425
 20
389.6023399999999
 30
0.0
 40
1.125000999999999
100
AcDbArc
 50
52.9318
 51
142.93173
  0
LINE
  5
198
330
1E
100
AcDbEntity
  8
1
  6
Continuous
 62
     7
100
AcDbLine
 10
234.1498799999999
 20
385.3257669999999
 30
0.0
 11
237.892766
 21
390.280452
 31
0.0
  0
ARC
  5
199
330
1E
100
AcDbEntity
  8
1
  6
Continuous
 62
     7
100
AcDbCircle
 10
246.636431
 20
389.598891
 30
0.0
 40
1.25
100
AcDbArc
 50
316.128081
 51
46.127843
  0
ARC
  5
19A
330
1E
100
AcDbEntity
  8
1
  6
Continuous
 62
     7
100
AcDbCircle
 10
241.8797339999999
 20
384.651113
 30
0.0
 40
1.25
100
AcDbArc
 50
226.128118
 51
316.128145
  0
ARC
  5
19B
330
1E
100
AcDbEntity
  8
1
  6
Continuous
 62
     7
100
AcDbCircle
 10
246.809693
 20
389.779109
 30
0.0
 40
1.000002999999999
100
AcDbArc
 50
46.127948
 51
136.128002
  0
ARC
  5
19C
330
1E
100
AcDbEntity
  8
1
  6
Continuous
 62
     7
100
AcDbCircle
 10
241.706471
 20
384.470888
 30
0.0
 40
1.0
100
AcDbArc
 50
136.127871
 51
226.127963
  0
LINE
  5
19D
330
1E
100
AcDbEntity
  8
1
  6
Continuous
 62
     7
100
AcDbLine
 10
240.9855809999999
 20
385.1639379999999
 30
0.0
 11
246.088803
 21
390.4721589999999
 31
0.0
  0
ARC
  5
19E
330
1E
100
AcDbEntity
  8
1
  6
Continuous
 62
     7
100
AcDbCircle
 10
254.304741
 20
389.6838359999999
 30
0.0
 40
1.25
100
AcDbArc
 50
310.7632259999999
 51
40.76312100000001
  0
ARC
  5
19F
330
1E
100
AcDbEntity
  8
1
  6
Continuous
 62
     7
100
AcDbCircle
 10
248.368149
 20
384.566167
 30
0.0
 40
1.25
100
AcDbArc
 50
220.763162
 51
310.763084
  0
ARC
  5
1A0
330
1E
100
AcDbEntity
  8
1
  6
Continuous
 62
     7
100
AcDbCircle
 10
254.588772
 20
389.9286839999999
 30
0.0
 40
0.8750020000000001
100
AcDbArc
 50
40.763343
 51
130.7631429999999
  0
ARC
  5
1A1
330
1E
100
AcDbEntity
  8
1
  6
Continuous
 62
     7
100
AcDbCircle
 10
248.084118
 20
384.321318
 30
0.0
 40
0.8749979999999998
100
AcDbArc
 50
130.7631429999999
 51
220.7632489999999
  0
LINE
  5
1A2
330
1E
100
AcDbEntity
  8
1
  6
Continuous
 62
     7
100
AcDbLine
 10
247.5128049999999
 20
384.984058
 30
0.0
 11
254.017454
 21
390.591423
 31
0.0
  0
ARC
  5
1A3
330
1E
100
AcDbEntity
  8
1
  6
Continuous
 62
     7
100
AcDbCircle
 10
261.650866
 20
389.755902
 30
0.0
 40
1.250000999999999
100
AcDbArc
 50
306.532632
 51
36.532612
  0
ARC
  5
1A4
330
1E
100
AcDbEntity
  8
1
  6
Continuous
 62
     7
100
AcDbCircle
 10
254.5484089999999
 20
384.4941009999999
 30
0.0
 40
1.250000999999999
100
AcDbArc
 50
216.532612
 51
306.5326509999999
  0
LINE
  5
1A5
330
1E
100
AcDbEntity
  8
1
  6
Continuous
 62
     7
100
AcDbLine
 10
255.29251
 20
383.489702
 30
0.0
 11
262.394967
 21
388.7515029999999
 31
0.0
  0
ARC
  5
1A6
330
1E
100
AcDbEntity
  8
1
  6
Continuous
 62
     7
100
AcDbCircle
 10
262.052624
 20
390.053541
 30
0.0
 40
0.75
100
AcDbArc
 50
36.532612
 51
126.532499
  0
ARC
  5
1A7
330
1E
100
AcDbEntity
  8
1
  6
Continuous
 62
     7
100
AcDbCircle
 10
254.1466479999999
 20
384.19646
 30
0.0
 40
0.7499979999999999
100
AcDbArc
 50
126.5325079999999
 51
216.532612
  0
LINE
  5
1A8
330
1E
100
AcDbEntity
  8
1
  6
Continuous
 62
     7
100
AcDbLine
 10
253.7001899999999
 20
384.799096
 30
0.0
 11
261.6061629999999
 21
390.6561789999999
 31
0.0
  0
ARC
  5
1A9
330
1E
100
AcDbEntity
  8
1
  6
Continuous
 62
     7
100
AcDbCircle
 10
269.1354819999999
 20
390.15796
 30
0.0
 40
0.6250010000000001
100
AcDbArc
 50
33.179654
 51
123.1796539999999
  0
ARC
  5
1AA
330
1E
100
AcDbEntity
  8
1
  6
Continuous
 62
     7
100
AcDbCircle
 10
259.8585979999999
 20
384.0920409999999
 30
0.0
 40
0.624999
100
AcDbArc
 50
123.179632
 51
213.179728
  0
LINE
  5
1AB
330
1E
100
AcDbEntity
  8
1
  6
Continuous
 62
     7
100
AcDbLine
 10
259.516558
 20
384.615139
 30
0.0
 11
268.793439
 21
390.681059
 31
0.0
  0
ARC
  5
1AC
330
1E
100
AcDbEntity
  8
1
  6
Continuous
 62
     7
100
AcDbCircle
 10
275.7770269999999
 20
390.2461839999999
 30
0.0
 40
0.5000020000000001
100
AcDbArc
 50
30.506346
 51
120.5063459999999
  0
ARC
  5
1AD
330
1E
100
AcDbEntity
  8
1
  6
Continuous
 62
     7
100
AcDbCircle
 10
265.182274
 20
384.0038169999999
 30
0.0
 40
0.5000020000000001
100
AcDbArc
 50
120.5063459999999
 51
210.506346
  0
LINE
  5
1AE
330
1E
100
AcDbEntity
  8
1
  6
Continuous
 62
     7
100
AcDbLine
 10
264.9284549999999
 20
384.4346039999999
 30
0.0
 11
275.523208
 21
390.676972
 31
0.0
  0
ARC
  5
1AF
330
1E
100
AcDbEntity
  8
1
  6
Continuous
 62
     7
100
AcDbCircle
 10
282.1477529999999
 20
390.310471
 30
0.0
 40
0.399999
100
AcDbArc
 50
28.28285499999999
 51
118.2826719999999
  0
ARC
  5
1B0
330
1E
100
AcDbEntity
  8
1
  6
Continuous
 62
     7
100
AcDbCircle
 10
270.3071459999999
 20
383.9395299999999
 30
0.0
 40
0.400001
100
AcDbArc
 50
118.282923
 51
208.282947
  0
LINE
  5
1B1
330
1E
100
AcDbEntity
  8
1
  6
Continuous
 62
     7
100
AcDbLine
 10
270.117616
 20
384.2917779999999
 30
0.0
 11
281.958225
 21
390.6627159999999
 31
0.0
  0
ARC
  5
1B2
330
1E
100
AcDbEntity
  8
1
  6
Continuous
 62
     7
100
AcDbCircle
 10
287.480478
 20
390.365464
 30
0.0
 40
0.299999
100
AcDbArc
 50
26.64499799999999
 51
116.644553
  0
ARC
  5
1B3
330
1E
100
AcDbEntity
  8
1
  6
Continuous
 62
     7
100
AcDbCircle
 10
274.563462
 20
383.8845359999999
 30
0.0
 40
0.300002
100
AcDbArc
 50
116.644754
 51
206.644553
  0
LINE
  5
1B4
330
1E
100
AcDbEntity
  8
1
  6
Continuous
 62
     7
100
AcDbLine
 10
274.428924
 20
384.1526819999999
 30
0.0
 11
287.3459399999999
 21
390.63361
 31
0.0
  0
ARC
  5
1B5
330
1E
100
AcDbEntity
  8
1
  6
Continuous
 62
     7
100
AcDbCircle
 10
292.4488819999999
 20
390.403968
 30
0.0
 40
0.225002
100
AcDbArc
 50
25.26579899999999
 51
115.265799
  0
ARC
  5
1B6
330
1E
100
AcDbEntity
  8
1
  6
Continuous
 62
     7
100
AcDbCircle
 10
278.5540049999999
 20
383.8460339999999
 30
0.0
 40
0.225001
100
AcDbArc
 50
115.266053
 51
205.2657989999999
  0
LINE
  5
1B7
330
1E
100
AcDbEntity
  8
1
  6
Continuous
 62
     7
100
AcDbLine
 10
278.457971
 20
384.04951
 30
0.0
 11
292.3528469999999
 21
390.6074439999999
 31
0.0
  0
ARC
  5
1B8
330
1E
100
AcDbEntity
  8
1
  6
Continuous
 62
     7
100
AcDbCircle
 10
296.790207
 20
390.438589
 30
0.0
 40
0.149999
100
AcDbArc
 50
24.168557
 51
114.168235
  0
ARC
  5
1B9
330
1E
100
AcDbEntity
  8
1
  6
Continuous
 62
     7
100
AcDbCircle
 10
282.0224019999999
 20
383.811414
 30
0.0
 40
0.15
100
AcDbArc
 50
114.168563
 51
204.1690889999999
  0
LINE
  5
1BA
330
1E
100
AcDbEntity
  8
1
  6
Continuous
 62
     7
100
AcDbLine
 10
281.9609879999999
 20
383.9482659999999
 30
0.0
 11
296.7287949999999
 21
390.575441
 31
0.0
  0
LINE
  5
1BB
330
1E
100
AcDbEntity
  8
1
  6
Continuous
 62
     7
100
AcDbLine
 10
300.540193
 20
390.500002
 30
0.0
 11
284.873487
 21
383.75
 31
0.0
  0
LINE
  5
1BC
330
1E
100
AcDbEntity
  8
1
  6
Continuous
 62
     7
100
AcDbLine
 10
303.46426
 20
390.500002
 30
0.0
 11
300.347423
 21
389.1991249999999
 31
0.0
  0
ARC
  5
1BD
330
1E
100
AcDbEntity
  8
1
  6
Continuous
 62
     7
100
AcDbCircle
 10
290.278948
 20
384.22193
 30
0.0
 40
1.25
100
AcDbArc
 50
227.988896
 51
292.181551
  0
LINE
  5
1BE
330
1E
100
AcDbEntity
  8
1
  6
Continuous
 62
     7
100
AcDbLine
 10
305.677008
 20
390.500002
 30
0.0
 11
303.491715
 21
389.6090179999999
 31
0.0
  0
ARC
  5
1BF
330
1E
100
AcDbEntity
  8
1
  6
Continuous
 62
     7
100
AcDbCircle
 10
306.001596
 20
390.034276
 30
0.0
 40
1.249999
100
AcDbArc
 50
291.87484
 51
21.874894
  0
LINE
  5
1C0
330
1E
100
AcDbEntity
  8
1
  6
Continuous
 62
     7
100
AcDbLine
 10
305.766402
 20
389.9398479999999
 30
0.0
 11
307.161595
 21
390.500002
 31
0.0
  0
ARC
  5
1C1
330
1E
100
AcDbEntity
  8
1
  6
Continuous
 62
     7
100
AcDbCircle
 10
291.5091509999999
 20
384.2157259999999
 30
0.0
 40
1.249999
100
AcDbArc
 50
240.778928
 51
291.8749269999999
  0
LINE
  5
1C2
330
1E
100
AcDbEntity
  8
1
  6
Continuous
 62
     7
100
AcDbLine
 10
291.9748769999999
 20
383.0557269999999
 30
0.0
 11
306.46732
 21
388.874277
 31
0.0
  0
LINE
  5
1C3
330
1E
100
AcDbEntity
  8
1
  6
Continuous
 62
     7
100
AcDbLine
 10
307.239669
 20
390.2065359999999
 30
0.0
 11
312.999993
 21
392.5
 31
0.0
  0
LINE
  5
1C4
330
1E
100
AcDbEntity
  8
1
  6
Continuous
 62
     7
100
AcDbLine
 10
289.5895989999999
 20
383.179194
 30
0.0
 11
285.999995
 21
381.7499999999999
 31
0.0
  0
ARC
  5
1C5
330
1E
100
AcDbEntity
  8
1
  6
Continuous
 62
     7
100
AcDbCircle
 10
189.3870539999999
 20
389.4018319999999
 30
0.0
 40
1.25
100
AcDbArc
 50
28.533688
 51
208.5337759999999
  0
ARC
  5
1C6
330
1E
100
AcDbEntity
  8
1
  6
Continuous
 62
     7
100
AcDbCircle
 10
191.862961
 20
384.8481709999999
 30
0.0
 40
1.25
100
AcDbArc
 50
208.5337349999999
 51
28.533684
  0
LINE
  5
1C7
330
1E
100
AcDbEntity
  8
1
  6
Continuous
 62
     7
100
AcDbLine
 10
190.764794
 20
384.251072
 30
0.0
 11
188.288886
 21
388.8047339999999
 31
0.0
  0
LINE
  5
1C8
330
1E
100
AcDbEntity
  8
1
  6
Continuous
 62
     7
100
AcDbLine
 10
192.961134
 20
385.4452609999999
 30
0.0
 11
190.485227
 21
389.9989279999999
 31
0.0
  0
LINE
  5
1C9
330
1E
100
AcDbEntity
  8
1
  6
Continuous
 62
     7
100
AcDbLine
 10
183.879722
 20
383.99394
 30
0.0
 11
180.287526
 21
388.749145
 31
0.0
  0
LINE
  5
1CA
330
1E
100
AcDbEntity
  8
1
  6
Continuous
 62
     7
100
AcDbLine
 10
177.219151
 20
383.7848029999999
 30
0.0
 11
172.462456
 21
388.7325779999999
 31
0.0
  0
LINE
  5
1CB
330
1E
100
AcDbEntity
  8
1
  6
Continuous
 62
     7
100
AcDbLine
 10
170.815686
 20
383.619396
 30
0.0
 11
164.879097
 21
388.737062
 31
0.0
  0
ARC
  5
1CC
330
1E
100
AcDbEntity
  8
1
  6
Continuous
 62
     7
100
AcDbCircle
 10
181.284922
 20
389.5025999999999
 30
0.0
 40
1.249997999999999
100
AcDbArc
 50
127.0682909999999
 51
217.068196
  0
ARC
  5
1CD
330
1E
100
AcDbEntity
  8
1
  6
Continuous
 62
     7
100
AcDbCircle
 10
184.8771179999999
 20
384.747395
 30
0.0
 40
1.250004
100
AcDbArc
 50
217.068259
 51
307.06844
  0
ARC
  5
1CE
330
1E
100
AcDbEntity
  8
1
  6
Continuous
 62
     7
100
AcDbCircle
 10
184.952462
 20
384.6476559999999
 30
0.0
 40
1.125005999999999
100
AcDbArc
 50
307.0682479999999
 51
37.068216
  0
ARC
  5
1CF
330
1E
100
AcDbEntity
  8
1
  6
Continuous
 62
     7
100
AcDbCircle
 10
181.209575
 20
389.6023399999999
 30
0.0
 40
1.125000999999999
100
AcDbArc
 50
37.06827
 51
127.0682
  0
LINE
  5
1D0
330
1E
100
AcDbEntity
  8
1
  6
Continuous
 62
     7
100
AcDbLine
 10
185.85012
 20
385.3257669999999
 30
0.0
 11
182.107234
 21
390.280452
 31
0.0
  0
ARC
  5
1D1
330
1E
100
AcDbEntity
  8
1
  6
Continuous
 62
     7
100
AcDbCircle
 10
173.3635689999999
 20
389.598891
 30
0.0
 40
1.25
100
AcDbArc
 50
133.872157
 51
223.8719189999999
  0
ARC
  5
1D2
330
1E
100
AcDbEntity
  8
1
  6
Continuous
 62
     7
100
AcDbCircle
 10
178.1202659999999
 20
384.651113
 30
0.0
 40
1.25
100
AcDbArc
 50
223.871855
 51
313.871882
  0
ARC
  5
1D3
330
1E
100
AcDbEntity
  8
1
  6
Continuous
 62
     7
100
AcDbCircle
 10
173.190307
 20
389.779109
 30
0.0
 40
1.000002999999999
100
AcDbArc
 50
43.871998
 51
133.872052
  0
ARC
  5
1D4
330
1E
100
AcDbEntity
  8
1
  6
Continuous
 62
     7
100
AcDbCircle
 10
178.293529
 20
384.470888
 30
0.0
 40
1.0
100
AcDbArc
 50
313.872037
 51
43.872129
  0
LINE
  5
1D5
330
1E
100
AcDbEntity
  8
1
  6
Continuous
 62
     7
100
AcDbLine
 10
179.014419
 20
385.1639379999999
 30
0.0
 11
173.9111969999999
 21
390.4721589999999
 31
0.0
  0
ARC
  5
1D6
330
1E
100
AcDbEntity
  8
1
  6
Continuous
 62
     7
100
AcDbCircle
 10
165.695259
 20
389.6838359999999
 30
0.0
 40
1.25
100
AcDbArc
 50
139.236879
 51
229.2367739999999
  0
ARC
  5
1D7
330
1E
100
AcDbEntity
  8
1
  6
Continuous
 62
     7
100
AcDbCircle
 10
171.631851
 20
384.566167
 30
0.0
 40
1.25
100
AcDbArc
 50
229.236916
 51
319.236838
  0
ARC
  5
1D8
330
1E
100
AcDbEntity
  8
1
  6
Continuous
 62
     7
100
AcDbCircle
 10
165.4112279999999
 20
389.9286839999999
 30
0.0
 40
0.8750020000000001
100
AcDbArc
 50
49.236857
 51
139.236657
  0
ARC
  5
1D9
330
1E
100
AcDbEntity
  8
1
  6
Continuous
 62
     7
100
AcDbCircle
 10
171.915882
 20
384.321318
 30
0.0
 40
0.8749979999999998
100
AcDbArc
 50
319.2367509999999
 51
49.236857
  0
LINE
  5
1DA
330
1E
100
AcDbEntity
  8
1
  6
Continuous
 62
     7
100
AcDbLine
 10
172.4871949999999
 20
384.984058
 30
0.0
 11
165.9825459999999
 21
390.591423
 31
0.0
  0
ARC
  5
1DB
330
1E
100
AcDbEntity
  8
1
  6
Continuous
 62
     7
100
AcDbCircle
 10
158.349134
 20
389.755902
 30
0.0
 40
1.250000999999999
100
AcDbArc
 50
143.467388
 51
233.4673679999999
  0
ARC
  5
1DC
330
1E
100
AcDbEntity
  8
1
  6
Continuous
 62
     7
100
AcDbCircle
 10
165.4515909999999
 20
384.4941009999999
 30
0.0
 40
1.250000999999999
100
AcDbArc
 50
233.467349
 51
323.4673879999999
  0
LINE
  5
1DD
330
1E
100
AcDbEntity
  8
1
  6
Continuous
 62
     7
100
AcDbLine
 10
164.7074899999999
 20
383.489702
 30
0.0
 11
157.605033
 21
388.7515029999999
 31
0.0
  0
ARC
  5
1DE
330
1E
100
AcDbEntity
  8
1
  6
Continuous
 62
     7
100
AcDbCircle
 10
157.9473759999999
 20
390.053541
 30
0.0
 40
0.75
100
AcDbArc
 50
53.467501
 51
143.467388
  0
ARC
  5
1DF
330
1E
100
AcDbEntity
  8
1
  6
Continuous
 62
     7
100
AcDbCircle
 10
165.8533519999999
 20
384.19646
 30
0.0
 40
0.7499979999999999
100
AcDbArc
 50
323.4673879999999
 51
53.467492
  0
LINE
  5
1E0
330
1E
100
AcDbEntity
  8
1
  6
Continuous
 62
     7
100
AcDbLine
 10
166.29981
 20
384.799096
 30
0.0
 11
158.393837
 21
390.6561789999999
 31
0.0
  0
ARC
  5
1E1
330
1E
100
AcDbEntity
  8
1
  6
Continuous
 62
     7
100
AcDbCircle
 10
150.864518
 20
390.15796
 30
0.0
 40
0.6250010000000001
100
AcDbArc
 50
56.82034599999999
 51
146.8203459999999
  0
ARC
  5
1E2
330
1E
100
AcDbEntity
  8
1
  6
Continuous
 62
     7
100
AcDbCircle
 10
160.1414019999999
 20
384.0920409999999
 30
0.0
 40
0.624999
100
AcDbArc
 50
326.820272
 51
56.820368
  0
LINE
  5
1E3
330
1E
100
AcDbEntity
  8
1
  6
Continuous
 62
     7
100
AcDbLine
 10
160.4834419999999
 20
384.615139
 30
0.0
 11
151.206561
 21
390.681059
 31
0.0
  0
ARC
  5
1E4
330
1E
100
AcDbEntity
  8
1
  6
Continuous
 62
     7
100
AcDbCircle
 10
144.222973
 20
390.2461839999999
 30
0.0
 40
0.5000020000000001
100
AcDbArc
 50
59.49365400000001
 51
149.4936539999999
  0
ARC
  5
1E5
330
1E
100
AcDbEntity
  8
1
  6
Continuous
 62
     7
100
AcDbCircle
 10
154.8177259999999
 20
384.0038169999999
 30
0.0
 40
0.5000020000000001
100
AcDbArc
 50
329.493654
 51
59.49365400000001
  0
LINE
  5
1E6
330
1E
100
AcDbEntity
  8
1
  6
Continuous
 62
     7
100
AcDbLine
 10
155.071545
 20
384.4346039999999
 30
0.0
 11
144.4767919999999
 21
390.676972
 31
0.0
  0
ARC
  5
1E7
330
1E
100
AcDbEntity
  8
1
  6
Continuous
 62
     7
100
AcDbCircle
 10
137.852247
 20
390.310471
 30
0.0
 40
0.399999
100
AcDbArc
 50
61.717328
 51
151.717145
  0
ARC
  5
1E8
330
1E
100
AcDbEntity
  8
1
  6
Continuous
 62
     7
100
AcDbCircle
 10
149.692854
 20
383.9395299999999
 30
0.0
 40
0.400001
100
AcDbArc
 50
331.717053
 51
61.71707700000001
  0
LINE
  5
1E9
330
1E
100
AcDbEntity
  8
1
  6
Continuous
 62
     7
100
AcDbLine
 10
149.882384
 20
384.2917779999999
 30
0.0
 11
138.041775
 21
390.6627159999999
 31
0.0
  0
ARC
  5
1EA
330
1E
100
AcDbEntity
  8
1
  6
Continuous
 62
     7
100
AcDbCircle
 10
132.5195219999999
 20
390.365464
 30
0.0
 40
0.299999
100
AcDbArc
 50
63.355447
 51
153.355002
  0
ARC
  5
1EB
330
1E
100
AcDbEntity
  8
1
  6
Continuous
 62
     7
100
AcDbCircle
 10
145.4365379999999
 20
383.8845359999999
 30
0.0
 40
0.300002
100
AcDbArc
 50
333.355447
 51
63.35524599999999
  0
LINE
  5
1EC
330
1E
100
AcDbEntity
  8
1
  6
Continuous
 62
     7
100
AcDbLine
 10
145.571076
 20
384.1526819999999
 30
0.0
 11
132.65406
 21
390.63361
 31
0.0
  0
ARC
  5
1ED
330
1E
100
AcDbEntity
  8
1
  6
Continuous
 62
     7
100
AcDbCircle
 10
127.5511179999999
 20
390.403968
 30
0.0
 40
0.225002
100
AcDbArc
 50
64.734201
 51
154.734201
  0
ARC
  5
1EE
330
1E
100
AcDbEntity
  8
1
  6
Continuous
 62
     7
100
AcDbCircle
 10
141.4459949999999
 20
383.8460339999999
 30
0.0
 40
0.225001
100
AcDbArc
 50
334.7342009999999
 51
64.733947
  0
LINE
  5
1EF
330
1E
100
AcDbEntity
  8
1
  6
Continuous
 62
     7
100
AcDbLine
 10
141.542029
 20
384.04951
 30
0.0
 11
127.647153
 21
390.6074439999999
 31
0.0
  0
ARC
  5
1F0
330
1E
100
AcDbEntity
  8
1
  6
Continuous
 62
     7
100
AcDbCircle
 10
123.2097929999999
 20
390.438589
 30
0.0
 40
0.149999
100
AcDbArc
 50
65.831765
 51
155.831443
  0
ARC
  5
1F1
330
1E
100
AcDbEntity
  8
1
  6
Continuous
 62
     7
100
AcDbCircle
 10
137.977598
 20
383.811414
 30
0.0
 40
0.15
100
AcDbArc
 50
335.830911
 51
65.83143699999999
  0
LINE
  5
1F2
330
1E
100
AcDbEntity
  8
1
  6
Continuous
 62
     7
100
AcDbLine
 10
138.039012
 20
383.9482659999999
 30
0.0
 11
123.271205
 21
390.575441
 31
0.0
  0
LINE
  5
1F3
330
1E
100
AcDbEntity
  8
1
  6
Continuous
 62
     7
100
AcDbLine
 10
119.459807
 20
390.500002
 30
0.0
 11
135.1265129999999
 21
383.75
 31
0.0
  0
LINE
  5
1F4
330
1E
100
AcDbEntity
  8
1
  6
Continuous
 62
     7
100
AcDbLine
 10
116.5357399999999
 20
390.500002
 30
0.0
 11
119.652577
 21
389.1991249999999
 31
0.0
  0
ARC
  5
1F5
330
1E
100
AcDbEntity
  8
1
  6
Continuous
 62
     7
100
AcDbCircle
 10
129.721052
 20
384.22193
 30
0.0
 40
1.25
100
AcDbArc
 50
247.818449
 51
312.0111039999999
  0
LINE
  5
1F6
330
1E
100
AcDbEntity
  8
1
  6
Continuous
 62
     7
100
AcDbLine
 10
114.322992
 20
390.500002
 30
0.0
 11
116.508285
 21
389.6090179999999
 31
0.0
  0
ARC
  5
1F7
330
1E
100
AcDbEntity
  8
1
  6
Continuous
 62
     7
100
AcDbCircle
 10
113.998404
 20
390.034276
 30
0.0
 40
1.249999
100
AcDbArc
 50
158.125106
 51
248.1251599999999
  0
LINE
  5
1F8
330
1E
100
AcDbEntity
  8
1
  6
Continuous
 62
     7
100
AcDbLine
 10
114.233598
 20
389.9398479999999
 30
0.0
 11
112.838405
 21
390.500002
 31
0.0
  0
ARC
  5
1F9
330
1E
100
AcDbEntity
  8
1
  6
Continuous
 62
     7
100
AcDbCircle
 10
128.490849
 20
384.2157259999999
 30
0.0
 40
1.249999
100
AcDbArc
 50
248.125073
 51
299.221072
  0
LINE
  5
1FA
330
1E
100
AcDbEntity
  8
1
  6
Continuous
 62
     7
100
AcDbLine
 10
128.025123
 20
383.0557269999999
 30
0.0
 11
113.53268
 21
388.874277
 31
0.0
  0
LINE
  5
1FB
330
1E
100
AcDbEntity
  8
1
  6
Continuous
 62
     7
100
AcDbLine
 10
112.760331
 20
390.2065359999999
 30
0.0
 11
107.000007
 21
392.5
 31
0.0
  0
LINE
  5
1FC
330
1E
100
AcDbEntity
  8
1
  6
Continuous
 62
     7
100
AcDbLine
 10
130.410401
 20
383.179194
 30
0.0
 11
134.000005
 21
381.7499999999999
 31
0.0
  0
ARC
  5
1FD
330
1E
100
AcDbEntity
  8
1
  6
Continuous
 62
     7
100
AcDbCircle
 10
288.445118
 20
384.231449
 30
0.0
 40
1.249967
100
AcDbArc
 50
216.202004
 51
292.6541949999999
  0
LINE
  5
1FE
330
1E
100
AcDbEntity
  8
1
  6
Continuous
 62
     7
100
AcDbLine
 10
288.926607
 20
383.077903
 30
0.0
 11
302.792164
 21
388.8649839999999
 31
0.0
  0
ARC
  5
1FF
330
1E
100
AcDbEntity
  8
1
  6
Continuous
 62
     7
100
AcDbCircle
 10
302.3107029999999
 20
390.018541
 30
0.0
 40
1.25
100
AcDbArc
 50
292.654236
 51
22.65423599999999
  0
LINE
  5
200
330
1E
100
AcDbEntity
  8
1
  6
Continuous
 62
     7
100
AcDbLine
 10
286.516076
 20
383.096624
 30
0.0
 11
299.886818
 21
388.857411
 31
0.0
  0
ARC
  5
201
330
1E
100
AcDbEntity
  8
1
  6
Continuous
 62
     7
100
AcDbCircle
 10
286.021468
 20
384.2446069999999
 30
0.0
 40
1.249997999999999
100
AcDbArc
 50
203.3087999999999
 51
293.3087899999999
  0
ARC
  5
202
330
1E
100
AcDbEntity
  8
1
  6
Continuous
 62
     7
100
AcDbCircle
 10
299.3922089999999
 20
390.005393
 30
0.0
 40
1.25
100
AcDbArc
 50
293.308798
 51
23.3088
  0
LINE
  5
203
330
1E
100
AcDbEntity
  8
1
  6
Continuous
 62
     7
100
AcDbLine
 10
283.5377589999999
 20
383.121349
 30
0.0
 11
296.298402
 21
388.847794
 31
0.0
  0
ARC
  5
204
330
1E
100
AcDbEntity
  8
1
  6
Continuous
 62
     7
100
AcDbCircle
 10
295.7866259999999
 20
389.988224
 30
0.0
 40
1.250000999999999
100
AcDbArc
 50
294.1685569999999
 51
24.168557
  0
ARC
  5
205
330
1E
100
AcDbEntity
  8
1
  6
Continuous
 62
     7
100
AcDbCircle
 10
283.025982
 20
384.2617789999999
 30
0.0
 40
1.249997999999999
100
AcDbArc
 50
204.1685569999999
 51
294.1685569999999
  0
LINE
  5
206
330
1E
100
AcDbEntity
  8
1
  6
Continuous
 62
     7
100
AcDbLine
 10
280.0144729999999
 20
383.153099
 30
0.0
 11
292.05546
 21
388.8360549999999
 31
0.0
  0
ARC
  5
207
330
1E
100
AcDbEntity
  8
1
  6
Continuous
 62
     7
100
AcDbCircle
 10
279.4809499999999
 20
384.2835219999999
 30
0.0
 40
1.250002
100
AcDbArc
 50
205.2657989999999
 51
295.2657879999999
  0
ARC
  5
208
330
1E
100
AcDbEntity
  8
1
  6
Continuous
 62
     7
100
AcDbCircle
 10
291.521936
 20
389.966479
 30
0.0
 40
1.250002
100
AcDbArc
 50
295.2657249999999
 51
25.26579899999999
  0
LINE
  5
209
330
1E
100
AcDbEntity
  8
1
  6
Continuous
 62
     7
100
AcDbLine
 10
275.9731459999999
 20
383.193312
 30
0.0
 11
287.1919299999999
 21
388.8221749999999
 31
0.0
  0
ARC
  5
20A
330
1E
100
AcDbEntity
  8
1
  6
Continuous
 62
     7
100
AcDbCircle
 10
275.4125789999999
 20
384.3105679999999
 30
0.0
 40
1.25
100
AcDbArc
 50
206.644553
 51
296.644573
  0
ARC
  5
20B
330
1E
100
AcDbEntity
  8
1
  6
Continuous
 62
     7
100
AcDbCircle
 10
286.631362
 20
389.939432
 30
0.0
 40
1.249999
100
AcDbArc
 50
296.6445419999999
 51
26.644553
  0
LINE
  5
20C
330
1E
100
AcDbEntity
  8
1
  6
Continuous
 62
     7
100
AcDbLine
 10
271.6479529999999
 20
383.241508
 30
0.0
 11
281.9915069999999
 21
388.806945
 31
0.0
  0
ARC
  5
20D
330
1E
100
AcDbEntity
  8
1
  6
Continuous
 62
     7
100
AcDbCircle
 10
271.055672
 20
384.342281
 30
0.0
 40
1.249999
100
AcDbArc
 50
208.282855
 51
298.2828549999999
  0
ARC
  5
20E
330
1E
100
AcDbEntity
  8
1
  6
Continuous
 62
     7
100
AcDbCircle
 10
281.399226
 20
389.9077189999999
 30
0.0
 40
1.25
100
AcDbArc
 50
298.2828599999999
 51
28.28285499999999
  0
LINE
  5
20F
330
1E
100
AcDbEntity
  8
1
  6
Continuous
 62
     7
100
AcDbLine
 10
266.4629959999999
 20
383.307573
 30
0.0
 11
275.7653899999999
 21
388.7884899999999
 31
0.0
  0
ARC
  5
210
330
1E
100
AcDbEntity
  8
1
  6
Continuous
 62
     7
100
AcDbCircle
 10
265.8284529999999
 20
384.384542
 30
0.0
 40
1.250002
100
AcDbArc
 50
210.506346
 51
300.506346
  0
ARC
  5
211
330
1E
100
AcDbEntity
  8
1
  6
Continuous
 62
     7
100
AcDbCircle
 10
275.130846
 20
389.865458
 30
0.0
 40
1.250002999999999
100
AcDbArc
 50
300.5064059999999
 51
30.506346
  0
LINE
  5
212
330
1E
100
AcDbEntity
  8
1
  6
Continuous
 62
     7
100
AcDbLine
 10
261.065781
 20
383.387884
 30
0.0
 11
269.296466
 21
388.76972
 31
0.0
  0
ARC
  5
213
330
1E
100
AcDbEntity
  8
1
  6
Continuous
 62
     7
100
AcDbCircle
 10
260.3816979999999
 20
384.434083
 30
0.0
 40
1.25
100
AcDbArc
 50
213.1796539999999
 51
303.1796539999999
  0
ARC
  5
214
330
1E
100
AcDbEntity
  8
1
  6
Continuous
 62
     7
100
AcDbCircle
 10
268.612383
 20
389.815919
 30
0.0
 40
1.250000999999999
100
AcDbArc
 50
303.1796229999999
 51
33.179654
  0
ARC
  5
215
330
1E
100
AcDbEntity
  8
1
  6
Continuous
 62
     7
100
AcDbCircle
 10
131.554882
 20
384.231449
 30
0.0
 40
1.249967
100
AcDbArc
 50
247.345805
 51
323.797996
  0
LINE
  5
216
330
1E
100
AcDbEntity
  8
1
  6
Continuous
 62
     7
100
AcDbLine
 10
131.0733929999999
 20
383.077903
 30
0.0
 11
117.207836
 21
388.8649839999999
 31
0.0
  0
ARC
  5
217
330
1E
100
AcDbEntity
  8
1
  6
Continuous
 62
     7
100
AcDbCircle
 10
117.6892969999999
 20
390.018541
 30
0.0
 40
1.25
100
AcDbArc
 50
157.3457639999999
 51
247.3457639999999
  0
LINE
  5
218
330
1E
100
AcDbEntity
  8
1
  6
Continuous
 62
     7
100
AcDbLine
 10
133.4839239999999
 20
383.096624
 30
0.0
 11
120.113182
 21
388.857411
 31
0.0
  0
ARC
  5
219
330
1E
100
AcDbEntity
  8
1
  6
Continuous
 62
     7
100
AcDbCircle
 10
133.978532
 20
384.2446069999999
 30
0.0
 40
1.249997999999999
100
AcDbArc
 50
246.69121
 51
336.6911999999999
  0
ARC
  5
21A
330
1E
100
AcDbEntity
  8
1
  6
Continuous
 62
     7
100
AcDbCircle
 10
120.6077909999999
 20
390.005393
 30
0.0
 40
1.25
100
AcDbArc
 50
156.6912
 51
246.691202
  0
LINE
  5
21B
330
1E
100
AcDbEntity
  8
1
  6
Continuous
 62
     7
100
AcDbLine
 10
136.4622409999999
 20
383.121349
 30
0.0
 11
123.701598
 21
388.847794
 31
0.0
  0
ARC
  5
21C
330
1E
100
AcDbEntity
  8
1
  6
Continuous
 62
     7
100
AcDbCircle
 10
124.213374
 20
389.988224
 30
0.0
 40
1.250000999999999
100
AcDbArc
 50
155.831443
 51
245.831443
  0
ARC
  5
21D
330
1E
100
AcDbEntity
  8
1
  6
Continuous
 62
     7
100
AcDbCircle
 10
136.9740179999999
 20
384.2617789999999
 30
0.0
 40
1.249997999999999
100
AcDbArc
 50
245.831443
 51
335.831443
  0
LINE
  5
21E
330
1E
100
AcDbEntity
  8
1
  6
Continuous
 62
     7
100
AcDbLine
 10
139.9855269999999
 20
383.153099
 30
0.0
 11
127.9445399999999
 21
388.8360549999999
 31
0.0
  0
ARC
  5
21F
330
1E
100
AcDbEntity
  8
1
  6
Continuous
 62
     7
100
AcDbCircle
 10
140.5190499999999
 20
384.2835219999999
 30
0.0
 40
1.250002
100
AcDbArc
 50
244.734212
 51
334.7342009999999
  0
ARC
  5
220
330
1E
100
AcDbEntity
  8
1
  6
Continuous
 62
     7
100
AcDbCircle
 10
128.4780639999999
 20
389.966479
 30
0.0
 40
1.250002
100
AcDbArc
 50
154.734201
 51
244.734275
  0
LINE
  5
221
330
1E
100
AcDbEntity
  8
1
  6
Continuous
 62
     7
100
AcDbLine
 10
144.026854
 20
383.193312
 30
0.0
 11
132.8080699999999
 21
388.8221749999999
 31
0.0
  0
ARC
  5
222
330
1E
100
AcDbEntity
  8
1
  6
Continuous
 62
     7
100
AcDbCircle
 10
144.587421
 20
384.3105679999999
 30
0.0
 40
1.25
100
AcDbArc
 50
243.355427
 51
333.355447
  0
ARC
  5
223
330
1E
100
AcDbEntity
  8
1
  6
Continuous
 62
     7
100
AcDbCircle
 10
133.3686379999999
 20
389.939432
 30
0.0
 40
1.249999
100
AcDbArc
 50
153.355447
 51
243.355458
  0
LINE
  5
224
330
1E
100
AcDbEntity
  8
1
  6
Continuous
 62
     7
100
AcDbLine
 10
148.352047
 20
383.241508
 30
0.0
 11
138.0084929999999
 21
388.806945
 31
0.0
  0
ARC
  5
225
330
1E
100
AcDbEntity
  8
1
  6
Continuous
 62
     7
100
AcDbCircle
 10
148.944328
 20
384.342281
 30
0.0
 40
1.249999
100
AcDbArc
 50
241.717145
 51
331.717145
  0
ARC
  5
226
330
1E
100
AcDbEntity
  8
1
  6
Continuous
 62
     7
100
AcDbCircle
 10
138.6007739999999
 20
389.9077189999999
 30
0.0
 40
1.25
100
AcDbArc
 50
151.717145
 51
241.71714
  0
LINE
  5
227
330
1E
100
AcDbEntity
  8
1
  6
Continuous
 62
     7
100
AcDbLine
 10
153.537004
 20
383.307573
 30
0.0
 11
144.2346099999999
 21
388.7884899999999
 31
0.0
  0
ARC
  5
228
330
1E
100
AcDbEntity
  8
1
  6
Continuous
 62
     7
100
AcDbCircle
 10
154.1715469999999
 20
384.384542
 30
0.0
 40
1.250002
100
AcDbArc
 50
239.493654
 51
329.493654
  0
ARC
  5
229
330
1E
100
AcDbEntity
  8
1
  6
Continuous
 62
     7
100
AcDbCircle
 10
144.869154
 20
389.865458
 30
0.0
 40
1.250002999999999
100
AcDbArc
 50
149.4936539999999
 51
239.4935939999999
  0
LINE
  5
22A
330
1E
100
AcDbEntity
  8
1
  6
Continuous
 62
     7
100
AcDbLine
 10
158.9342189999999
 20
383.387884
 30
0.0
 11
150.703534
 21
388.76972
 31
0.0
  0
ARC
  5
22B
330
1E
100
AcDbEntity
  8
1
  6
Continuous
 62
     7
100
AcDbCircle
 10
159.6183019999999
 20
384.434083
 30
0.0
 40
1.25
100
AcDbArc
 50
236.820346
 51
326.820346
  0
ARC
  5
22C
330
1E
100
AcDbEntity
  8
1
  6
Continuous
 62
     7
100
AcDbCircle
 10
151.387617
 20
389.815919
 30
0.0
 40
1.250000999999999
100
AcDbArc
 50
146.8203459999999
 51
236.820377
  0
LINE
  5
22D
330
1E
100
AcDbEntity
  8
1
  6
Continuous
 62
     7
100
AcDbLine
 10
129.249121
 20
383.0644369999999
 30
0.0
 11
115.008552
 21
388.8705799999999
 31
0.0
  0
ARC
  5
22E
330
1E
100
AcDbEntity
  8
1
  6
Continuous
 62
     7
100
AcDbCircle
 10
115.480483
 20
390.0280719999999
 30
0.0
 40
1.250002
100
AcDbArc
 50
157.818374
 51
247.818347
  0
LINE
  5
22F
330
1E
100
AcDbEntity
  8
1
  6
Continuous
 62
     7
100
AcDbLine
 10
290.7508789999999
 20
383.0644369999999
 30
0.0
 11
304.9914479999999
 21
388.8705799999999
 31
0.0
  0
ARC
  5
230
330
1E
100
AcDbEntity
  8
1
  6
Continuous
 62
     7
100
AcDbCircle
 10
304.5195169999999
 20
390.0280719999999
 30
0.0
 40
1.250002
100
AcDbArc
 50
292.181653
 51
22.181626
  0
LINE
  5
231
330
1E
100
AcDbEntity
  8
1
  6
Continuous
 62
     7
100
AcDbLine
 10
195.0
 20
390.5
 30
0.0
 11
195.0
 21
385.969571
 31
0.0
  0
LINE
  5
232
330
1E
100
AcDbEntity
  8
1
  6
Continuous
 62
     7
100
AcDbLine
 10
195.0
 20
385.969571
 30
0.0
 11
225.0
 21
385.969571
 31
0.0
  0
LINE
  5
233
330
1E
100
AcDbEntity
  8
1
  6
Continuous
 62
     7
100
AcDbLine
 10
225.0
 20
385.969571
 30
0.0
 11
225.0
 21
390.5
 31
0.0
  0
LINE
  5
234
330
1E
100
AcDbEntity
  8
1
  6
Continuous
 62
     7
100
AcDbLine
 10
225.0
 20
390.5
 30
0.0
 11
195.0
 21
390.5
 31
0.0
  0
ARC
  5
235
330
1E
100
AcDbEntity
  8
1
  6
Continuous
 62
     7
100
AcDbCircle
 10
221.305992
 20
385.969571
 30
0.0
 40
1.315488999999999
100
AcDbArc
 50
180.0
 51
0.0
  0
ARC
  5
236
330
1E
100
AcDbEntity
  8
1
  6
Continuous
 62
     7
100
AcDbCircle
 10
220.9676529999999
 20
384.937772
 30
0.0
 40
1.25
100
AcDbArc
 50
161.845111
 51
341.8451279999999
  0
LINE
  5
237
330
1E
100
AcDbEntity
  8
1
  6
Continuous
 62
     7
100
AcDbLine
 10
219.7798789999999
 20
385.3272569999999
 30
0.0
 11
219.990503
 21
385.969571
 31
0.0
  0
LINE
  5
238
330
1E
100
AcDbEntity
  8
1
  6
Continuous
 62
     7
100
AcDbLine
 10
222.155426
 20
384.548288
 30
0.0
 11
222.366047
 21
385.1906009999999
 31
0.0
  0
ARC
  5
239
330
1E
100
AcDbEntity
  8
1
  6
Continuous
 62
     7
100
AcDbCircle
 10
213.7782479999999
 20
385.969571
 30
0.0
 40
1.257482999999999
100
AcDbArc
 50
180.0
 51
0.0
  0
ARC
  5
23A
330
1E
100
AcDbEntity
  8
1
  6
Continuous
 62
     7
100
AcDbCircle
 10
213.6711859999999
 20
384.992562
 30
0.0
 40
1.25
100
AcDbArc
 50
173.7463939999999
 51
353.746373
  0
LINE
  5
23B
330
1E
100
AcDbEntity
  8
1
  6
Continuous
 62
     7
100
AcDbLine
 10
212.4286239999999
 20
385.128725
 30
0.0
 11
212.5207649999999
 21
385.969571
 31
0.0
  0
LINE
  5
23C
330
1E
100
AcDbEntity
  8
1
  6
Continuous
 62
     7
100
AcDbLine
 10
214.9137479999999
 20
384.8564
 30
0.0
 11
215.005889
 21
385.697243
 31
0.0
  0
ARC
  5
23D
330
1E
100
AcDbEntity
  8
1
  6
Continuous
 62
     7
100
AcDbCircle
 10
198.694008
 20
385.969571
 30
0.0
 40
1.315488999999999
100
AcDbArc
 50
180.0
 51
0.0
  0
ARC
  5
23E
330
1E
100
AcDbEntity
  8
1
  6
Continuous
 62
     7
100
AcDbCircle
 10
199.0323469999999
 20
384.937772
 30
0.0
 40
1.25
100
AcDbArc
 50
198.1548719999999
 51
18.154889
  0
LINE
  5
23F
330
1E
100
AcDbEntity
  8
1
  6
Continuous
 62
     7
100
AcDbLine
 10
200.2201209999999
 20
385.3272569999999
 30
0.0
 11
200.009497
 21
385.969571
 31
0.0
  0
LINE
  5
240
330
1E
100
AcDbEntity
  8
1
  6
Continuous
 62
     7
100
AcDbLine
 10
197.8445739999999
 20
384.548288
 30
0.0
 11
197.6339529999999
 21
385.1906009999999
 31
0.0
  0
ARC
  5
241
330
1E
100
AcDbEntity
  8
1
  6
Continuous
 62
     7
100
AcDbCircle
 10
206.2217519999999
 20
385.969571
 30
0.0
 40
1.257482999999999
100
AcDbArc
 50
180.0
 51
0.0
  0
ARC
  5
242
330
1E
100
AcDbEntity
  8
1
  6
Continuous
 62
     7
100
AcDbCircle
 10
206.328814
 20
384.992562
 30
0.0
 40
1.25
100
AcDbArc
 50
186.2536269999999
 51
6.253605999999999
  0
LINE
  5
243
330
1E
100
AcDbEntity
  8
1
  6
Continuous
 62
     7
100
AcDbLine
 10
207.571376
 20
385.128725
 30
0.0
 11
207.479235
 21
385.969571
 31
0.0
  0
LINE
  5
244
330
1E
100
AcDbEntity
  8
1
  6
Continuous
 62
     7
100
AcDbLine
 10
205.0862519999999
 20
384.8564
 30
0.0
 11
204.994111
 21
385.697243
 31
0.0
  0
LINE
  5
251
330
1E
100
AcDbEntity
  8
0
100
AcDbLine
 10
303.9053282321626
 20
31.99999999999999
 30
0.0
 11
381.513917122361
 21
31.99999999999997
 31
0.0
  0
LINE
  5
252
330
1E
100
AcDbEntity
  8
0
100
AcDbLine
 10
303.9053282321626
 20
238.0
 30
0.0
 11
381.5139171223611
 21
237.9999999999999
 31
0.0
  0
LINE
  5
253
330
1E
100
AcDbEntity
  8
0
100
AcDbLine
 10
381.513917122361
 20
32.99999999999997
 30
0.0
 11
381.5139171223611
 21
134.8199999999999
 31
0.0
  0
LINE
  5
254
330
1E
100
AcDbEntity
  8
0
100
AcDbLine
 10
381.5139171223611
 20
236.9999999999999
 30
0.0
 11
381.5139171223611
 21
135.1799999999999
 31
0.0
  0
SOLID
  5
255
330
1E
100
AcDbEntity
  8
0
100
AcDbTrace
 10
381.3472504556944
 20
32.99999999999997
 30
0.0
 11
381.6805837890277
 21
32.99999999999997
 31
0.0
 12
381.513917122361
 22
31.99999999999997
 32
0.0
 13
381.513917122361
 23
31.99999999999997
 33
0.0
  0
SOLID
  5
256
330
1E
100
AcDbEntity
  8
0
100
AcDbTrace
 10
381.3472504556944
 20
236.9999999999999
 30
0.0
 11
381.6805837890278
 21
236.9999999999999
 31
0.0
 12
381.5139171223611
 22
237.9999999999999
 32
0.0
 13
381.5139171223611
 23
237.9999999999999
 33
0.0
  0
MTEXT
  5
257
330
1E
100
AcDbEntity
  8
0
100
AcDbMText
 10
376.8709287917451
 20
135.0
 30
0.0
 40
5.0
 41
0.0
 71
     5
 72
     1
  1
{\Ftxt.shx,bigfont.shx;206}
 11
0.0000000000000001
 21
1.0
 31
0.0
 73
     1
 44
1.0
  0
LINE
  5
258
330
1E
100
AcDbEntity
  8
0
100
AcDbLine
 10
317.7860581648412
 20
307.0
 30
0.0
 11
349.1558582768809
 21
307.0
 31
0.0
  0
LINE
  5
259
330
1E
100
AcDbEntity
  8
0
100
AcDbLine
 10
317.7860581648412
 20
400.0
 30
0.0
 11
349.155858276881
 21
400.0
 31
0.0
  0
LINE
  5
25A
330
1E
100
AcDbEntity
  8
0
100
AcDbLine
 10
349.1558582768809
 20
308.0
 30
0.0
 11
349.1558582768809
 21
353.3199999999999
 31
0.0
  0
LINE
  5
25B
330
1E
100
AcDbEntity
  8
0
100
AcDbLine
 10
349.155858276881
 20
399.0
 30
0.0
 11
349.1558582768809
 21
353.6799999999999
 31
0.0
  0
SOLID
  5
25C
330
1E
100
AcDbEntity
  8
0
100
AcDbTrace
 10
348.9891916102142
 20
308.0
 30
0.0
 11
349.3225249435476
 21
308.0
 31
0.0
 12
349.1558582768809
 22
307.0
 32
0.0
 13
349.1558582768809
 23
307.0
 33
0.0
  0
SOLID
  5
25D
330
1E
100
AcDbEntity
  8
0
100
AcDbTrace
 10
348.9891916102143
 20
399.0
 30
0.0
 11
349.3225249435476
 21
399.0
 31
0.0
 12
349.155858276881
 22
400.0
 32
0.0
 13
349.155858276881
 23
400.0
 33
0.0
  0
MTEXT
  5
25E
330
1E
100
AcDbEntity
  8
0
100
AcDbMText
 10
345.1267429484516
 20
353.5
 30
0.0
 40
5.0
 41
0.0
 71
     5
 72
     1
  1
{\Ftxt.shx,bigfont.shx;93}
 11
0.0000000000000001
 21
1.0
 31
0.0
 73
     1
 44
1.0
  0
LINE
  5
25F
330
1E
100
AcDbEntity
  8
0
100
AcDbLine
 10
317.7860581648412
 20
307.0
 30
0.0
 11
381.5139171223611
 21
307.0
 31
0.0
  0
LINE
  5
260
330
1E
100
AcDbEntity
  8
0
100
AcDbLine
 10
317.7860581648412
 20
545.0
 30
0.0
 11
381.5139171223611
 21
545.0
 31
0.0
  0
LINE
  5
261
330
1E
100
AcDbEntity
  8
0
100
AcDbLine
 10
381.5139171223611
 20
308.0
 30
0.0
 11
381.5139171223611
 21
425.82
 31
0.0
  0
LINE
  5
262
330
1E
100
AcDbEntity
  8
0
100
AcDbLine
 10
381.5139171223611
 20
544.0
 30
0.0
 11
381.5139171223611
 21
426.18
 31
0.0
  0
SOLID
  5
263
330
1E
100
AcDbEntity
  8
0
100
AcDbTrace
 10
381.3472504556944
 20
308.0
 30
0.0
 11
381.6805837890278
 21
308.0
 31
0.0
 12
381.5139171223611
 22
307.0
 32
0.0
 13
381.5139171223611
 23
307.0
 33
0.0
  0
SOLID
  5
264
330
1E
100
AcDbEntity
  8
0
100
AcDbTrace
 10
381.3472504556944
 20
544.0
 30
0.0
 11
381.6805837890278
 21
544.0
 31
0.0
 12
381.5139171223611
 22
545.0
 32
0.0
 13
381.5139171223611
 23
545.0
 33
0.0
  0
MTEXT
  5
265
330
1E
100
AcDbEntity
  8
0
100
AcDbMText
 10
376.9436129207208
 20
426.0000000000001
 30
0.0
 40
5.0
 41
0.0
 71
     5
 72
     1
  1
{\Ftxt.shx,bigfont.shx;238}
 11
0.0000000000000001
 21
1.0
 31
0.0
 73
     1
 44
1.0
  0
ENDSEC
  0
SECTION
  2
OBJECTS
  0
DICTIONARY
  5
C
330
0
100
AcDbDictionary
281
     1
  3
ACAD_GROUP
350
D
  3
ACAD_PLOTSTYLENAME
350
E
  3
ACAD_MLINESTYLE
350
16
  3
ACAD_PLOTSETTINGS
350
18
  3
ACAD_LAYOUT
350
19
  0
DICTIONARY
  5
D
102
{ACAD_REACTORS
330
C
102
}
330
C
100
AcDbDictionary
281
     1
  0
ACDBDICTIONARYWDFLT
  5
E
102
{ACAD_REACTORS
330
C
102
}
330
C
100
AcDbDictionary
281
     1
  3
Normal
350
F
100
AcDbDictionaryWithDefault
340
F
  0
DICTIONARY
  5
16
102
{ACAD_REACTORS
330
C
102
}
330
C
100
AcDbDictionary
281
     1
  3
Standard
350
17
  0
DICTIONARY
  5
18
102
{ACAD_REACTORS
330
C
102
}
330
C
100
AcDbDictionary
281
     1
  0
DICTIONARY
  5
19
102
{ACAD_REACTORS
330
C
102
}
330
C
100
AcDbDictionary
281
     1
  3
ﾚｲｱｳﾄ1
350
1D
  3
Model
350
21
  0
ACDBPLACEHOLDER
  5
F
102
{ACAD_REACTORS
330
E
102
}
330
E
  0
MLINESTYLE
  5
17
102
{ACAD_REACTORS
330
16
102
}
330
16
100
AcDbMlineStyle
  2
STANDARD
 70
     0
  3

 62
   256
 51
90.0
 52
90.0
 71
     2
 49
0.5
 62
   256
  6
BYLAYER
 49
-0.5
 62
   256
  6
BYLAYER
  0
LAYOUT
  5
1D
102
{ACAD_REACTORS
330
19
102
}
330
19
100
AcDbPlotSettings
  1

  2
自動 Canon LASER SHOT LBP-1820 (merit 上)
  4

  6

 40
0.0
 41
0.0
 42
0.0
 43
0.0
 44
0.0
 45
0.0
 46
0.0
 47
0.0
 48
0.0
 49
0.0
140
0.0
141
0.0
142
1.0
143
1.0
 70
   688
 72
     0
 73
     0
 74
     5
  7

 75
    16
147
1.0
148
0.0
149
0.0
100
AcDbLayout
  1
ﾚｲｱｳﾄ1
 70
     1
 71
     1
 10
0.0
 20
0.0
 11
12.0
 21
9.0
 12
0.0
 22
0.0
 32
0.0
 14
0.0
 24
0.0
 34
0.0
 15
210.0
 25
297.0
 35
0.0
146
0.0
 13
0.0
 23
0.0
 33
0.0
 16
1.0
 26
0.0
 36
0.0
 17
0.0
 27
1.0
 37
0.0
 76
     0
330
1A
  0
LAYOUT
  5
21
102
{ACAD_REACTORS
330
19
102
}
330
19
100
AcDbPlotSettings
  1

  2
自動 Canon LASER SHOT LBP-1820 (merit 上)
  4

  6

 40
0.0
 41
0.0
 42
0.0
 43
0.0
 44
0.0
 45
0.0
 46
0.0
 47
0.0
 48
0.0
 49
0.0
140
0.0
141
0.0
142
1.0
143
1.0
 70
  1712
 72
     0
 73
     0
 74
     0
  7

 75
     0
147
1.0
148
0.0
149
0.0
100
AcDbLayout
  1
Model
 70
     1
 71
     0
 10
0.0
 20
0.0
 11
12.0
 21
9.0
 12
0.0
 22
0.0
 32
0.0
 14
0.0
 24
0.0
 34
0.0
 15
0.0
 25
0.0
 35
0.0
146
0.0
 13
0.0
 23
0.0
 33
0.0
 16
1.0
 26
0.0
 36
0.0
 17
0.0
 27
1.0
 37
0.0
 76
     0
330
1E
  0
ENDSEC
  0
EOF
