  0
SECTION
  2
HEADER
  9
$ACADVER
  1
AC1015
  9
$ACADMAINTVER
 70
     6
  9
$DWGCODEPAGE
  3
ANSI_932
  9
$INSBASE
 10
0.0
 20
0.0
 30
0.0
  9
$EXTMIN
 10
14.95459919016809
 20
52.26106845256705
 30
-0.00000001
  9
$EXTMAX
 10
173.6410807291665
 20
135.5394614777968
 30
0.00000001
  9
$LIMMIN
 10
12.17238362630208
 20
5.028116861979166
  9
$LIMMAX
 10
196.3504611545138
 20
284.3325154622394
  9
$ORTHOMODE
 70
     0
  9
$REGENMODE
 70
     1
  9
$FILLMODE
 70
     1
  9
$QTEXTMODE
 70
     0
  9
$MIRRTEXT
 70
     1
  9
$LTSCALE
 40
1.0
  9
$ATTMODE
 70
     1
  9
$TEXTSIZE
 40
0.0
  9
$TRACEWID
 40
0.05
  9
$TEXTSTYLE
  7
Standard
  9
$CLAYER
  8
0
  9
$CELTYPE
  6
Continuous
  9
$CECOLOR
 62
   256
  9
$CELTSCALE
 40
1.0
  9
$DISPSILH
 70
     0
  9
$DIMSCALE
 40
1.0
  9
$DIMASZ
 40
0.18
  9
$DIMEXO
 40
0.0625
  9
$DIMDLI
 40
0.38
  9
$DIMRND
 40
0.0
  9
$DIMDLE
 40
0.0
  9
$DIMEXE
 40
0.18
  9
$DIMTP
 40
0.0
  9
$DIMTM
 40
0.0
  9
$DIMTXT
 40
0.18
  9
$DIMCEN
 40
0.09
  9
$DIMTSZ
 40
0.0
  9
$DIMTOL
 70
     0
  9
$DIMLIM
 70
     0
  9
$DIMTIH
 70
     1
  9
$DIMTOH
 70
     1
  9
$DIMSE1
 70
     0
  9
$DIMSE2
 70
     0
  9
$DIMTAD
 70
     0
  9
$DIMZIN
 70
     0
  9
$DIMBLK
  1

  9
$DIMASO
 70
     1
  9
$DIMSHO
 70
     1
  9
$DIMPOST
  1

  9
$DIMAPOST
  1

  9
$DIMALT
 70
     0
  9
$DIMALTD
 70
     2
  9
$DIMALTF
 40
25.4
  9
$DIMLFAC
 40
1.0
  9
$DIMTOFL
 70
     0
  9
$DIMTVP
 40
0.0
  9
$DIMTIX
 70
     0
  9
$DIMSOXD
 70
     0
  9
$DIMSAH
 70
     0
  9
$DIMBLK1
  1

  9
$DIMBLK2
  1

  9
$DIMSTYLE
  2
Standard
  9
$DIMCLRD
 70
     0
  9
$DIMCLRE
 70
     0
  9
$DIMCLRT
 70
     0
  9
$DIMTFAC
 40
1.0
  9
$DIMGAP
 40
0.09
  9
$DIMJUST
 70
     0
  9
$DIMSD1
 70
     0
  9
$DIMSD2
 70
     0
  9
$DIMTOLJ
 70
     1
  9
$DIMTZIN
 70
     0
  9
$DIMALTZ
 70
     0
  9
$DIMALTTZ
 70
     0
  9
$DIMUPT
 70
     0
  9
$DIMDEC
 70
     4
  9
$DIMTDEC
 70
     4
  9
$DIMALTU
 70
     2
  9
$DIMALTTD
 70
     2
  9
$DIMTXSTY
  7
Standard
  9
$DIMAUNIT
 70
     0
  9
$DIMADEC
 70
     0
  9
$DIMALTRND
 40
0.0
  9
$DIMAZIN
 70
     0
  9
$DIMDSEP
 70
     0
  9
$DIMATFIT
 70
     3
  9
$DIMFRAC
 70
     0
  9
$DIMLDRBLK
  1

  9
$DIMLUNIT
 70
     2
  9
$DIMLWD
 70
     0
  9
$DIMLWE
 70
     0
  9
$DIMTMOVE
 70
     0
  9
$LUNITS
 70
     2
  9
$LUPREC
 70
     4
  9
$SKETCHINC
 40
0.1
  9
$FILLETRAD
 40
0.0
  9
$AUNITS
 70
     0
  9
$AUPREC
 70
     0
  9
$MENU
  1
acad
  9
$ELEVATION
 40
0.0
  9
$PELEVATION
 40
0.0
  9
$THICKNESS
 40
0.0
  9
$LIMCHECK
 70
     0
  9
$CHAMFERA
 40
0.0
  9
$CHAMFERB
 40
0.0
  9
$CHAMFERC
 40
0.0
  9
$CHAMFERD
 40
0.0
  9
$SKPOLY
 70
     0
  9
$TDCREATE
 40
2454796.492619536
  9
$TDUCREATE
 40
2454796.117619536
  9
$TDUPDATE
 40
2454796.561625243
  9
$TDUUPDATE
 40
2454796.186625243
  9
$TDINDWG
 40
0.0097330787
  9
$TDUSRTIMER
 40
0.0097296412
  9
$USRTIMER
 70
     1
  9
$ANGBASE
 50
0.0
  9
$ANGDIR
 70
     0
  9
$PDMODE
 70
     0
  9
$PDSIZE
 40
0.0
  9
$PLINEWID
 40
0.0
  9
$SPLFRAME
 70
     0
  9
$SPLINETYPE
 70
     6
  9
$SPLINESEGS
 70
     8
  9
$HANDSEED
  5
34F
  9
$SURFTAB1
 70
     6
  9
$SURFTAB2
 70
     6
  9
$SURFTYPE
 70
     6
  9
$SURFU
 70
     6
  9
$SURFV
 70
     6
  9
$UCSBASE
  2

  9
$UCSNAME
  2

  9
$UCSORG
 10
0.0
 20
0.0
 30
0.0
  9
$UCSXDIR
 10
1.0
 20
0.0
 30
0.0
  9
$UCSYDIR
 10
0.0
 20
1.0
 30
0.0
  9
$UCSORTHOREF
  2

  9
$UCSORTHOVIEW
 70
     0
  9
$UCSORGTOP
 10
0.0
 20
0.0
 30
0.0
  9
$UCSORGBOTTOM
 10
0.0
 20
0.0
 30
0.0
  9
$UCSORGLEFT
 10
0.0
 20
0.0
 30
0.0
  9
$UCSORGRIGHT
 10
0.0
 20
0.0
 30
0.0
  9
$UCSORGFRONT
 10
0.0
 20
0.0
 30
0.0
  9
$UCSORGBACK
 10
0.0
 20
0.0
 30
0.0
  9
$PUCSBASE
  2

  9
$PUCSNAME
  2

  9
$PUCSORG
 10
0.0
 20
0.0
 30
0.0
  9
$PUCSXDIR
 10
1.0
 20
0.0
 30
0.0
  9
$PUCSYDIR
 10
0.0
 20
1.0
 30
0.0
  9
$PUCSORTHOREF
  2

  9
$PUCSORTHOVIEW
 70
     0
  9
$PUCSORGTOP
 10
0.0
 20
0.0
 30
0.0
  9
$PUCSORGBOTTOM
 10
0.0
 20
0.0
 30
0.0
  9
$PUCSORGLEFT
 10
0.0
 20
0.0
 30
0.0
  9
$PUCSORGRIGHT
 10
0.0
 20
0.0
 30
0.0
  9
$PUCSORGFRONT
 10
0.0
 20
0.0
 30
0.0
  9
$PUCSORGBACK
 10
0.0
 20
0.0
 30
0.0
  9
$USERI1
 70
     0
  9
$USERI2
 70
     0
  9
$USERI3
 70
     0
  9
$USERI4
 70
     0
  9
$USERI5
 70
     0
  9
$USERR1
 40
0.0
  9
$USERR2
 40
0.0
  9
$USERR3
 40
0.0
  9
$USERR4
 40
0.0
  9
$USERR5
 40
0.0
  9
$WORLDVIEW
 70
     1
  9
$SHADEDGE
 70
     3
  9
$SHADEDIF
 70
    70
  9
$TILEMODE
 70
     1
  9
$MAXACTVP
 70
    16
  9
$PINSBASE
 10
0.0
 20
0.0
 30
0.0
  9
$PLIMCHECK
 70
     0
  9
$PEXTMIN
 10
1.000000000000000E+20
 20
1.000000000000000E+20
 30
1.000000000000000E+20
  9
$PEXTMAX
 10
-1.000000000000000E+20
 20
-1.000000000000000E+20
 30
-1.000000000000000E+20
  9
$PLIMMIN
 10
0.0
 20
0.0
  9
$PLIMMAX
 10
12.0
 20
9.0
  9
$UNITMODE
 70
     0
  9
$VISRETAIN
 70
     0
  9
$PLINEGEN
 70
     1
  9
$PSLTSCALE
 70
     0
  9
$TREEDEPTH
 70
  3020
  9
$CMLSTYLE
  2
Standard
  9
$CMLJUST
 70
     0
  9
$CMLSCALE
 40
1.0
  9
$PROXYGRAPHICS
 70
     0
  9
$MEASUREMENT
 70
     0
  9
$CELWEIGHT
370
     0
  9
$ENDCAPS
280
     0
  9
$JOINSTYLE
280
     0
  9
$LWDISPLAY
290
     0
  9
$INSUNITS
 70
     0
  9
$HYPERLINKBASE
  1

  9
$STYLESHEET
  1

  9
$XEDIT
290
     1
  9
$CEPSNTYPE
380
     0
  9
$PSTYLEMODE
290
     1
  9
$FINGERPRINTGUID
  2

  9
$VERSIONGUID
  2
{5EB5B797-BED7-4AB3-9A99-CCBDC79DE718}
  9
$EXTNAMES
290
     1
  9
$PSVPSCALE
 40
0.0
  9
$OLESTARTUP
290
     0
  0
ENDSEC
  0
SECTION
  2
CLASSES
  0
CLASS
  1
LWPOLYLINE
  2
AcDbPolyline
  3
AutoCAD 2000
 90
    32768
280
     0
281
     1
  0
CLASS
  1
IMAGE
  2
AcDbRasterImage
  3
ISM
 90
    32895
280
     0
281
     1
  0
CLASS
  1
OLE2FRAME
  2
AcDbOle2Frame
  3
AutoCAD 2000
 90
    32768
280
     0
281
     1
  0
CLASS
  1
HATCH
  2
AcDbHatch
  3
AutoCAD 2000
 90
    32768
280
     0
281
     1
  0
CLASS
  1
DICTIONARYVAR
  2
AcDbDictionaryVar
  3
AutoCAD 2000
 90
    32768
280
     0
281
     0
  0
CLASS
  1
RASTERVARIABLES
  2
AcDbRasterVariables
  3
ISM
 90
    32768
280
     0
281
     0
  0
CLASS
  1
IMAGEDEF
  2
AcDbRasterImageDef
  3
ISM
 90
    32768
280
     0
281
     0
  0
CLASS
  1
IMAGEDEF_REACTOR
  2
AcDbRasterImageDefReactor
  3
ISM
 90
    32769
280
     0
281
     0
  0
CLASS
  1
IDBUFFER
  2
AcDbIdBuffer
  3
AutoCAD 2000
 90
    32768
280
     0
281
     0
  0
CLASS
  1
SPATIAL_FILTER
  2
AcDbSpatialFilter
  3
AutoCAD 2000
 90
    32768
280
     0
281
     0
  0
CLASS
  1
XRECORD
  2
AcDbXrecord
  3
AutoCAD 2000
 90
    32768
280
     0
281
     0
  0
CLASS
  1
SORTENTSTABLE
  2
AcDbSortentsTable
  3
AutoCAD 2000
 90
    32768
280
     0
281
     0
  0
CLASS
  1
LAYER_INDEX
  2
AcDbLayerIndex
  3
AutoCAD 2000
 90
    32768
280
     0
281
     0
  0
CLASS
  1
SPATIAL_INDEX
  2
AcDbSpatialIndex
  3
AutoCAD 2000
 90
    32768
280
     0
281
     0
  0
CLASS
  1
OBJECT_PTR
  2
CAseDLPNTableRecord
  3
"ASE-LPNTableRecord"
 90
    32769
280
     0
281
     0
  0
CLASS
  1
LAYOUT
  2
AcDbLayout
  3
AutoCAD 2000
 90
        0
280
     0
281
     0
  0
CLASS
  1
PLOTSETTINGS
  2
AcDbPlotSettings
  3
AutoCAD 2000
 90
    32768
280
     0
281
     0
  0
CLASS
  1
ACDBDICTIONARYWDFLT
  2
AcDbDictionaryWithDefault
  3
AutoCAD 2000
 90
        0
280
     0
281
     0
  0
CLASS
  1
ACDBPLACEHOLDER
  2
AcDbPlaceHolder
  3
AutoCAD 2000
 90
        0
280
     0
281
     0
  0
CLASS
  1
VBA_PROJECT
  2
AcDbVbaProject
  3
"acadvba"
 90
    32769
280
     0
281
     0
  0
CLASS
  1
WIPEOUT
  2
AcDbWipeout
  3
WipeOut|AutoCAD Express Tool|expresstools@autodesk.com
 90
    32895
280
     0
281
     1
  0
CLASS
  1
WIPEOUTVARIABLES
  2
AcDbWipeoutVariables
  3
WipeOut|AutoCAD Express Tool|expresstools@autodesk.com
 90
        0
280
     0
281
     0
  0
CLASS
  1
RTEXT
  2
RText
  3
RText|AutoCAD Express Tool|expresstools@autodesk.com
 90
    32768
280
     0
281
     1
  0
CLASS
  1
ARCALIGNEDTEXT
  2
AcDbArcAlignedText
  3
ATEXT|AutoCAD Express Tool|expresstools@autodesk.com
 90
    32768
280
     0
281
     1
  0
ENDSEC
  0
SECTION
  2
TABLES
  0
TABLE
  2
VPORT
  5
7
330
0
100
AcDbSymbolTable
 70
     4
  0
VPORT
  5
34E
330
7
100
AcDbSymbolTableRecord
100
AcDbViewportTableRecord
  2
*Active
 70
     0
 10
0.0
 20
0.0
 11
1.0
 21
1.0
 12
79.9578384913754
 22
103.0086139613679
 13
0.0
 23
0.0
 14
1.0
 24
1.0
 15
0.0
 25
0.0
 16
0.0
 26
0.0
 36
1.0
 17
0.0
 27
0.0
 37
0.0
 40
140.860091379512
 41
1.461725394896719
 42
50.0
 43
0.0
 44
0.0
 50
0.0
 51
0.0
 71
     0
 72
   100
 73
     1
 74
     1
 75
     0
 76
     0
 77
     0
 78
     0
281
     0
 65
     0
110
0.0
120
0.0
130
0.0
111
1.0
121
0.0
131
0.0
112
0.0
122
1.0
132
0.0
 79
     0
146
0.0
  0
ENDTAB
  0
TABLE
  2
LTYPE
  5
4
330
0
100
AcDbSymbolTable
 70
     4
  0
LTYPE
  5
11
330
4
100
AcDbSymbolTableRecord
100
AcDbLinetypeTableRecord
  2
ByBlock
 70
     0
  3

 72
    65
 73
     0
 40
0.0
  0
LTYPE
  5
12
330
4
100
AcDbSymbolTableRecord
100
AcDbLinetypeTableRecord
  2
ByLayer
 70
     0
  3

 72
    65
 73
     0
 40
0.0
  0
LTYPE
  5
13
330
4
100
AcDbSymbolTableRecord
100
AcDbLinetypeTableRecord
  2
Continuous
 70
     0
  3
Solid line
 72
    65
 73
     0
 40
0.0
  0
LTYPE
  5
121
330
4
100
AcDbSymbolTableRecord
100
AcDbLinetypeTableRecord
  2
AI9-LType1
 70
     0
  3
Illustrator Dash Style No.1
 72
    65
 73
     4
 40
14.33417229652403
 49
9.556114864349362
 74
     0
 49
-1.592685810724893
 74
     0
 49
1.592685810724893
 74
     0
 49
-1.592685810724893
 74
     0
  0
LTYPE
  5
124
330
4
100
AcDbSymbolTableRecord
100
AcDbLinetypeTableRecord
  2
AI9-LType2
 70
     0
  3
Illustrator Dash Style No.2
 72
    65
 73
     4
 40
2.866778089602787
 49
1.911208943525949
 74
     0
 49
-0.3185230486922794
 74
     0
 49
0.3185230486922794
 74
     0
 49
-0.3185230486922794
 74
     0
  0
LTYPE
  5
127
330
4
100
AcDbSymbolTableRecord
100
AcDbLinetypeTableRecord
  2
AI9-LType3
 70
     0
  3
Illustrator Dash Style No.3
 72
    65
 73
     4
 40
5.733697355786956
 49
3.822453212738036
 74
     0
 49
-0.6370813810163076
 74
     0
 49
0.6370813810163076
 74
     0
 49
-0.6370813810163076
 74
     0
  0
ENDTAB
  0
TABLE
  2
LAYER
  5
2
330
0
100
AcDbSymbolTable
 70
    17
  0
LAYER
  5
14
330
2
100
AcDbSymbolTableRecord
100
AcDbLayerTableRecord
  2
0
 70
     0
 62
     7
  6
Continuous
370
    -3
390
1D
  0
LAYER
  5
28
330
2
100
AcDbSymbolTableRecord
100
AcDbLayerTableRecord
  2
レイヤー_1
 70
     0
 62
   160
  6
Continuous
370
    -3
390
1F
  0
LAYER
  5
2A
330
2
100
AcDbSymbolTableRecord
100
AcDbLayerTableRecord
  2
部品
 70
     0
 62
     5
  6
Continuous
370
    -3
390
1F
  0
LAYER
  5
FA
330
2
100
AcDbSymbolTableRecord
100
AcDbLayerTableRecord
  2
寸法線
 70
     0
 62
   224
  6
Continuous
370
    -3
390
1F
  0
LAYER
  5
FE
330
2
100
AcDbSymbolTableRecord
100
AcDbLayerTableRecord
  2
DEFPOINTS
 70
     0
 62
     7
  6
Continuous
290
     0
370
    -3
390
1F
  0
LAYER
  5
FF
330
2
100
AcDbSymbolTableRecord
100
AcDbLayerTableRecord
  2
中心線
 70
     0
 62
     1
  6
Continuous
370
    -3
390
1F
  0
LAYER
  5
100
330
2
100
AcDbSymbolTableRecord
100
AcDbLayerTableRecord
  2
図枠
 70
     0
 62
    12
  6
Continuous
370
    -3
390
1F
  0
LAYER
  5
118
330
2
100
AcDbSymbolTableRecord
100
AcDbLayerTableRecord
  2
註記
 70
     0
 62
   104
  6
Continuous
370
    -3
390
1F
  0
LAYER
  5
119
330
2
100
AcDbSymbolTableRecord
100
AcDbLayerTableRecord
  2
不表示
 70
     0
 62
    -7
  6
Continuous
370
    -3
390
1F
  0
LAYER
  5
120
330
2
100
AcDbSymbolTableRecord
100
AcDbLayerTableRecord
  2
CENTER
 70
     0
 62
     5
  6
Continuous
370
    -3
390
1F
  0
LAYER
  5
12E
330
2
100
AcDbSymbolTableRecord
100
AcDbLayerTableRecord
  2
寸法
 70
     0
 62
     5
  6
Continuous
370
    -3
390
1F
  0
LAYER
  5
12F
330
2
100
AcDbSymbolTableRecord
100
AcDbLayerTableRecord
  2
SPEC表線
 70
     0
 62
     7
  6
Continuous
370
    -3
390
1F
  0
LAYER
  5
1AD
330
2
100
AcDbSymbolTableRecord
100
AcDbLayerTableRecord
  2
SPEC表枠
 70
     0
 62
     7
  6
Continuous
370
    -3
390
1F
  0
LAYER
  5
1B8
330
2
100
AcDbSymbolTableRecord
100
AcDbLayerTableRecord
  2
WIRING
 70
     0
 62
     7
  6
Continuous
370
    -3
390
1F
  0
LAYER
  5
338
330
2
100
AcDbSymbolTableRecord
100
AcDbLayerTableRecord
  2
文字
 70
     0
 62
     3
  6
Continuous
370
    -3
390
1F
  0
LAYER
  5
339
330
2
100
AcDbSymbolTableRecord
100
AcDbLayerTableRecord
  2
1
 70
     0
 62
     7
  6
Continuous
370
    -3
390
1F
  0
LAYER
  5
33A
330
2
100
AcDbSymbolTableRecord
100
AcDbLayerTableRecord
  2
OBJECT
 70
     0
 62
     5
  6
Continuous
370
    -3
390
1F
  0
ENDTAB
  0
TABLE
  2
STYLE
  5
3
330
0
100
AcDbSymbolTable
 70
     5
  0
STYLE
  5
17
330
3
100
AcDbSymbolTableRecord
100
AcDbTextStyleTableRecord
  2
Standard
 70
     0
 40
0.0
 41
1.0
 50
0.0
 71
     0
 42
0.0
  3
txt
  4

  0
STYLE
  5
24
330
3
100
AcDbSymbolTableRecord
100
AcDbTextStyleTableRecord
  2
STD
 70
     0
 40
0.0
 41
1.0
 50
0.0
 71
     0
 42
0.0
  3
txt
  4

  0
STYLE
  5
25
330
3
100
AcDbSymbolTableRecord
100
AcDbTextStyleTableRecord
  2
TATESTD
 70
     4
 40
0.0
 41
1.0
 50
0.0
 71
     0
 42
0.0
  3
txt
  4

  0
STYLE
  5
26
330
3
100
AcDbSymbolTableRecord
100
AcDbTextStyleTableRecord
  2
KANJISTD
 70
     0
 40
0.0
 41
1.0
 50
0.0
 71
     0
 42
0.0
  3
txt
  4
extfont
  0
STYLE
  5
27
330
3
100
AcDbSymbolTableRecord
100
AcDbTextStyleTableRecord
  2
KANJITATE
 70
     4
 40
0.0
 41
1.0
 50
0.0
 71
     0
 42
0.0
  3
txt
  4
extfont
  0
ENDTAB
  0
TABLE
  2
VIEW
  5
5
330
0
100
AcDbSymbolTable
 70
     0
  0
ENDTAB
  0
TABLE
  2
UCS
  5
6
330
0
100
AcDbSymbolTable
 70
     0
  0
ENDTAB
  0
TABLE
  2
APPID
  5
8
330
0
100
AcDbSymbolTable
 70
     1
  0
APPID
  5
16
330
8
100
AcDbSymbolTableRecord
100
AcDbRegAppTableRecord
  2
ACAD
 70
     0
  0
ENDTAB
  0
TABLE
  2
DIMSTYLE
  5
9
330
0
100
AcDbSymbolTable
 70
     1
100
AcDbDimStyleTable
 71
     0
  0
DIMSTYLE
105
18
330
9
100
AcDbSymbolTableRecord
100
AcDbDimStyleTableRecord
  2
Standard
 70
     0
289
     0
340
17
  0
ENDTAB
  0
TABLE
  2
BLOCK_RECORD
  5
1
330
0
100
AcDbSymbolTable
 70
    42
  0
BLOCK_RECORD
  5
A
330
1
100
AcDbSymbolTableRecord
100
AcDbBlockTableRecord
  2
*MODEL_SPACE
340
20
  0
BLOCK_RECORD
  5
B
330
1
100
AcDbSymbolTableRecord
100
AcDbBlockTableRecord
  2
*PAPER_SPACE
340
21
  0
BLOCK_RECORD
  5
1C0
330
1
100
AcDbSymbolTableRecord
100
AcDbBlockTableRecord
  2
AI9-BLK1
340
0
102
{BLKREFS
331
1C1
102
}
  0
BLOCK_RECORD
  5
1C3
330
1
100
AcDbSymbolTableRecord
100
AcDbBlockTableRecord
  2
AI9-BLK2
340
0
102
{BLKREFS
331
1C4
102
}
  0
BLOCK_RECORD
  5
1CA
330
1
100
AcDbSymbolTableRecord
100
AcDbBlockTableRecord
  2
AI9-BLK3
340
0
102
{BLKREFS
331
1CB
102
}
  0
BLOCK_RECORD
  5
1D8
330
1
100
AcDbSymbolTableRecord
100
AcDbBlockTableRecord
  2
AI9-BLK4
340
0
102
{BLKREFS
331
1D9
102
}
  0
BLOCK_RECORD
  5
1DB
330
1
100
AcDbSymbolTableRecord
100
AcDbBlockTableRecord
  2
AI9-BLK5
340
0
102
{BLKREFS
331
1DC
102
}
  0
BLOCK_RECORD
  5
1E2
330
1
100
AcDbSymbolTableRecord
100
AcDbBlockTableRecord
  2
AI9-BLK6
340
0
102
{BLKREFS
331
1E3
102
}
  0
BLOCK_RECORD
  5
1F0
330
1
100
AcDbSymbolTableRecord
100
AcDbBlockTableRecord
  2
AI9-BLK7
340
0
102
{BLKREFS
331
1F1
102
}
  0
BLOCK_RECORD
  5
1F4
330
1
100
AcDbSymbolTableRecord
100
AcDbBlockTableRecord
  2
AI9-BLK8
340
0
102
{BLKREFS
331
1F5
102
}
  0
BLOCK_RECORD
  5
1FB
330
1
100
AcDbSymbolTableRecord
100
AcDbBlockTableRecord
  2
AI9-BLK9
340
0
102
{BLKREFS
331
1FC
102
}
  0
BLOCK_RECORD
  5
206
330
1
100
AcDbSymbolTableRecord
100
AcDbBlockTableRecord
  2
AI9-BLK10
340
0
102
{BLKREFS
331
207
102
}
  0
BLOCK_RECORD
  5
20A
330
1
100
AcDbSymbolTableRecord
100
AcDbBlockTableRecord
  2
AI9-BLK11
340
0
102
{BLKREFS
331
20B
102
}
  0
BLOCK_RECORD
  5
211
330
1
100
AcDbSymbolTableRecord
100
AcDbBlockTableRecord
  2
AI9-BLK12
340
0
102
{BLKREFS
331
212
102
}
  0
BLOCK_RECORD
  5
21D
330
1
100
AcDbSymbolTableRecord
100
AcDbBlockTableRecord
  2
AI9-BLK13
340
0
102
{BLKREFS
331
21E
102
}
  0
BLOCK_RECORD
  5
220
330
1
100
AcDbSymbolTableRecord
100
AcDbBlockTableRecord
  2
AI9-BLK14
340
0
102
{BLKREFS
331
221
102
}
  0
BLOCK_RECORD
  5
227
330
1
100
AcDbSymbolTableRecord
100
AcDbBlockTableRecord
  2
AI9-BLK15
340
0
102
{BLKREFS
331
228
102
}
  0
BLOCK_RECORD
  5
233
330
1
100
AcDbSymbolTableRecord
100
AcDbBlockTableRecord
  2
AI9-BLK16
340
0
102
{BLKREFS
331
234
102
}
  0
BLOCK_RECORD
  5
236
330
1
100
AcDbSymbolTableRecord
100
AcDbBlockTableRecord
  2
AI9-BLK17
340
0
102
{BLKREFS
331
237
102
}
  0
BLOCK_RECORD
  5
23D
330
1
100
AcDbSymbolTableRecord
100
AcDbBlockTableRecord
  2
AI9-BLK18
340
0
102
{BLKREFS
331
23E
102
}
  0
BLOCK_RECORD
  5
249
330
1
100
AcDbSymbolTableRecord
100
AcDbBlockTableRecord
  2
AI9-BLK19
340
0
102
{BLKREFS
331
24A
102
}
  0
BLOCK_RECORD
  5
24C
330
1
100
AcDbSymbolTableRecord
100
AcDbBlockTableRecord
  2
AI9-BLK20
340
0
102
{BLKREFS
331
24D
102
}
  0
BLOCK_RECORD
  5
253
330
1
100
AcDbSymbolTableRecord
100
AcDbBlockTableRecord
  2
AI9-BLK21
340
0
102
{BLKREFS
331
254
102
}
  0
BLOCK_RECORD
  5
261
330
1
100
AcDbSymbolTableRecord
100
AcDbBlockTableRecord
  2
AI9-BLK22
340
0
102
{BLKREFS
331
262
102
}
  0
BLOCK_RECORD
  5
265
330
1
100
AcDbSymbolTableRecord
100
AcDbBlockTableRecord
  2
AI9-BLK23
340
0
102
{BLKREFS
331
266
102
}
  0
BLOCK_RECORD
  5
26C
330
1
100
AcDbSymbolTableRecord
100
AcDbBlockTableRecord
  2
AI9-BLK24
340
0
102
{BLKREFS
331
26D
102
}
  0
BLOCK_RECORD
  5
277
330
1
100
AcDbSymbolTableRecord
100
AcDbBlockTableRecord
  2
AI9-BLK25
340
0
102
{BLKREFS
331
278
102
}
  0
BLOCK_RECORD
  5
27B
330
1
100
AcDbSymbolTableRecord
100
AcDbBlockTableRecord
  2
AI9-BLK26
340
0
102
{BLKREFS
331
27C
102
}
  0
BLOCK_RECORD
  5
282
330
1
100
AcDbSymbolTableRecord
100
AcDbBlockTableRecord
  2
AI9-BLK27
340
0
102
{BLKREFS
331
283
102
}
  0
BLOCK_RECORD
  5
28D
330
1
100
AcDbSymbolTableRecord
100
AcDbBlockTableRecord
  2
AI9-BLK28
340
0
102
{BLKREFS
331
28E
102
}
  0
BLOCK_RECORD
  5
291
330
1
100
AcDbSymbolTableRecord
100
AcDbBlockTableRecord
  2
AI9-BLK29
340
0
102
{BLKREFS
331
292
102
}
  0
BLOCK_RECORD
  5
298
330
1
100
AcDbSymbolTableRecord
100
AcDbBlockTableRecord
  2
AI9-BLK30
340
0
102
{BLKREFS
331
299
102
}
  0
BLOCK_RECORD
  5
2A4
330
1
100
AcDbSymbolTableRecord
100
AcDbBlockTableRecord
  2
AI9-BLK31
340
0
102
{BLKREFS
331
2A5
102
}
  0
BLOCK_RECORD
  5
2A8
330
1
100
AcDbSymbolTableRecord
100
AcDbBlockTableRecord
  2
AI9-BLK32
340
0
102
{BLKREFS
331
2A9
102
}
  0
BLOCK_RECORD
  5
2AF
330
1
100
AcDbSymbolTableRecord
100
AcDbBlockTableRecord
  2
AI9-BLK33
340
0
102
{BLKREFS
331
2B0
102
}
  0
BLOCK_RECORD
  5
2BA
330
1
100
AcDbSymbolTableRecord
100
AcDbBlockTableRecord
  2
AI9-BLK34
340
0
102
{BLKREFS
331
2BB
102
}
  0
BLOCK_RECORD
  5
2BD
330
1
100
AcDbSymbolTableRecord
100
AcDbBlockTableRecord
  2
AI9-BLK35
340
0
102
{BLKREFS
331
2BE
102
}
  0
BLOCK_RECORD
  5
2C4
330
1
100
AcDbSymbolTableRecord
100
AcDbBlockTableRecord
  2
AI9-BLK36
340
0
102
{BLKREFS
331
2C5
102
}
  0
BLOCK_RECORD
  5
2D2
330
1
100
AcDbSymbolTableRecord
100
AcDbBlockTableRecord
  2
AI9-BLK37
340
0
102
{BLKREFS
331
2D3
102
}
  0
BLOCK_RECORD
  5
2D6
330
1
100
AcDbSymbolTableRecord
100
AcDbBlockTableRecord
  2
AI9-BLK38
340
0
102
{BLKREFS
331
2D7
102
}
  0
BLOCK_RECORD
  5
2DD
330
1
100
AcDbSymbolTableRecord
100
AcDbBlockTableRecord
  2
AI9-BLK39
340
0
102
{BLKREFS
331
2DE
102
}
  0
BLOCK_RECORD
  5
2E8
330
1
100
AcDbSymbolTableRecord
100
AcDbBlockTableRecord
  2
AI9-BLK40
340
0
102
{BLKREFS
331
2E9
102
}
  0
BLOCK_RECORD
  5
2EC
330
1
100
AcDbSymbolTableRecord
100
AcDbBlockTableRecord
  2
AI9-BLK41
340
0
102
{BLKREFS
331
2ED
102
}
  0
BLOCK_RECORD
  5
2F3
330
1
100
AcDbSymbolTableRecord
100
AcDbBlockTableRecord
  2
AI9-BLK42
340
0
102
{BLKREFS
331
2F4
102
}
  0
ENDTAB
  0
ENDSEC
  0
SECTION
  2
BLOCKS
  0
BLOCK
  5
D
330
A
100
AcDbEntity
  8
0
100
AcDbBlockBegin
  2
*MODEL_SPACE
 70
     0
 71
     1
 10
0.0
 20
0.0
 30
0.0
  3
*MODEL_SPACE
  1

  0
ENDBLK
  5
E
330
A
100
AcDbEntity
  8
0
100
AcDbBlockEnd
  0
BLOCK
  5
F
330
B
100
AcDbEntity
 67
     1
  8
0
100
AcDbBlockBegin
  2
*PAPER_SPACE
 70
     0
 71
     1
 10
0.0
 20
0.0
 30
0.0
  3
*PAPER_SPACE
  1

  0
ENDBLK
  5
10
330
B
100
AcDbEntity
 67
     1
  8
0
100
AcDbBlockEnd
  0
BLOCK
  5
1C2
330
1C0
100
AcDbEntity
  8
WIRING
 62
     7
100
AcDbBlockBegin
  2
AI9-BLK1
 70
     0
 71
     1
 10
0.0
 20
0.0
 30
0.0
  3
AI9-BLK1
  1

  0
LINE
  5
1D6
330
1C0
100
AcDbEntity
  8
WIRING
 62
     7
100
AcDbLine
 10
-2.910675048828123
 20
5.198649088541666
 30
0.0
 11
-2.910675048828123
 21
-5.198649088541666
 31
0.0
  0
LINE
  5
1D5
330
1C0
100
AcDbEntity
  8
WIRING
 62
     7
100
AcDbLine
 10
1.102344428168402
 20
5.198649088541666
 30
0.0
 11
1.102344428168402
 21
-5.198649088541666
 31
0.0
  0
LINE
  5
1D4
330
1C0
100
AcDbEntity
  8
WIRING
 62
     7
100
AcDbLine
 10
-5.418876817491318
 20
-3.944634331597221
 30
0.0
 11
-7.926906331380207
 21
-3.944634331597221
 31
0.0
  0
LINE
  5
1D3
330
1C0
100
AcDbEntity
  8
WIRING
 62
     7
100
AcDbLine
 10
3.610546196831596
 20
-3.944634331597221
 30
0.0
 11
6.118747965494789
 21
-3.944634331597221
 31
0.0
  0
MTEXT
  5
1D2
330
1C0
100
AcDbEntity
  8
WIRING
 62
     7
100
AcDbMText
 10
4.770337592230902
 20
-1.411350595832814
 30
0.0
 40
2.006528635938015
 41
0.0
 71
     1
 72
     2
  1
\fMS Gothic|b0|i0|c128;φ
  7
KANJISTD
 73
     1
 44
1.0
  0
LINE
  5
1D1
330
1C0
100
AcDbEntity
  8
WIRING
 62
     7
100
AcDbLine
 10
-2.910675048828123
 20
-3.944634331597221
 30
0.0
 11
1.102344428168402
 21
-3.944634331597221
 31
0.0
  0
INSERT
  5
1CB
330
1C0
100
AcDbEntity
  8
WIRING
 62
     7
100
AcDbBlockReference
  2
AI9-BLK3
 10
-4.16477593315972
 20
-3.944634331597221
 30
0.0
  0
INSERT
  5
1C4
330
1C0
100
AcDbEntity
  8
WIRING
 62
     7
100
AcDbBlockReference
  2
AI9-BLK2
 10
2.3564453125
 20
-3.944634331597221
 30
0.0
  0
ENDBLK
  5
1D7
330
1C0
100
AcDbEntity
  8
WIRING
100
AcDbBlockEnd
  0
BLOCK
  5
1C5
330
1C3
100
AcDbEntity
  8
WIRING
 62
     7
100
AcDbBlockBegin
  2
AI9-BLK2
 70
     0
 71
     1
 10
0.0
 20
0.0
 30
0.0
  3
AI9-BLK2
  1

  0
LINE
  5
1C8
330
1C3
100
AcDbEntity
  8
WIRING
 62
     7
100
AcDbLine
 10
1.254100884331596
 20
-0.4178900824652779
 30
0.0
 11
-1.254100884331596
 21
0.0
 31
0.0
  0
LINE
  5
1C7
330
1C3
100
AcDbEntity
  8
WIRING
 62
     7
100
AcDbLine
 10
-1.254100884331596
 20
0.0
 30
0.0
 11
1.254100884331596
 21
0.4178900824652779
 31
0.0
  0
LINE
  5
1C6
330
1C3
100
AcDbEntity
  8
WIRING
 62
     7
100
AcDbLine
 10
-1.254100884331596
 20
0.0
 30
0.0
 11
1.254100884331596
 21
0.0
 31
0.0
  0
ENDBLK
  5
1C9
330
1C3
100
AcDbEntity
  8
WIRING
100
AcDbBlockEnd
  0
BLOCK
  5
1CC
330
1CA
100
AcDbEntity
  8
WIRING
 62
     7
100
AcDbBlockBegin
  2
AI9-BLK3
 70
     0
 71
     1
 10
0.0
 20
0.0
 30
0.0
  3
AI9-BLK3
  1

  0
LINE
  5
1CF
330
1CA
100
AcDbEntity
  8
WIRING
 62
     7
100
AcDbLine
 10
-1.254100884331596
 20
0.4178900824652779
 30
0.0
 11
1.254100884331596
 21
0.0
 31
0.0
  0
LINE
  5
1CE
330
1CA
100
AcDbEntity
  8
WIRING
 62
     7
100
AcDbLine
 10
1.254100884331596
 20
0.0
 30
0.0
 11
-1.254100884331596
 21
-0.4178900824652779
 31
0.0
  0
LINE
  5
1CD
330
1CA
100
AcDbEntity
  8
WIRING
 62
     7
100
AcDbLine
 10
1.254100884331596
 20
0.0
 30
0.0
 11
-1.254100884331596
 21
0.0
 31
0.0
  0
ENDBLK
  5
1D0
330
1CA
100
AcDbEntity
  8
WIRING
100
AcDbBlockEnd
  0
BLOCK
  5
1DA
330
1D8
100
AcDbEntity
  8
WIRING
 62
     7
100
AcDbBlockBegin
  2
AI9-BLK4
 70
     0
 71
     1
 10
0.0
 20
0.0
 30
0.0
  3
AI9-BLK4
  1

  0
LINE
  5
1EE
330
1D8
100
AcDbEntity
  8
WIRING
 62
     7
100
AcDbLine
 10
-3.298334418402776
 20
1.692919921875
 30
0.0
 11
-3.298334418402776
 21
-16.54128146701388
 31
0.0
  0
LINE
  5
1ED
330
1D8
100
AcDbEntity
  8
WIRING
 62
     7
100
AcDbLine
 10
1.272618272569443
 20
16.54128146701388
 30
0.0
 11
1.272618272569443
 21
-16.54128146701388
 31
0.0
  0
LINE
  5
1EC
330
1D8
100
AcDbEntity
  8
WIRING
 62
     7
100
AcDbLine
 10
-5.806363932291666
 20
-15.28726671006944
 30
0.0
 11
-8.314737955729166
 21
-15.28726671006944
 31
0.0
  0
LINE
  5
1EB
330
1D8
100
AcDbEntity
  8
WIRING
 62
     7
100
AcDbLine
 10
3.780647786458331
 20
-15.28726671006944
 30
0.0
 11
6.289021809895832
 21
-15.28726671006944
 31
0.0
  0
MTEXT
  5
1EA
330
1D8
100
AcDbEntity
  8
WIRING
 62
     7
100
AcDbMText
 10
2.338186306423609
 20
-12.75398297430502
 30
0.0
 40
2.006528635938015
 41
0.0
 71
     1
 72
     2
  1
\fMS Gothic|b0|i0|c128;4.56
  7
STD
 73
     1
 44
1.0
  0
LINE
  5
1E9
330
1D8
100
AcDbEntity
  8
WIRING
 62
     7
100
AcDbLine
 10
-3.298334418402776
 20
-15.28726671006944
 30
0.0
 11
1.272618272569443
 21
-15.28726671006944
 31
0.0
  0
INSERT
  5
1E3
330
1D8
100
AcDbEntity
  8
WIRING
 62
     7
100
AcDbBlockReference
  2
AI9-BLK6
 10
-4.552349175347221
 20
-15.28726671006944
 30
0.0
  0
INSERT
  5
1DC
330
1D8
100
AcDbEntity
  8
WIRING
 62
     7
100
AcDbBlockReference
  2
AI9-BLK5
 10
2.526633029513888
 20
-15.28726671006944
 30
0.0
  0
ENDBLK
  5
1EF
330
1D8
100
AcDbEntity
  8
WIRING
100
AcDbBlockEnd
  0
BLOCK
  5
1DD
330
1DB
100
AcDbEntity
  8
WIRING
 62
     7
100
AcDbBlockBegin
  2
AI9-BLK5
 70
     0
 71
     1
 10
0.0
 20
0.0
 30
0.0
  3
AI9-BLK5
  1

  0
LINE
  5
1E0
330
1DB
100
AcDbEntity
  8
WIRING
 62
     7
100
AcDbLine
 10
1.254014756944443
 20
-0.4178900824652779
 30
0.0
 11
-1.254014756944443
 21
0.0
 31
0.0
  0
LINE
  5
1DF
330
1DB
100
AcDbEntity
  8
WIRING
 62
     7
100
AcDbLine
 10
-1.254014756944443
 20
0.0
 30
0.0
 11
1.254014756944443
 21
0.4178900824652779
 31
0.0
  0
LINE
  5
1DE
330
1DB
100
AcDbEntity
  8
WIRING
 62
     7
100
AcDbLine
 10
-1.254014756944443
 20
0.0
 30
0.0
 11
1.254014756944443
 21
0.0
 31
0.0
  0
ENDBLK
  5
1E1
330
1DB
100
AcDbEntity
  8
WIRING
100
AcDbBlockEnd
  0
BLOCK
  5
1E4
330
1E2
100
AcDbEntity
  8
WIRING
 62
     7
100
AcDbBlockBegin
  2
AI9-BLK6
 70
     0
 71
     1
 10
0.0
 20
0.0
 30
0.0
  3
AI9-BLK6
  1

  0
LINE
  5
1E7
330
1E2
100
AcDbEntity
  8
WIRING
 62
     7
100
AcDbLine
 10
-1.254014756944443
 20
0.4178900824652779
 30
0.0
 11
1.254014756944443
 21
0.0
 31
0.0
  0
LINE
  5
1E6
330
1E2
100
AcDbEntity
  8
WIRING
 62
     7
100
AcDbLine
 10
1.254014756944443
 20
0.0
 30
0.0
 11
-1.254014756944443
 21
-0.4178900824652779
 31
0.0
  0
LINE
  5
1E5
330
1E2
100
AcDbEntity
  8
WIRING
 62
     7
100
AcDbLine
 10
1.254014756944443
 20
0.0
 30
0.0
 11
-1.254014756944443
 21
0.0
 31
0.0
  0
ENDBLK
  5
1E8
330
1E2
100
AcDbEntity
  8
WIRING
100
AcDbBlockEnd
  0
BLOCK
  5
1F2
330
1F0
100
AcDbEntity
  8
WIRING
 62
     7
100
AcDbBlockBegin
  2
AI9-BLK7
 70
     0
 71
     1
 10
0.0
 20
0.0
 30
0.0
  3
AI9-BLK7
  1

  0
LINE
  5
204
330
1F0
100
AcDbEntity
  8
WIRING
 62
     7
100
AcDbLine
 10
-9.81990017361111
 20
-6.036324055989582
 30
0.0
 11
9.81990017361111
 21
-6.036324055989582
 31
0.0
  0
LINE
  5
203
330
1F0
100
AcDbEntity
  8
WIRING
 62
     7
100
AcDbLine
 10
-9.81990017361111
 20
6.036324055989582
 30
0.0
 11
9.81990017361111
 21
6.036324055989582
 31
0.0
  0
LINE
  5
202
330
1F0
100
AcDbEntity
  8
WIRING
 62
     7
100
AcDbLine
 10
8.565885416666665
 20
-3.528294542100693
 30
0.0
 11
8.565885416666665
 21
3.528294542100693
 31
0.0
  0
INSERT
  5
1FC
330
1F0
100
AcDbEntity
  8
WIRING
 62
     7
100
AcDbBlockReference
  2
AI9-BLK9
 10
8.566057671440972
 20
-4.782309299045137
 30
0.0
  0
INSERT
  5
1F5
330
1F0
100
AcDbEntity
  8
WIRING
 62
     7
100
AcDbBlockReference
  2
AI9-BLK8
 10
8.566057671440972
 20
4.782309299045137
 30
0.0
  0
MTEXT
  5
1F3
330
1F0
100
AcDbEntity
  8
WIRING
 62
     7
100
AcDbMText
 10
6.032601680902257
 20
-1.348582628038194
 30
0.0
 40
2.006528635938015
 41
0.0
 71
     1
 72
     2
  1
\fMS Gothic|b0|i0|c128;φ
  7
KANJISTD
 11
0.0
 21
1.0
 31
0.0
 73
     1
 44
1.0
  0
ENDBLK
  5
205
330
1F0
100
AcDbEntity
  8
WIRING
100
AcDbBlockEnd
  0
BLOCK
  5
1F6
330
1F4
100
AcDbEntity
  8
WIRING
 62
     7
100
AcDbBlockBegin
  2
AI9-BLK8
 70
     0
 71
     1
 10
0.0
 20
0.0
 30
0.0
  3
AI9-BLK8
  1

  0
LINE
  5
1F9
330
1F4
100
AcDbEntity
  8
WIRING
 62
     7
100
AcDbLine
 10
-0.4180623372395833
 20
-1.254014756944443
 30
0.0
 11
-0.0001722547743056
 21
1.254014756944443
 31
0.0
  0
LINE
  5
1F8
330
1F4
100
AcDbEntity
  8
WIRING
 62
     7
100
AcDbLine
 10
-0.0001722547743056
 20
1.254014756944443
 30
0.0
 11
0.4180623372395833
 21
-1.254014756944443
 31
0.0
  0
LINE
  5
1F7
330
1F4
100
AcDbEntity
  8
WIRING
 62
     7
100
AcDbLine
 10
-0.0001722547743056
 20
1.254014756944443
 30
0.0
 11
-0.0001722547743056
 21
-1.254014756944443
 31
0.0
  0
ENDBLK
  5
1FA
330
1F4
100
AcDbEntity
  8
WIRING
100
AcDbBlockEnd
  0
BLOCK
  5
1FD
330
1FB
100
AcDbEntity
  8
WIRING
 62
     7
100
AcDbBlockBegin
  2
AI9-BLK9
 70
     0
 71
     1
 10
0.0
 20
0.0
 30
0.0
  3
AI9-BLK9
  1

  0
LINE
  5
200
330
1FB
100
AcDbEntity
  8
WIRING
 62
     7
100
AcDbLine
 10
0.4180623372395833
 20
1.254014756944443
 30
0.0
 11
-0.0001722547743056
 21
-1.254014756944443
 31
0.0
  0
LINE
  5
1FF
330
1FB
100
AcDbEntity
  8
WIRING
 62
     7
100
AcDbLine
 10
-0.0001722547743056
 20
-1.254014756944443
 30
0.0
 11
-0.4180623372395833
 21
1.254014756944443
 31
0.0
  0
LINE
  5
1FE
330
1FB
100
AcDbEntity
  8
WIRING
 62
     7
100
AcDbLine
 10
-0.0001722547743056
 20
-1.254014756944443
 30
0.0
 11
-0.0001722547743056
 21
1.254014756944443
 31
0.0
  0
ENDBLK
  5
201
330
1FB
100
AcDbEntity
  8
WIRING
100
AcDbBlockEnd
  0
BLOCK
  5
208
330
206
100
AcDbEntity
  8
WIRING
 62
     7
100
AcDbBlockBegin
  2
AI9-BLK10
 70
     0
 71
     1
 10
0.0
 20
0.0
 30
0.0
  3
AI9-BLK10
  1

  0
LINE
  5
21A
330
206
100
AcDbEntity
  8
WIRING
 62
     7
100
AcDbLine
 10
-13.55231662326388
 20
12.74151340060763
 30
0.0
 11
13.55231662326388
 21
12.74151340060763
 31
0.0
  0
LINE
  5
219
330
206
100
AcDbEntity
  8
WIRING
 62
     7
100
AcDbLine
 10
-13.55231662326388
 20
-12.74151340060763
 30
0.0
 11
13.55231662326388
 21
-12.74151340060763
 31
0.0
  0
LINE
  5
218
330
206
100
AcDbEntity
  8
WIRING
 62
     7
100
AcDbLine
 10
12.29830186631944
 20
10.23313937717013
 30
0.0
 11
12.29830186631944
 21
-10.23348388671875
 31
0.0
  0
INSERT
  5
212
330
206
100
AcDbEntity
  8
WIRING
 62
     7
100
AcDbBlockReference
  2
AI9-BLK12
 10
12.29847412109374
 20
11.48732638888888
 30
0.0
  0
INSERT
  5
20B
330
206
100
AcDbEntity
  8
WIRING
 62
     7
100
AcDbBlockReference
  2
AI9-BLK11
 10
12.29847412109374
 20
-11.48749864366318
 30
0.0
  0
MTEXT
  5
209
330
206
100
AcDbEntity
  8
WIRING
 62
     7
100
AcDbMText
 10
9.765018130555032
 20
-4.719608561197916
 30
0.0
 40
2.006528635938015
 41
0.0
 71
     1
 72
     2
  1
\fMS Gothic|b0|i0|c128;1-32UNF
  7
STD
 11
0.0
 21
1.0
 31
0.0
 73
     1
 44
1.0
  0
ENDBLK
  5
21B
330
206
100
AcDbEntity
  8
WIRING
100
AcDbBlockEnd
  0
BLOCK
  5
20C
330
20A
100
AcDbEntity
  8
WIRING
 62
     7
100
AcDbBlockBegin
  2
AI9-BLK11
 70
     0
 71
     1
 10
0.0
 20
0.0
 30
0.0
  3
AI9-BLK11
  1

  0
LINE
  5
20F
330
20A
100
AcDbEntity
  8
WIRING
 62
     7
100
AcDbLine
 10
0.4180623372395833
 20
1.254014756944443
 30
0.0
 11
-0.0001722547743056
 21
-1.254014756944443
 31
0.0
  0
LINE
  5
20E
330
20A
100
AcDbEntity
  8
WIRING
 62
     7
100
AcDbLine
 10
-0.0001722547743056
 20
-1.254014756944443
 30
0.0
 11
-0.4180623372395833
 21
1.254014756944443
 31
0.0
  0
LINE
  5
20D
330
20A
100
AcDbEntity
  8
WIRING
 62
     7
100
AcDbLine
 10
-0.0001722547743056
 20
-1.254014756944443
 30
0.0
 11
-0.0001722547743056
 21
1.254014756944443
 31
0.0
  0
ENDBLK
  5
210
330
20A
100
AcDbEntity
  8
WIRING
100
AcDbBlockEnd
  0
BLOCK
  5
213
330
211
100
AcDbEntity
  8
WIRING
 62
     7
100
AcDbBlockBegin
  2
AI9-BLK12
 70
     0
 71
     1
 10
0.0
 20
0.0
 30
0.0
  3
AI9-BLK12
  1

  0
LINE
  5
216
330
211
100
AcDbEntity
  8
WIRING
 62
     7
100
AcDbLine
 10
-0.4180623372395833
 20
-1.254187011718749
 30
0.0
 11
-0.0001722547743056
 21
1.254187011718749
 31
0.0
  0
LINE
  5
215
330
211
100
AcDbEntity
  8
WIRING
 62
     7
100
AcDbLine
 10
-0.0001722547743056
 20
1.254187011718749
 30
0.0
 11
0.4180623372395833
 21
-1.254187011718749
 31
0.0
  0
LINE
  5
214
330
211
100
AcDbEntity
  8
WIRING
 62
     7
100
AcDbLine
 10
-0.0001722547743056
 20
1.254187011718749
 30
0.0
 11
-0.0001722547743056
 21
-1.254187011718749
 31
0.0
  0
ENDBLK
  5
217
330
211
100
AcDbEntity
  8
WIRING
100
AcDbBlockEnd
  0
BLOCK
  5
21F
330
21D
100
AcDbEntity
  8
WIRING
 62
     7
100
AcDbBlockBegin
  2
AI9-BLK13
 70
     0
 71
     1
 10
0.0
 20
0.0
 30
0.0
  3
AI9-BLK13
  1

  0
LINE
  5
231
330
21D
100
AcDbEntity
  8
WIRING
 62
     7
100
AcDbLine
 10
-12.69121500651041
 20
4.95353054470486
 30
0.0
 11
-12.69121500651041
 21
-19.80189208984373
 31
0.0
  0
LINE
  5
230
330
21D
100
AcDbEntity
  8
WIRING
 62
     7
100
AcDbLine
 10
-0.15037841796875
 20
19.80189208984373
 30
0.0
 11
-0.15037841796875
 21
-19.80189208984373
 31
0.0
  0
LINE
  5
22F
330
21D
100
AcDbEntity
  8
WIRING
 62
     7
100
AcDbLine
 10
-10.18284098307291
 20
-18.5478773328993
 30
0.0
 11
-2.658752441406249
 21
-18.5478773328993
 31
0.0
  0
MTEXT
  5
22E
330
21D
100
AcDbEntity
  8
WIRING
 62
     7
100
AcDbMText
 10
2.595018174913193
 20
-16.08935216918349
 30
0.0
 40
2.006528635938015
 41
0.0
 71
     1
 72
     2
  1
\fMS Gothic|b0|i0|c128;12.5\H1.4046;±0.15
  7
KANJISTD
 73
     1
 44
1.0
  0
INSERT
  5
228
330
21D
100
AcDbEntity
  8
WIRING
 62
     7
100
AcDbBlockReference
  2
AI9-BLK15
 10
-11.43702799479166
 20
-18.5478773328993
 30
0.0
  0
INSERT
  5
221
330
21D
100
AcDbEntity
  8
WIRING
 62
     7
100
AcDbBlockReference
  2
AI9-BLK14
 10
-1.404565429687499
 20
-18.5478773328993
 30
0.0
  0
ENDBLK
  5
232
330
21D
100
AcDbEntity
  8
WIRING
100
AcDbBlockEnd
  0
BLOCK
  5
222
330
220
100
AcDbEntity
  8
WIRING
 62
     7
100
AcDbBlockBegin
  2
AI9-BLK14
 70
     0
 71
     1
 10
0.0
 20
0.0
 30
0.0
  3
AI9-BLK14
  1

  0
LINE
  5
225
330
220
100
AcDbEntity
  8
WIRING
 62
     7
100
AcDbLine
 10
-1.254187011718749
 20
0.4178900824652779
 30
0.0
 11
1.254187011718749
 21
0.0
 31
0.0
  0
LINE
  5
224
330
220
100
AcDbEntity
  8
WIRING
 62
     7
100
AcDbLine
 10
1.254187011718749
 20
0.0
 30
0.0
 11
-1.254187011718749
 21
-0.4178900824652779
 31
0.0
  0
LINE
  5
223
330
220
100
AcDbEntity
  8
WIRING
 62
     7
100
AcDbLine
 10
1.254187011718749
 20
0.0
 30
0.0
 11
-1.254187011718749
 21
0.0
 31
0.0
  0
ENDBLK
  5
226
330
220
100
AcDbEntity
  8
WIRING
100
AcDbBlockEnd
  0
BLOCK
  5
229
330
227
100
AcDbEntity
  8
WIRING
 62
     7
100
AcDbBlockBegin
  2
AI9-BLK15
 70
     0
 71
     1
 10
0.0
 20
0.0
 30
0.0
  3
AI9-BLK15
  1

  0
LINE
  5
22C
330
227
100
AcDbEntity
  8
WIRING
 62
     7
100
AcDbLine
 10
1.254187011718749
 20
-0.4178900824652779
 30
0.0
 11
-1.254187011718749
 21
0.0
 31
0.0
  0
LINE
  5
22B
330
227
100
AcDbEntity
  8
WIRING
 62
     7
100
AcDbLine
 10
-1.254187011718749
 20
0.0
 30
0.0
 11
1.254187011718749
 21
0.4178900824652779
 31
0.0
  0
LINE
  5
22A
330
227
100
AcDbEntity
  8
WIRING
 62
     7
100
AcDbLine
 10
-1.254187011718749
 20
0.0
 30
0.0
 11
1.254187011718749
 21
0.0
 31
0.0
  0
ENDBLK
  5
22D
330
227
100
AcDbEntity
  8
WIRING
100
AcDbBlockEnd
  0
BLOCK
  5
235
330
233
100
AcDbEntity
  8
WIRING
 62
     7
100
AcDbBlockBegin
  2
AI9-BLK16
 70
     0
 71
     1
 10
0.0
 20
0.0
 30
0.0
  3
AI9-BLK16
  1

  0
LINE
  5
247
330
233
100
AcDbEntity
  8
WIRING
 62
     7
100
AcDbLine
 10
-4.514625379774305
 20
0.5608615451388889
 30
0.0
 11
-4.514625379774305
 21
-9.117100694444442
 31
0.0
  0
LINE
  5
246
330
233
100
AcDbEntity
  8
WIRING
 62
     7
100
AcDbLine
 10
4.514625379774305
 20
9.117100694444442
 30
0.0
 11
4.514625379774305
 21
-9.117100694444442
 31
0.0
  0
LINE
  5
245
330
233
100
AcDbEntity
  8
WIRING
 62
     7
100
AcDbLine
 10
-2.006595865885416
 20
-7.863085937499998
 30
0.0
 11
2.006595865885416
 21
-7.863085937499998
 31
0.0
  0
MTEXT
  5
244
330
233
100
AcDbEntity
  8
WIRING
 62
     7
100
AcDbMText
 10
-0.6740329318576388
 20
-5.32980220173559
 30
0.0
 40
2.006528635938015
 41
0.0
 71
     1
 72
     2
  1
\fMS Gothic|b0|i0|c128;9
  7
STD
 73
     1
 44
1.0
  0
INSERT
  5
23E
330
233
100
AcDbEntity
  8
WIRING
 62
     7
100
AcDbBlockReference
  2
AI9-BLK18
 10
-3.260610622829859
 20
-7.863085937499998
 30
0.0
  0
INSERT
  5
237
330
233
100
AcDbEntity
  8
WIRING
 62
     7
100
AcDbBlockReference
  2
AI9-BLK17
 10
3.260610622829859
 20
-7.863085937499998
 30
0.0
  0
ENDBLK
  5
248
330
233
100
AcDbEntity
  8
WIRING
100
AcDbBlockEnd
  0
BLOCK
  5
238
330
236
100
AcDbEntity
  8
WIRING
 62
     7
100
AcDbBlockBegin
  2
AI9-BLK17
 70
     0
 71
     1
 10
0.0
 20
0.0
 30
0.0
  3
AI9-BLK17
  1

  0
LINE
  5
23B
330
236
100
AcDbEntity
  8
WIRING
 62
     7
100
AcDbLine
 10
-1.254014756944443
 20
0.4178900824652779
 30
0.0
 11
1.254014756944443
 21
0.0
 31
0.0
  0
LINE
  5
23A
330
236
100
AcDbEntity
  8
WIRING
 62
     7
100
AcDbLine
 10
1.254014756944443
 20
0.0
 30
0.0
 11
-1.254014756944443
 21
-0.4178900824652779
 31
0.0
  0
LINE
  5
239
330
236
100
AcDbEntity
  8
WIRING
 62
     7
100
AcDbLine
 10
1.254014756944443
 20
0.0
 30
0.0
 11
-1.254014756944443
 21
0.0
 31
0.0
  0
ENDBLK
  5
23C
330
236
100
AcDbEntity
  8
WIRING
100
AcDbBlockEnd
  0
BLOCK
  5
23F
330
23D
100
AcDbEntity
  8
WIRING
 62
     7
100
AcDbBlockBegin
  2
AI9-BLK18
 70
     0
 71
     1
 10
0.0
 20
0.0
 30
0.0
  3
AI9-BLK18
  1

  0
LINE
  5
242
330
23D
100
AcDbEntity
  8
WIRING
 62
     7
100
AcDbLine
 10
1.254014756944443
 20
-0.4178900824652779
 30
0.0
 11
-1.254014756944443
 21
0.0
 31
0.0
  0
LINE
  5
241
330
23D
100
AcDbEntity
  8
WIRING
 62
     7
100
AcDbLine
 10
-1.254014756944443
 20
0.0
 30
0.0
 11
1.254014756944443
 21
0.4178900824652779
 31
0.0
  0
LINE
  5
240
330
23D
100
AcDbEntity
  8
WIRING
 62
     7
100
AcDbLine
 10
-1.254014756944443
 20
0.0
 30
0.0
 11
1.254014756944443
 21
0.0
 31
0.0
  0
ENDBLK
  5
243
330
23D
100
AcDbEntity
  8
WIRING
100
AcDbBlockEnd
  0
BLOCK
  5
24B
330
249
100
AcDbEntity
  8
WIRING
 62
     7
100
AcDbBlockBegin
  2
AI9-BLK19
 70
     0
 71
     1
 10
0.0
 20
0.0
 30
0.0
  3
AI9-BLK19
  1

  0
LINE
  5
25F
330
249
100
AcDbEntity
  8
WIRING
 62
     7
100
AcDbLine
 10
0.6678317599826388
 20
7.185780164930553
 30
0.0
 11
0.6678317599826388
 21
-7.185780164930553
 31
0.0
  0
LINE
  5
25E
330
249
100
AcDbEntity
  8
WIRING
 62
     7
100
AcDbLine
 10
-2.843754069010416
 20
4.52719997829861
 30
0.0
 11
-2.843754069010416
 21
-7.185780164930553
 31
0.0
  0
LINE
  5
25D
330
249
100
AcDbEntity
  8
WIRING
 62
     7
100
AcDbLine
 10
3.175861273871526
 20
-5.93176540798611
 30
0.0
 11
5.683890787760415
 21
-5.93176540798611
 31
0.0
  0
LINE
  5
25C
330
249
100
AcDbEntity
  8
WIRING
 62
     7
100
AcDbLine
 10
-5.351783582899305
 20
-5.93176540798611
 30
0.0
 11
-7.860157606336803
 21
-5.93176540798611
 31
0.0
  0
MTEXT
  5
25B
330
249
100
AcDbEntity
  8
WIRING
 62
     7
100
AcDbMText
 10
3.661619737413193
 20
-3.398481672221703
 30
0.0
 40
2.006528635938015
 41
0.0
 71
     1
 72
     2
  1
\fMS Gothic|b0|i0|c128;3.5
  7
STD
 73
     1
 44
1.0
  0
LINE
  5
25A
330
249
100
AcDbEntity
  8
WIRING
 62
     7
100
AcDbLine
 10
0.6678317599826388
 20
-5.93176540798611
 30
0.0
 11
-2.843754069010416
 21
-5.93176540798611
 31
0.0
  0
INSERT
  5
254
330
249
100
AcDbEntity
  8
WIRING
 62
     7
100
AcDbBlockReference
  2
AI9-BLK21
 10
1.921846516927083
 20
-5.931937662760415
 30
0.0
  0
INSERT
  5
24D
330
249
100
AcDbEntity
  8
WIRING
 62
     7
100
AcDbBlockReference
  2
AI9-BLK20
 10
-4.097768825954859
 20
-5.931937662760415
 30
0.0
  0
ENDBLK
  5
260
330
249
100
AcDbEntity
  8
WIRING
100
AcDbBlockEnd
  0
BLOCK
  5
24E
330
24C
100
AcDbEntity
  8
WIRING
 62
     7
100
AcDbBlockBegin
  2
AI9-BLK20
 70
     0
 71
     1
 10
0.0
 20
0.0
 30
0.0
  3
AI9-BLK20
  1

  0
LINE
  5
251
330
24C
100
AcDbEntity
  8
WIRING
 62
     7
100
AcDbLine
 10
-1.254014756944443
 20
0.4180623372395833
 30
0.0
 11
1.254014756944443
 21
0.0001722547743056
 31
0.0
  0
LINE
  5
250
330
24C
100
AcDbEntity
  8
WIRING
 62
     7
100
AcDbLine
 10
1.254014756944443
 20
0.0001722547743056
 30
0.0
 11
-1.254014756944443
 21
-0.4180623372395833
 31
0.0
  0
LINE
  5
24F
330
24C
100
AcDbEntity
  8
WIRING
 62
     7
100
AcDbLine
 10
1.254014756944443
 20
0.0001722547743056
 30
0.0
 11
-1.254014756944443
 21
0.0001722547743056
 31
0.0
  0
ENDBLK
  5
252
330
24C
100
AcDbEntity
  8
WIRING
100
AcDbBlockEnd
  0
BLOCK
  5
255
330
253
100
AcDbEntity
  8
WIRING
 62
     7
100
AcDbBlockBegin
  2
AI9-BLK21
 70
     0
 71
     1
 10
0.0
 20
0.0
 30
0.0
  3
AI9-BLK21
  1

  0
LINE
  5
258
330
253
100
AcDbEntity
  8
WIRING
 62
     7
100
AcDbLine
 10
1.254014756944443
 20
-0.4180623372395833
 30
0.0
 11
-1.254014756944443
 21
0.0001722547743056
 31
0.0
  0
LINE
  5
257
330
253
100
AcDbEntity
  8
WIRING
 62
     7
100
AcDbLine
 10
-1.254014756944443
 20
0.0001722547743056
 30
0.0
 11
1.254014756944443
 21
0.4180623372395833
 31
0.0
  0
LINE
  5
256
330
253
100
AcDbEntity
  8
WIRING
 62
     7
100
AcDbLine
 10
-1.254014756944443
 20
0.0001722547743056
 30
0.0
 11
1.254014756944443
 21
0.0001722547743056
 31
0.0
  0
ENDBLK
  5
259
330
253
100
AcDbEntity
  8
WIRING
100
AcDbBlockEnd
  0
BLOCK
  5
263
330
261
100
AcDbEntity
  8
WIRING
 62
     7
100
AcDbBlockBegin
  2
AI9-BLK22
 70
     0
 71
     1
 10
0.0
 20
0.0
 30
0.0
  3
AI9-BLK22
  1

  0
LINE
  5
275
330
261
100
AcDbEntity
  8
WIRING
 62
     7
100
AcDbLine
 10
7.379050021701386
 20
17.55724012586805
 30
0.0
 11
-5.819972059461804
 21
17.55724012586805
 31
0.0
  0
LINE
  5
274
330
261
100
AcDbEntity
  8
WIRING
 62
     7
100
AcDbLine
 10
7.379050021701386
 20
-17.55724012586805
 30
0.0
 11
-5.819972059461804
 21
-17.55724012586805
 31
0.0
  0
LINE
  5
273
330
261
100
AcDbEntity
  8
WIRING
 62
     7
100
AcDbLine
 10
-4.56595730251736
 20
15.04921061197916
 30
0.0
 11
-4.56595730251736
 21
-15.04886610243055
 31
0.0
  0
INSERT
  5
26D
330
261
100
AcDbEntity
  8
WIRING
 62
     7
100
AcDbBlockReference
  2
AI9-BLK24
 10
-4.56595730251736
 20
16.30322536892361
 30
0.0
  0
INSERT
  5
266
330
261
100
AcDbEntity
  8
WIRING
 62
     7
100
AcDbBlockReference
  2
AI9-BLK23
 10
-4.56595730251736
 20
-16.3030531141493
 30
0.0
  0
MTEXT
  5
264
330
261
100
AcDbEntity
  8
WIRING
 62
     7
100
AcDbMText
 10
-7.099241038281767
 20
-2.696476236979166
 30
0.0
 40
2.006528635938015
 41
0.0
 71
     1
 72
     2
  1
\fMS Gothic|b0|i0|c128;φ35
  7
KANJISTD
 11
0.0
 21
1.0
 31
0.0
 73
     1
 44
1.0
  0
ENDBLK
  5
276
330
261
100
AcDbEntity
  8
WIRING
100
AcDbBlockEnd
  0
BLOCK
  5
267
330
265
100
AcDbEntity
  8
WIRING
 62
     7
100
AcDbBlockBegin
  2
AI9-BLK23
 70
     0
 71
     1
 10
0.0
 20
0.0
 30
0.0
  3
AI9-BLK23
  1

  0
LINE
  5
26A
330
265
100
AcDbEntity
  8
WIRING
 62
     7
100
AcDbLine
 10
0.4180623372395833
 20
1.254187011718749
 30
0.0
 11
0.0
 21
-1.254187011718749
 31
0.0
  0
LINE
  5
269
330
265
100
AcDbEntity
  8
WIRING
 62
     7
100
AcDbLine
 10
0.0
 20
-1.254187011718749
 30
0.0
 11
-0.4180623372395833
 21
1.254187011718749
 31
0.0
  0
LINE
  5
268
330
265
100
AcDbEntity
  8
WIRING
 62
     7
100
AcDbLine
 10
0.0
 20
-1.254187011718749
 30
0.0
 11
0.0
 21
1.254187011718749
 31
0.0
  0
ENDBLK
  5
26B
330
265
100
AcDbEntity
  8
WIRING
100
AcDbBlockEnd
  0
BLOCK
  5
26E
330
26C
100
AcDbEntity
  8
WIRING
 62
     7
100
AcDbBlockBegin
  2
AI9-BLK24
 70
     0
 71
     1
 10
0.0
 20
0.0
 30
0.0
  3
AI9-BLK24
  1

  0
LINE
  5
271
330
26C
100
AcDbEntity
  8
WIRING
 62
     7
100
AcDbLine
 10
-0.4180623372395833
 20
-1.254014756944443
 30
0.0
 11
0.0
 21
1.254014756944443
 31
0.0
  0
LINE
  5
270
330
26C
100
AcDbEntity
  8
WIRING
 62
     7
100
AcDbLine
 10
0.0
 20
1.254014756944443
 30
0.0
 11
0.4180623372395833
 21
-1.254014756944443
 31
0.0
  0
LINE
  5
26F
330
26C
100
AcDbEntity
  8
WIRING
 62
     7
100
AcDbLine
 10
0.0
 20
1.254014756944443
 30
0.0
 11
0.0
 21
-1.254014756944443
 31
0.0
  0
ENDBLK
  5
272
330
26C
100
AcDbEntity
  8
WIRING
100
AcDbBlockEnd
  0
BLOCK
  5
279
330
277
100
AcDbEntity
  8
WIRING
 62
     7
100
AcDbBlockBegin
  2
AI9-BLK25
 70
     0
 71
     1
 10
0.0
 20
0.0
 30
0.0
  3
AI9-BLK25
  1

  0
LINE
  5
28B
330
277
100
AcDbEntity
  8
WIRING
 62
     7
100
AcDbLine
 10
-11.57982720269097
 20
12.29003363715277
 30
0.0
 11
11.57982720269097
 21
12.29003363715277
 31
0.0
  0
LINE
  5
28A
330
277
100
AcDbEntity
  8
WIRING
 62
     7
100
AcDbLine
 10
7.357345920138887
 20
-12.29003363715277
 30
0.0
 11
11.57982720269097
 21
-12.29003363715277
 31
0.0
  0
LINE
  5
289
330
277
100
AcDbEntity
  8
WIRING
 62
     7
100
AcDbLine
 10
10.32581244574652
 20
9.782004123263886
 30
0.0
 11
10.32581244574652
 21
-9.781659613715275
 31
0.0
  0
INSERT
  5
283
330
277
100
AcDbEntity
  8
WIRING
 62
     7
100
AcDbBlockReference
  2
AI9-BLK27
 10
10.32581244574652
 20
11.03601888020832
 30
0.0
  0
INSERT
  5
27C
330
277
100
AcDbEntity
  8
WIRING
 62
     7
100
AcDbBlockReference
  2
AI9-BLK26
 10
10.32581244574652
 20
-11.03584662543402
 30
0.0
  0
MTEXT
  5
27A
330
277
100
AcDbEntity
  8
WIRING
 62
     7
100
AcDbMText
 10
7.792528709982118
 20
-2.696820746527776
 30
0.0
 40
2.006528635938015
 41
0.0
 71
     1
 72
     2
  1
\fMS Gothic|b0|i0|c128;24.5
  7
STD
 11
0.0
 21
1.0
 31
0.0
 73
     1
 44
1.0
  0
ENDBLK
  5
28C
330
277
100
AcDbEntity
  8
WIRING
100
AcDbBlockEnd
  0
BLOCK
  5
27D
330
27B
100
AcDbEntity
  8
WIRING
 62
     7
100
AcDbBlockBegin
  2
AI9-BLK26
 70
     0
 71
     1
 10
0.0
 20
0.0
 30
0.0
  3
AI9-BLK26
  1

  0
LINE
  5
280
330
27B
100
AcDbEntity
  8
WIRING
 62
     7
100
AcDbLine
 10
0.4180623372395833
 20
1.254187011718749
 30
0.0
 11
0.0
 21
-1.254187011718749
 31
0.0
  0
LINE
  5
27F
330
27B
100
AcDbEntity
  8
WIRING
 62
     7
100
AcDbLine
 10
0.0
 20
-1.254187011718749
 30
0.0
 11
-0.4180623372395833
 21
1.254187011718749
 31
0.0
  0
LINE
  5
27E
330
27B
100
AcDbEntity
  8
WIRING
 62
     7
100
AcDbLine
 10
0.0
 20
-1.254187011718749
 30
0.0
 11
0.0
 21
1.254187011718749
 31
0.0
  0
ENDBLK
  5
281
330
27B
100
AcDbEntity
  8
WIRING
100
AcDbBlockEnd
  0
BLOCK
  5
284
330
282
100
AcDbEntity
  8
WIRING
 62
     7
100
AcDbBlockBegin
  2
AI9-BLK27
 70
     0
 71
     1
 10
0.0
 20
0.0
 30
0.0
  3
AI9-BLK27
  1

  0
LINE
  5
287
330
282
100
AcDbEntity
  8
WIRING
 62
     7
100
AcDbLine
 10
-0.4180623372395833
 20
-1.254014756944443
 30
0.0
 11
0.0
 21
1.254014756944443
 31
0.0
  0
LINE
  5
286
330
282
100
AcDbEntity
  8
WIRING
 62
     7
100
AcDbLine
 10
0.0
 20
1.254014756944443
 30
0.0
 11
0.4180623372395833
 21
-1.254014756944443
 31
0.0
  0
LINE
  5
285
330
282
100
AcDbEntity
  8
WIRING
 62
     7
100
AcDbLine
 10
0.0
 20
1.254014756944443
 30
0.0
 11
0.0
 21
-1.254014756944443
 31
0.0
  0
ENDBLK
  5
288
330
282
100
AcDbEntity
  8
WIRING
100
AcDbBlockEnd
  0
BLOCK
  5
28F
330
28D
100
AcDbEntity
  8
WIRING
 62
     7
100
AcDbBlockBegin
  2
AI9-BLK28
 70
     0
 71
     1
 10
0.0
 20
0.0
 30
0.0
  3
AI9-BLK28
  1

  0
LINE
  5
2A1
330
28D
100
AcDbEntity
  8
WIRING
 62
     7
100
AcDbLine
 10
14.94869995117187
 20
-12.96441107855901
 30
0.0
 11
14.94869995117187
 21
11.40550537109374
 31
0.0
  0
LINE
  5
2A0
330
28D
100
AcDbEntity
  8
WIRING
 62
     7
100
AcDbLine
 10
-14.94869995117187
 20
-12.96441107855901
 30
0.0
 11
-14.94869995117187
 21
11.40550537109374
 31
0.0
  0
LINE
  5
29F
330
28D
100
AcDbEntity
  8
WIRING
 62
     7
100
AcDbLine
 10
12.44049818250868
 20
10.15114610460069
 30
0.0
 11
-12.44049818250868
 21
10.15114610460069
 31
0.0
  0
INSERT
  5
299
330
28D
100
AcDbEntity
  8
WIRING
 62
     7
100
AcDbBlockReference
  2
AI9-BLK30
 10
13.69459906684027
 20
10.15131835937499
 30
0.0
  0
INSERT
  5
292
330
28D
100
AcDbEntity
  8
WIRING
 62
     7
100
AcDbBlockReference
  2
AI9-BLK29
 10
-13.69459906684027
 20
10.15131835937499
 30
0.0
  0
MTEXT
  5
290
330
28D
100
AcDbEntity
  8
WIRING
 62
     7
100
AcDbMText
 10
-2.696734619140623
 20
12.6844298403651
 30
0.0
 40
2.006528635938015
 41
0.0
 71
     1
 72
     2
  1
\fMS Gothic|b0|i0|c128;29.8
  7
STD
 73
     1
 44
1.0
  0
ENDBLK
  5
2A2
330
28D
100
AcDbEntity
  8
WIRING
100
AcDbBlockEnd
  0
BLOCK
  5
293
330
291
100
AcDbEntity
  8
WIRING
 62
     7
100
AcDbBlockBegin
  2
AI9-BLK29
 70
     0
 71
     1
 10
0.0
 20
0.0
 30
0.0
  3
AI9-BLK29
  1

  0
LINE
  5
296
330
291
100
AcDbEntity
  8
WIRING
 62
     7
100
AcDbLine
 10
1.254100884331596
 20
-0.4180623372395833
 30
0.0
 11
-1.254100884331596
 21
-0.0001722547743056
 31
0.0
  0
LINE
  5
295
330
291
100
AcDbEntity
  8
WIRING
 62
     7
100
AcDbLine
 10
-1.254100884331596
 20
-0.0001722547743056
 30
0.0
 11
1.254100884331596
 21
0.4180623372395833
 31
0.0
  0
LINE
  5
294
330
291
100
AcDbEntity
  8
WIRING
 62
     7
100
AcDbLine
 10
-1.254100884331596
 20
-0.0001722547743056
 30
0.0
 11
1.254100884331596
 21
-0.0001722547743056
 31
0.0
  0
ENDBLK
  5
297
330
291
100
AcDbEntity
  8
WIRING
100
AcDbBlockEnd
  0
BLOCK
  5
29A
330
298
100
AcDbEntity
  8
WIRING
 62
     7
100
AcDbBlockBegin
  2
AI9-BLK30
 70
     0
 71
     1
 10
0.0
 20
0.0
 30
0.0
  3
AI9-BLK30
  1

  0
LINE
  5
29D
330
298
100
AcDbEntity
  8
WIRING
 62
     7
100
AcDbLine
 10
-1.254100884331596
 20
0.4180623372395833
 30
0.0
 11
1.254100884331596
 21
-0.0001722547743056
 31
0.0
  0
LINE
  5
29C
330
298
100
AcDbEntity
  8
WIRING
 62
     7
100
AcDbLine
 10
1.254100884331596
 20
-0.0001722547743056
 30
0.0
 11
-1.254100884331596
 21
-0.4180623372395833
 31
0.0
  0
LINE
  5
29B
330
298
100
AcDbEntity
  8
WIRING
 62
     7
100
AcDbLine
 10
1.254100884331596
 20
-0.0001722547743056
 30
0.0
 11
-1.254100884331596
 21
-0.0001722547743056
 31
0.0
  0
ENDBLK
  5
29E
330
298
100
AcDbEntity
  8
WIRING
100
AcDbBlockEnd
  0
BLOCK
  5
2A6
330
2A4
100
AcDbEntity
  8
WIRING
 62
     7
100
AcDbBlockBegin
  2
AI9-BLK31
 70
     0
 71
     1
 10
0.0
 20
0.0
 30
0.0
  3
AI9-BLK31
  1

  0
LINE
  5
2B8
330
2A4
100
AcDbEntity
  8
WIRING
 62
     7
100
AcDbLine
 10
-11.22868584526908
 20
-11.49301079644097
 30
0.0
 11
11.22868584526908
 21
-11.49301079644097
 31
0.0
  0
LINE
  5
2B7
330
2A4
100
AcDbEntity
  8
WIRING
 62
     7
100
AcDbLine
 10
7.006204562717011
 20
11.49301079644097
 30
0.0
 11
11.22868584526908
 21
11.49301079644097
 31
0.0
  0
LINE
  5
2B6
330
2A4
100
AcDbEntity
  8
WIRING
 62
     7
100
AcDbLine
 10
9.974671088324653
 20
-8.984981282552082
 30
0.0
 11
9.974671088324653
 21
8.984981282552082
 31
0.0
  0
INSERT
  5
2B0
330
2A4
100
AcDbEntity
  8
WIRING
 62
     7
100
AcDbBlockReference
  2
AI9-BLK33
 10
9.974671088324653
 20
-10.23899603949651
 30
0.0
  0
INSERT
  5
2A9
330
2A4
100
AcDbEntity
  8
WIRING
 62
     7
100
AcDbBlockReference
  2
AI9-BLK32
 10
9.974671088324653
 20
10.23899603949651
 30
0.0
  0
MTEXT
  5
2A7
330
2A4
100
AcDbEntity
  8
WIRING
 62
     7
100
AcDbMText
 10
7.441559607334547
 20
-2.69664849175347
 30
0.0
 40
2.006528635938015
 41
0.0
 71
     1
 72
     2
  1
\fMS Gothic|b0|i0|c128;22.9
  7
STD
 11
0.0
 21
1.0
 31
0.0
 73
     1
 44
1.0
  0
ENDBLK
  5
2B9
330
2A4
100
AcDbEntity
  8
WIRING
100
AcDbBlockEnd
  0
BLOCK
  5
2AA
330
2A8
100
AcDbEntity
  8
WIRING
 62
     7
100
AcDbBlockBegin
  2
AI9-BLK32
 70
     0
 71
     1
 10
0.0
 20
0.0
 30
0.0
  3
AI9-BLK32
  1

  0
LINE
  5
2AD
330
2A8
100
AcDbEntity
  8
WIRING
 62
     7
100
AcDbLine
 10
-0.4180623372395833
 20
-1.254014756944443
 30
0.0
 11
0.0
 21
1.254014756944443
 31
0.0
  0
LINE
  5
2AC
330
2A8
100
AcDbEntity
  8
WIRING
 62
     7
100
AcDbLine
 10
0.0
 20
1.254014756944443
 30
0.0
 11
0.4180623372395833
 21
-1.254014756944443
 31
0.0
  0
LINE
  5
2AB
330
2A8
100
AcDbEntity
  8
WIRING
 62
     7
100
AcDbLine
 10
0.0
 20
1.254014756944443
 30
0.0
 11
0.0
 21
-1.254014756944443
 31
0.0
  0
ENDBLK
  5
2AE
330
2A8
100
AcDbEntity
  8
WIRING
100
AcDbBlockEnd
  0
BLOCK
  5
2B1
330
2AF
100
AcDbEntity
  8
WIRING
 62
     7
100
AcDbBlockBegin
  2
AI9-BLK33
 70
     0
 71
     1
 10
0.0
 20
0.0
 30
0.0
  3
AI9-BLK33
  1

  0
LINE
  5
2B4
330
2AF
100
AcDbEntity
  8
WIRING
 62
     7
100
AcDbLine
 10
0.4180623372395833
 20
1.254014756944443
 30
0.0
 11
0.0
 21
-1.254014756944443
 31
0.0
  0
LINE
  5
2B3
330
2AF
100
AcDbEntity
  8
WIRING
 62
     7
100
AcDbLine
 10
0.0
 20
-1.254014756944443
 30
0.0
 11
-0.4180623372395833
 21
1.254014756944443
 31
0.0
  0
LINE
  5
2B2
330
2AF
100
AcDbEntity
  8
WIRING
 62
     7
100
AcDbLine
 10
0.0
 20
-1.254014756944443
 30
0.0
 11
0.0
 21
1.254014756944443
 31
0.0
  0
ENDBLK
  5
2B5
330
2AF
100
AcDbEntity
  8
WIRING
100
AcDbBlockEnd
  0
BLOCK
  5
2BC
330
2BA
100
AcDbEntity
  8
WIRING
 62
     7
100
AcDbBlockBegin
  2
AI9-BLK34
 70
     0
 71
     1
 10
0.0
 20
0.0
 30
0.0
  3
AI9-BLK34
  1

  0
LINE
  5
2D0
330
2BA
100
AcDbEntity
  8
WIRING
 62
     7
100
AcDbLine
 10
2.093412272135415
 20
2.445501030815971
 30
0.0
 11
2.093412272135415
 21
-19.80189208984373
 31
0.0
  0
LINE
  5
2CF
330
2BA
100
AcDbEntity
  8
WIRING
 62
     7
100
AcDbLine
 10
0.8183824327256942
 20
19.80189208984373
 30
0.0
 11
0.8183824327256942
 21
-19.80189208984373
 31
0.0
  0
LINE
  5
2CE
330
2BA
100
AcDbEntity
  8
WIRING
 62
     7
100
AcDbLine
 10
4.601786295572916
 20
-18.5478773328993
 30
0.0
 11
7.109815809461803
 21
-18.5478773328993
 31
0.0
  0
LINE
  5
2CD
330
2BA
100
AcDbEntity
  8
WIRING
 62
     7
100
AcDbLine
 10
-1.689819335937499
 20
-18.5478773328993
 30
0.0
 11
-4.198021104600693
 21
-18.5478773328993
 31
0.0
  0
MTEXT
  5
2CC
330
2BA
100
AcDbEntity
  8
WIRING
 62
     7
100
AcDbMText
 10
-6.894841851128472
 20
-16.01459359713489
 30
0.0
 40
2.006528635938015
 41
0.0
 71
     1
 72
     2
  1
\fMS Gothic|b0|i0|c128;1.27
  7
STD
 73
     1
 44
1.0
  0
LINE
  5
2CB
330
2BA
100
AcDbEntity
  8
WIRING
 62
     7
100
AcDbLine
 10
2.093412272135415
 20
-18.5478773328993
 30
0.0
 11
0.8183824327256942
 21
-18.5478773328993
 31
0.0
  0
INSERT
  5
2C5
330
2BA
100
AcDbEntity
  8
WIRING
 62
     7
100
AcDbBlockReference
  2
AI9-BLK36
 10
3.347599283854166
 20
-18.5478773328993
 30
0.0
  0
INSERT
  5
2BE
330
2BA
100
AcDbEntity
  8
WIRING
 62
     7
100
AcDbBlockReference
  2
AI9-BLK35
 10
-0.4357184516059027
 20
-18.5478773328993
 30
0.0
  0
ENDBLK
  5
2D1
330
2BA
100
AcDbEntity
  8
WIRING
100
AcDbBlockEnd
  0
BLOCK
  5
2BF
330
2BD
100
AcDbEntity
  8
WIRING
 62
     7
100
AcDbBlockBegin
  2
AI9-BLK35
 70
     0
 71
     1
 10
0.0
 20
0.0
 30
0.0
  3
AI9-BLK35
  1

  0
LINE
  5
2C2
330
2BD
100
AcDbEntity
  8
WIRING
 62
     7
100
AcDbLine
 10
-1.254100884331596
 20
0.4178900824652779
 30
0.0
 11
1.254100884331596
 21
0.0
 31
0.0
  0
LINE
  5
2C1
330
2BD
100
AcDbEntity
  8
WIRING
 62
     7
100
AcDbLine
 10
1.254100884331596
 20
0.0
 30
0.0
 11
-1.254100884331596
 21
-0.4178900824652779
 31
0.0
  0
LINE
  5
2C0
330
2BD
100
AcDbEntity
  8
WIRING
 62
     7
100
AcDbLine
 10
1.254100884331596
 20
0.0
 30
0.0
 11
-1.254100884331596
 21
0.0
 31
0.0
  0
ENDBLK
  5
2C3
330
2BD
100
AcDbEntity
  8
WIRING
100
AcDbBlockEnd
  0
BLOCK
  5
2C6
330
2C4
100
AcDbEntity
  8
WIRING
 62
     7
100
AcDbBlockBegin
  2
AI9-BLK36
 70
     0
 71
     1
 10
0.0
 20
0.0
 30
0.0
  3
AI9-BLK36
  1

  0
LINE
  5
2C9
330
2C4
100
AcDbEntity
  8
WIRING
 62
     7
100
AcDbLine
 10
1.254187011718749
 20
-0.4178900824652779
 30
0.0
 11
-1.254187011718749
 21
0.0
 31
0.0
  0
LINE
  5
2C8
330
2C4
100
AcDbEntity
  8
WIRING
 62
     7
100
AcDbLine
 10
-1.254187011718749
 20
0.0
 30
0.0
 11
1.254187011718749
 21
0.4178900824652779
 31
0.0
  0
LINE
  5
2C7
330
2C4
100
AcDbEntity
  8
WIRING
 62
     7
100
AcDbLine
 10
-1.254187011718749
 20
0.0
 30
0.0
 11
1.254187011718749
 21
0.0
 31
0.0
  0
ENDBLK
  5
2CA
330
2C4
100
AcDbEntity
  8
WIRING
100
AcDbBlockEnd
  0
BLOCK
  5
2D4
330
2D2
100
AcDbEntity
  8
WIRING
 62
     7
100
AcDbBlockBegin
  2
AI9-BLK37
 70
     0
 71
     1
 10
0.0
 20
0.0
 30
0.0
  3
AI9-BLK37
  1

  0
LINE
  5
2E6
330
2D2
100
AcDbEntity
  8
WIRING
 62
     7
100
AcDbLine
 10
-23.07507731119791
 20
9.869681803385416
 30
0.0
 11
-23.07507731119791
 21
-12.3777113172743
 31
0.0
  0
LINE
  5
2E5
330
2D2
100
AcDbEntity
  8
WIRING
 62
     7
100
AcDbLine
 10
23.07524956597221
 20
12.3777113172743
 30
0.0
 11
23.07524956597221
 21
-12.3777113172743
 31
0.0
  0
LINE
  5
2E4
330
2D2
100
AcDbEntity
  8
WIRING
 62
     7
100
AcDbLine
 10
-20.56670328776041
 20
-11.12369656032986
 30
0.0
 11
20.56722005208333
 21
-11.12369656032986
 31
0.0
  0
INSERT
  5
2DE
330
2D2
100
AcDbEntity
  8
WIRING
 62
     7
100
AcDbBlockReference
  2
AI9-BLK39
 10
-21.82089029947916
 20
-11.12369656032986
 30
0.0
  0
INSERT
  5
2D7
330
2D2
100
AcDbEntity
  8
WIRING
 62
     7
100
AcDbBlockReference
  2
AI9-BLK38
 10
21.82123480902776
 20
-11.12369656032986
 30
0.0
  0
MTEXT
  5
2D5
330
2D2
100
AcDbEntity
  8
WIRING
 62
     7
100
AcDbMText
 10
-1.348065863715276
 20
-8.590412824565452
 30
0.0
 40
2.006528635938015
 41
0.0
 71
     1
 72
     2
  1
\fMS Gothic|b0|i0|c128;46
  7
STD
 73
     1
 44
1.0
  0
ENDBLK
  5
2E7
330
2D2
100
AcDbEntity
  8
WIRING
100
AcDbBlockEnd
  0
BLOCK
  5
2D8
330
2D6
100
AcDbEntity
  8
WIRING
 62
     7
100
AcDbBlockBegin
  2
AI9-BLK38
 70
     0
 71
     1
 10
0.0
 20
0.0
 30
0.0
  3
AI9-BLK38
  1

  0
LINE
  5
2DB
330
2D6
100
AcDbEntity
  8
WIRING
 62
     7
100
AcDbLine
 10
-1.254014756944443
 20
0.4178900824652779
 30
0.0
 11
1.254014756944443
 21
0.0
 31
0.0
  0
LINE
  5
2DA
330
2D6
100
AcDbEntity
  8
WIRING
 62
     7
100
AcDbLine
 10
1.254014756944443
 20
0.0
 30
0.0
 11
-1.254014756944443
 21
-0.4178900824652779
 31
0.0
  0
LINE
  5
2D9
330
2D6
100
AcDbEntity
  8
WIRING
 62
     7
100
AcDbLine
 10
1.254014756944443
 20
0.0
 30
0.0
 11
-1.254014756944443
 21
0.0
 31
0.0
  0
ENDBLK
  5
2DC
330
2D6
100
AcDbEntity
  8
WIRING
100
AcDbBlockEnd
  0
BLOCK
  5
2DF
330
2DD
100
AcDbEntity
  8
WIRING
 62
     7
100
AcDbBlockBegin
  2
AI9-BLK39
 70
     0
 71
     1
 10
0.0
 20
0.0
 30
0.0
  3
AI9-BLK39
  1

  0
LINE
  5
2E2
330
2DD
100
AcDbEntity
  8
WIRING
 62
     7
100
AcDbLine
 10
1.254187011718749
 20
-0.4178900824652779
 30
0.0
 11
-1.254187011718749
 21
0.0
 31
0.0
  0
LINE
  5
2E1
330
2DD
100
AcDbEntity
  8
WIRING
 62
     7
100
AcDbLine
 10
-1.254187011718749
 20
0.0
 30
0.0
 11
1.254187011718749
 21
0.4178900824652779
 31
0.0
  0
LINE
  5
2E0
330
2DD
100
AcDbEntity
  8
WIRING
 62
     7
100
AcDbLine
 10
-1.254187011718749
 20
0.0
 30
0.0
 11
1.254187011718749
 21
0.0
 31
0.0
  0
ENDBLK
  5
2E3
330
2DD
100
AcDbEntity
  8
WIRING
100
AcDbBlockEnd
  0
BLOCK
  5
2EA
330
2E8
100
AcDbEntity
  8
WIRING
 62
     7
100
AcDbBlockBegin
  2
AI9-BLK40
 70
     0
 71
     1
 10
0.0
 20
0.0
 30
0.0
  3
AI9-BLK40
  1

  0
LINE
  5
2FC
330
2E8
100
AcDbEntity
  8
WIRING
 62
     7
100
AcDbLine
 10
-11.78842773437499
 20
4.838981119791665
 30
0.0
 11
-11.78842773437499
 21
-4.838981119791665
 31
0.0
  0
LINE
  5
2FB
330
2E8
100
AcDbEntity
  8
WIRING
 62
     7
100
AcDbLine
 10
11.78842773437499
 20
4.838981119791665
 30
0.0
 11
11.78842773437499
 21
-4.838981119791665
 31
0.0
  0
LINE
  5
2FA
330
2E8
100
AcDbEntity
  8
WIRING
 62
     7
100
AcDbLine
 10
-9.280398220486112
 20
-3.58496636284722
 30
0.0
 11
9.280053710937499
 21
-3.58496636284722
 31
0.0
  0
INSERT
  5
2F4
330
2E8
100
AcDbEntity
  8
WIRING
 62
     7
100
AcDbBlockReference
  2
AI9-BLK42
 10
-10.53441297743055
 20
-3.58496636284722
 30
0.0
  0
INSERT
  5
2ED
330
2E8
100
AcDbEntity
  8
WIRING
 62
     7
100
AcDbBlockReference
  2
AI9-BLK41
 10
10.53424072265624
 20
-3.58496636284722
 30
0.0
  0
MTEXT
  5
2EB
330
2E8
100
AcDbEntity
  8
WIRING
 62
     7
100
AcDbMText
 10
-2.696820746527776
 20
-1.051682627082814
 30
0.0
 40
2.006528635938015
 41
0.0
 71
     1
 72
     2
  1
\fMS Gothic|b0|i0|c128;23.5
  7
STD
 73
     1
 44
1.0
  0
ENDBLK
  5
2FD
330
2E8
100
AcDbEntity
  8
WIRING
100
AcDbBlockEnd
  0
BLOCK
  5
2EE
330
2EC
100
AcDbEntity
  8
WIRING
 62
     7
100
AcDbBlockBegin
  2
AI9-BLK41
 70
     0
 71
     1
 10
0.0
 20
0.0
 30
0.0
  3
AI9-BLK41
  1

  0
LINE
  5
2F1
330
2EC
100
AcDbEntity
  8
WIRING
 62
     7
100
AcDbLine
 10
-1.254187011718749
 20
0.4178900824652779
 30
0.0
 11
1.254187011718749
 21
0.0
 31
0.0
  0
LINE
  5
2F0
330
2EC
100
AcDbEntity
  8
WIRING
 62
     7
100
AcDbLine
 10
1.254187011718749
 20
0.0
 30
0.0
 11
-1.254187011718749
 21
-0.4178900824652779
 31
0.0
  0
LINE
  5
2EF
330
2EC
100
AcDbEntity
  8
WIRING
 62
     7
100
AcDbLine
 10
1.254187011718749
 20
0.0
 30
0.0
 11
-1.254187011718749
 21
0.0
 31
0.0
  0
ENDBLK
  5
2F2
330
2EC
100
AcDbEntity
  8
WIRING
100
AcDbBlockEnd
  0
BLOCK
  5
2F5
330
2F3
100
AcDbEntity
  8
WIRING
 62
     7
100
AcDbBlockBegin
  2
AI9-BLK42
 70
     0
 71
     1
 10
0.0
 20
0.0
 30
0.0
  3
AI9-BLK42
  1

  0
LINE
  5
2F8
330
2F3
100
AcDbEntity
  8
WIRING
 62
     7
100
AcDbLine
 10
1.254014756944443
 20
-0.4178900824652779
 30
0.0
 11
-1.254014756944443
 21
0.0
 31
0.0
  0
LINE
  5
2F7
330
2F3
100
AcDbEntity
  8
WIRING
 62
     7
100
AcDbLine
 10
-1.254014756944443
 20
0.0
 30
0.0
 11
1.254014756944443
 21
0.4178900824652779
 31
0.0
  0
LINE
  5
2F6
330
2F3
100
AcDbEntity
  8
WIRING
 62
     7
100
AcDbLine
 10
-1.254014756944443
 20
0.0
 30
0.0
 11
1.254014756944443
 21
0.0
 31
0.0
  0
ENDBLK
  5
2F9
330
2F3
100
AcDbEntity
  8
WIRING
100
AcDbBlockEnd
  0
ENDSEC
  0
SECTION
  2
ENTITIES
  0
INSERT
  5
2D3
330
A
100
AcDbEntity
  8
WIRING
 62
     0
100
AcDbBlockReference
  2
AI9-BLK37
 10
119.8745090060763
 20
67.24016791449653
 30
0.0
  0
INSERT
  5
2BB
330
A
100
AcDbEntity
  8
WIRING
 62
     0
100
AcDbBlockReference
  2
AI9-BLK34
 10
94.70601942274305
 20
74.66434868706596
 30
0.0
  0
INSERT
  5
2A5
330
A
100
AcDbEntity
  8
WIRING
 62
     0
100
AcDbBlockReference
  2
AI9-BLK31
 10
53.17461819118922
 20
83.60023735894095
 30
0.0
  0
MTEXT
  5
2A3
330
A
100
AcDbEntity
  8
WIRING
 62
     7
100
AcDbMText
 10
76.5500217013889
 20
54.9490335187505
 30
0.0
 40
2.006528635938015
 41
0.0
 71
     1
 72
     2
  1
\fMS Gothic|b0|i0|c128;(Wide Near)
  7
STD
 73
     1
 44
1.0
  0
INSERT
  5
28E
330
A
100
AcDbEntity
  8
WIRING
 62
     0
100
AcDbBlockReference
  2
AI9-BLK28
 10
39.61334431966145
 20
122.6207668728298
 30
0.0
  0
INSERT
  5
278
330
A
100
AcDbEntity
  8
WIRING
 62
     0
100
AcDbBlockReference
  2
AI9-BLK25
 10
52.82347683376736
 20
107.3832817925346
 30
0.0
  0
INSERT
  5
262
330
A
100
AcDbEntity
  8
WIRING
 62
     0
100
AcDbBlockReference
  2
AI9-BLK22
 10
88.99405110677083
 20
95.09324815538194
 30
0.0
  0
INSERT
  5
207
330
A
100
AcDbEntity
  8
WIRING
 62
     0
100
AcDbBlockReference
  2
AI9-BLK10
 10
160.0887641059026
 20
95.09342041015623
 30
0.0
  0
INSERT
  5
1D9
330
A
100
AcDbEntity
  8
WIRING
 62
     0
100
AcDbBlockReference
  2
AI9-BLK4
 10
146.2480929904513
 20
77.92495930989581
 30
0.0
  0
MTEXT
  5
1BE
330
A
100
AcDbEntity
  8
WIRING
 62
     0
100
AcDbMText
 10
108.9237382388698
 20
98.24275444878471
 30
0.0
 40
1.203906617900997
 41
0.0
 71
     1
 72
     2
  1
\fMS PGothic|b0|i0|c128;Made in Japan
  7
STD
 11
0.0
 21
1.0
 31
0.0
 73
     1
 44
1.0
  0
MTEXT
  5
1BD
330
A
100
AcDbEntity
  8
WIRING
 62
     0
100
AcDbMText
 10
106.7220891688392
 20
106.5461235894096
 30
0.0
 40
1.504896508243978
 41
0.0
 71
     1
 72
     2
  1
\fMS PGothic|b0|i0|c128;CS
  7
STD
 11
0.0
 21
1.0
 31
0.0
 73
     1
 44
1.0
  0
MTEXT
  5
1BC
330
A
100
AcDbEntity
  8
WIRING
 62
     0
100
AcDbMText
 10
104.5399656879365
 20
96.18672146267359
 30
0.0
 40
1.504896508243978
 41
0.0
 71
     1
 72
     2
  1
\fMS PGothic|b0|i0|c128;1:1. 0  3.0-8.5mm
  7
STD
 11
0.0
 21
1.0
 31
0.0
 73
     1
 44
1.0
  0
MTEXT
  5
1BB
330
A
100
AcDbEntity
  8
WIRING
 62
     0
100
AcDbMText
 10
106.7210556401934
 20
97.90720214843751
 30
0.0
 40
1.504896508243978
 41
0.0
 71
     1
 72
     2
  1
\fMS PGothic|b0|i0|c128;1/3"
  7
STD
 11
0.0
 21
1.0
 31
0.0
 73
     1
 44
1.0
  0
MTEXT
  5
1BA
330
A
100
AcDbEntity
  8
WIRING
 62
     0
100
AcDbMText
 10
101.469119151922
 20
97.82314181857636
 30
0.0
 40
1.80588627342509
 41
0.0
 71
     1
 72
     2
  1
\fMS PGothic|b0|i0|c128;ED-IR     \H1.6052; 
  7
STD
 11
0.0
 21
1.0
 31
0.0
 73
     1
 44
1.0
  0
MTEXT
  5
1B9
330
A
100
AcDbEntity
  8
WIRING
 62
     0
100
AcDbMText
 10
101.7701089171032
 20
106.5461235894096
 30
0.0
 40
1.504896508243978
 41
0.0
 71
     1
 72
     2
  1
\fMS PGothic|b0|i0|c128;Pro  \H1.3043; \C7;  
  7
STD
 11
0.0
 21
1.0
 31
0.0
 73
     1
 44
1.0
  0
LINE
  5
12B
330
A
100
AcDbEntity
  8
CENTER
  6
AI9-LType3
 62
     0
100
AcDbLine
 10
110.3436523437499
 20
71.68864746093747
 30
0.0
 11
110.3436523437499
 21
78.45343695746527
 31
0.0
  0
LINE
  5
128
330
A
100
AcDbEntity
  8
CENTER
  6
AI9-LType3
 62
     0
100
AcDbLine
 10
133.9205078124998
 20
71.68864746093747
 30
0.0
 11
133.9205078124998
 21
78.67564561631944
 31
0.0
  0
LINE
  5
126
330
A
100
AcDbEntity
  8
CENTER
  6
AI9-LType2
 62
     0
100
AcDbLine
 10
148.0295518663193
 20
91.25885687934028
 30
0.0
 11
143.1506076388888
 21
91.25885687934028
 31
0.0
  0
LINE
  5
125
330
A
100
AcDbEntity
  8
CENTER
  6
AI9-LType2
 62
     0
100
AcDbLine
 10
148.0295518663193
 20
103.3704345703124
 30
0.0
 11
143.1506076388888
 21
103.3704345703124
 31
0.0
  0
LINE
  5
11F
330
A
100
AcDbEntity
  8
不表示
 62
     7
100
AcDbLine
 10
112.6990641276041
 20
92.87288411458332
 30
0.0
 11
112.6990641276041
 21
106.3869601779513
 31
0.0
  0
LINE
  5
11E
330
A
100
AcDbEntity
  8
不表示
 62
     7
100
AcDbLine
 10
108.2845187717013
 20
92.87288411458332
 30
0.0
 11
108.2845187717013
 21
106.3869601779513
 31
0.0
  0
LINE
  5
11D
330
A
100
AcDbEntity
  8
不表示
 62
     7
100
AcDbLine
 10
108.9869737413194
 20
92.87288411458332
 30
0.0
 11
108.9869737413194
 21
106.3869601779513
 31
0.0
  0
LINE
  5
11C
330
A
100
AcDbEntity
  8
不表示
 62
     7
100
AcDbLine
 10
110.4917914496527
 20
92.87288411458332
 30
0.0
 11
110.4917914496527
 21
106.3869601779513
 31
0.0
  0
LINE
  5
11B
330
A
100
AcDbEntity
  8
不表示
 62
     7
100
AcDbLine
 10
111.4950032552083
 20
92.87288411458332
 30
0.0
 11
111.4950032552083
 21
106.3869601779513
 31
0.0
  0
LINE
  5
11A
330
A
100
AcDbEntity
  8
不表示
 62
     7
100
AcDbLine
 10
106.6794487847221
 20
92.87288411458332
 30
0.0
 11
106.6794487847221
 21
106.3869601779513
 31
0.0
  0
LINE
  5
F6
330
A
100
AcDbEntity
  8
部品
 62
     0
100
AcDbLine
 10
98.70577528211805
 20
77.53600802951388
 30
0.0
 11
119.9751057942707
 21
77.53600802951388
 31
0.0
  0
LINE
  5
F5
330
A
100
AcDbEntity
  8
部品
 62
     0
100
AcDbLine
 10
98.70577528211805
 20
112.6504882812499
 30
0.0
 11
119.9751057942707
 21
112.6504882812499
 31
0.0
  0
LINE
  5
F4
330
A
100
AcDbEntity
  8
部品
 62
     0
100
AcDbLine
 10
37.80751139322915
 20
72.40832790798609
 30
0.0
 11
37.80751139322915
 21
76.82252875434027
 31
0.0
  0
LINE
  5
F3
330
A
100
AcDbEntity
  8
部品
 62
     0
100
AcDbLine
 10
38.10844048394097
 20
72.40832790798609
 30
0.0
 11
38.10844048394097
 21
76.82252875434027
 31
0.0
  0
LINE
  5
F2
330
A
100
AcDbEntity
  8
部品
 62
     0
100
AcDbLine
 10
38.40954182942708
 20
72.40832790798609
 30
0.0
 11
38.40954182942708
 21
76.82252875434027
 31
0.0
  0
LINE
  5
F1
330
A
100
AcDbEntity
  8
部品
 62
     0
100
AcDbLine
 10
38.81072319878472
 20
72.40832790798609
 30
0.0
 11
38.81072319878472
 21
76.82252875434027
 31
0.0
  0
LINE
  5
F0
330
A
100
AcDbEntity
  8
部品
 62
     0
100
AcDbLine
 10
39.21207682291665
 20
72.40832790798609
 30
0.0
 11
39.21207682291665
 21
76.82252875434027
 31
0.0
  0
LINE
  5
EF
330
A
100
AcDbEntity
  8
部品
 62
     0
100
AcDbLine
 10
39.61343044704861
 20
72.40832790798609
 30
0.0
 11
39.61343044704861
 21
76.82252875434027
 31
0.0
  0
LINE
  5
EE
330
A
100
AcDbEntity
  8
部品
 62
     0
100
AcDbLine
 10
40.01461181640624
 20
72.40832790798609
 30
0.0
 11
40.01461181640624
 21
76.82252875434027
 31
0.0
  0
LINE
  5
ED
330
A
100
AcDbEntity
  8
部品
 62
     0
100
AcDbLine
 10
40.41596544053819
 20
72.40832790798609
 30
0.0
 11
40.41596544053819
 21
76.82252875434027
 31
0.0
  0
LINE
  5
EC
330
A
100
AcDbEntity
  8
部品
 62
     0
100
AcDbLine
 10
40.81731906467013
 20
72.40832790798609
 30
0.0
 11
40.81731906467013
 21
76.82252875434027
 31
0.0
  0
LINE
  5
EB
330
A
100
AcDbEntity
  8
部品
 62
     0
100
AcDbLine
 10
41.11824815538193
 20
72.40832790798609
 30
0.0
 11
41.11824815538193
 21
76.82252875434027
 31
0.0
  0
LINE
  5
EA
330
A
100
AcDbEntity
  8
部品
 62
     0
100
AcDbLine
 10
41.41917724609373
 20
72.40832790798609
 30
0.0
 11
41.41917724609373
 21
76.82252875434027
 31
0.0
  0
LINE
  5
E9
330
A
100
AcDbEntity
  8
部品
 62
     0
100
AcDbLine
 10
41.61985405815971
 20
72.40832790798609
 30
0.0
 11
41.61985405815971
 21
76.82252875434027
 31
0.0
  0
LINE
  5
E8
330
A
100
AcDbEntity
  8
部品
 62
     0
100
AcDbLine
 10
37.60683458116318
 20
72.40832790798609
 30
0.0
 11
37.60683458116318
 21
76.82252875434027
 31
0.0
  0
LINE
  5
E7
330
A
100
AcDbEntity
  8
部品
 62
     0
100
AcDbLine
 10
110.3436523437499
 20
72.46965060763887
 30
0.0
 11
110.3436523437499
 21
76.4828423394097
 31
0.0
  0
LINE
  5
E6
330
A
100
AcDbEntity
  8
部品
 62
     0
100
AcDbLine
 10
111.8484700520832
 20
72.46965060763887
 30
0.0
 11
111.8484700520832
 21
76.4828423394097
 31
0.0
  0
LINE
  5
E5
330
A
100
AcDbEntity
  8
部品
 62
     0
100
AcDbLine
 10
111.5477132161458
 20
72.46965060763887
 30
0.0
 11
111.5477132161458
 21
76.4828423394097
 31
0.0
  0
LINE
  5
E4
330
A
100
AcDbEntity
  8
部品
 62
     0
100
AcDbLine
 10
111.1463595920137
 20
72.46965060763887
 30
0.0
 11
111.1463595920137
 21
76.4828423394097
 31
0.0
  0
LINE
  5
E3
330
A
100
AcDbEntity
  8
部品
 62
     0
100
AcDbLine
 10
110.7450059678819
 20
72.46965060763887
 30
0.0
 11
110.7450059678819
 21
76.4828423394097
 31
0.0
  0
LINE
  5
E2
330
A
100
AcDbEntity
  8
部品
 62
     0
100
AcDbLine
 10
109.942298719618
 20
72.46965060763887
 30
0.0
 11
109.942298719618
 21
76.4828423394097
 31
0.0
  0
LINE
  5
E1
330
A
100
AcDbEntity
  8
部品
 62
     0
100
AcDbLine
 10
109.5409450954859
 20
72.46965060763887
 30
0.0
 11
109.5409450954859
 21
76.4828423394097
 31
0.0
  0
LINE
  5
E0
330
A
100
AcDbEntity
  8
部品
 62
     0
100
AcDbLine
 10
109.1395914713541
 20
72.46965060763887
 30
0.0
 11
109.1395914713541
 21
76.4828423394097
 31
0.0
  0
LINE
  5
DF
330
A
100
AcDbEntity
  8
部品
 62
     0
100
AcDbLine
 10
108.8388346354166
 20
72.46965060763887
 30
0.0
 11
108.8388346354166
 21
76.4828423394097
 31
0.0
  0
LINE
  5
DE
330
A
100
AcDbEntity
  8
部品
 62
     0
100
AcDbLine
 10
108.5377332899305
 20
72.46965060763887
 30
0.0
 11
108.5377332899305
 21
76.4828423394097
 31
0.0
  0
LINE
  5
DD
330
A
100
AcDbEntity
  8
部品
 62
     0
100
AcDbLine
 10
112.1495713975694
 20
72.46965060763887
 30
0.0
 11
112.1495713975694
 21
76.4828423394097
 31
0.0
  0
LINE
  5
DC
330
A
100
AcDbEntity
  8
部品
 62
     0
100
AcDbLine
 10
108.3372287326388
 20
72.46965060763887
 30
0.0
 11
108.3372287326388
 21
76.4828423394097
 31
0.0
  0
LINE
  5
DB
330
A
100
AcDbEntity
  8
部品
 62
     0
100
AcDbLine
 10
112.350075954861
 20
72.46965060763887
 30
0.0
 11
112.350075954861
 21
76.4828423394097
 31
0.0
  0
LINE
  5
DA
330
A
100
AcDbEntity
  8
部品
 62
     0
100
AcDbLine
 10
41.3189249674479
 20
72.10722656249997
 30
0.0
 11
37.90776367187499
 21
72.10722656249997
 31
0.0
  0
LINE
  5
D9
330
A
100
AcDbEntity
  8
部品
 62
     0
100
AcDbLine
 10
41.61985405815971
 20
72.40832790798609
 30
0.0
 11
37.60683458116318
 21
72.40832790798609
 31
0.0
  0
LINE
  5
D8
330
A
100
AcDbEntity
  8
部品
 62
     0
100
AcDbLine
 10
37.60683458116318
 20
72.40832790798609
 30
0.0
 11
37.90776367187499
 21
72.10722656249997
 31
0.0
  0
LINE
  5
D7
330
A
100
AcDbEntity
  8
部品
 62
     0
100
AcDbLine
 10
41.3189249674479
 20
72.10722656249997
 30
0.0
 11
41.61985405815971
 21
72.40832790798609
 31
0.0
  0
LINE
  5
D6
330
A
100
AcDbEntity
  8
部品
 62
     0
100
AcDbLine
 10
108.3372287326388
 20
72.46965060763887
 30
0.0
 11
112.350075954861
 21
72.46965060763887
 31
0.0
  0
LINE
  5
D5
330
A
100
AcDbEntity
  8
部品
 62
     0
100
AcDbLine
 10
108.6379855685762
 20
72.16854926215276
 30
0.0
 11
112.0493191189235
 21
72.16854926215276
 31
0.0
  0
LINE
  5
D4
330
A
100
AcDbEntity
  8
部品
 62
     0
100
AcDbLine
 10
108.6379855685762
 20
72.16854926215276
 30
0.0
 11
108.3372287326388
 21
72.46965060763887
 31
0.0
  0
LINE
  5
D3
330
A
100
AcDbEntity
  8
部品
 62
     0
100
AcDbLine
 10
112.350075954861
 20
72.46965060763887
 30
0.0
 11
112.0493191189235
 21
72.16854926215276
 31
0.0
  0
CIRCLE
  5
D2
330
A
100
AcDbEntity
  8
部品
 62
     0
100
AcDbCircle
 10
39.61334431966145
 20
95.09324815538194
 30
0.0
 40
11.69808010525173
  0
CIRCLE
  5
D1
330
A
100
AcDbEntity
  8
部品
 62
     0
100
AcDbCircle
 10
39.61334431966145
 20
95.09324815538194
 30
0.0
 40
11.03593275282118
  0
CIRCLE
  5
D0
330
A
100
AcDbEntity
  8
部品
 62
     0
100
AcDbCircle
 10
39.61334431966145
 20
95.09324815538194
 30
0.0
 40
13.54413452148437
  0
CIRCLE
  5
CF
330
A
100
AcDbEntity
  8
部品
 62
     0
100
AcDbCircle
 10
39.61334431966145
 20
95.09324815538194
 30
0.0
 40
14.54734632703992
  0
CIRCLE
  5
CE
330
A
100
AcDbEntity
  8
部品
 62
     0
100
AcDbCircle
 10
39.61334431966145
 20
95.09324815538194
 30
0.0
 40
16.55394219292533
  0
CIRCLE
  5
CD
330
A
100
AcDbEntity
  8
部品
 62
     0
100
AcDbCircle
 10
39.61334431966145
 20
95.09324815538194
 30
0.0
 40
17.5571539984809
  0
SPLINE
  5
CC
330
A
100
AcDbEntity
  8
部品
 62
     0
100
AcDbSpline
210
0.0
220
0.0
230
1.0
 70
     8
 71
     3
 72
     8
 73
     4
 74
     0
 42
0.0000000001
 43
0.0000000001
 40
0.0
 40
0.0
 40
0.0
 40
0.0
 40
1.0
 40
1.0
 40
1.0
 40
1.0
 10
30.15957166883679
 20
117.7826470269097
 30
0.0
 10
29.34945746527776
 20
117.4450276692708
 30
0.0
 10
28.68507080078124
 20
116.8314561631944
 30
0.0
 10
28.28440619574651
 20
116.0504530164929
 30
0.0
  0
CIRCLE
  5
CB
330
A
100
AcDbEntity
  8
部品
 62
     0
100
AcDbCircle
 10
39.61334431966145
 20
95.09324815538194
 30
0.0
 40
15.0489522298177
  0
LINE
  5
CA
330
A
100
AcDbEntity
  8
部品
 62
     0
100
AcDbLine
 10
24.66464436848958
 20
108.0257921006944
 30
0.0
 11
24.66464436848958
 21
104.324037000868
 31
0.0
  0
LINE
  5
C9
330
A
100
AcDbEntity
  8
部品
 62
     0
100
AcDbLine
 10
23.37807345920138
 20
112.6411865234373
 30
0.0
 11
15.17082248263888
 21
116.8521267361109
 31
0.0
  0
LINE
  5
C8
330
A
100
AcDbEntity
  8
部品
 62
     0
100
AcDbLine
 10
24.61451822916666
 20
115.0513753255207
 30
0.0
 11
16.40743950737847
 21
119.2623155381944
 31
0.0
  0
SPLINE
  5
C7
330
A
100
AcDbEntity
  8
部品
 62
     0
100
AcDbSpline
210
0.0
220
0.0
230
1.0
 70
     8
 71
     3
 72
     8
 73
     4
 74
     0
 42
0.0000000001
 43
0.0000000001
 40
0.0
 40
0.0
 40
0.0
 40
0.0
 40
1.0
 40
1.0
 40
1.0
 40
1.0
 10
15.78904486762152
 20
118.0572211371527
 30
0.0
 10
16.24793158637151
 20
118.2687499999999
 30
0.0
 10
16.50321316189235
 20
118.7662217881944
 30
0.0
 10
16.40743950737847
 20
119.2623155381944
 30
0.0
  0
SPLINE
  5
C6
330
A
100
AcDbEntity
  8
部品
 62
     0
100
AcDbSpline
210
0.0
220
0.0
230
1.0
 70
     8
 71
     3
 72
     8
 73
     4
 74
     0
 42
0.0000000001
 43
0.0000000001
 40
0.0
 40
0.0
 40
0.0
 40
0.0
 40
1.0
 40
1.0
 40
1.0
 40
1.0
 10
15.78904486762152
 20
118.0572211371527
 30
0.0
 10
15.33033040364583
 20
117.8456922743055
 30
0.0
 10
15.07504882812499
 20
117.348220486111
 30
0.0
 10
15.17082248263888
 20
116.8521267361109
 30
0.0
  0
SPLINE
  5
C5
330
A
100
AcDbEntity
  8
部品
 62
     0
100
AcDbSpline
210
0.0
220
0.0
230
1.0
 70
     8
 71
     3
 72
     8
 73
     4
 74
     0
 42
0.0000000001
 43
0.0000000001
 40
0.0
 40
0.0
 40
0.0
 40
0.0
 40
1.0
 40
1.0
 40
1.0
 40
1.0
 10
16.40743950737847
 20
119.2623155381944
 30
0.0
 10
15.94855278862847
 20
119.0507866753472
 30
0.0
 10
15.69327121310763
 20
118.5533148871527
 30
0.0
 10
15.78904486762152
 20
118.0572211371527
 30
0.0
  0
LINE
  5
C4
330
A
100
AcDbEntity
  8
部品
 62
     0
100
AcDbLine
 10
24.89270968967014
 20
109.4396592881944
 30
0.0
 11
28.28440619574651
 21
116.0504530164929
 31
0.0
  0
LINE
  5
C3
330
A
100
AcDbEntity
  8
部品
 62
     0
100
AcDbLine
 10
25.37019992404513
 20
116.5241536458333
 30
0.0
 11
22.62239176432291
 21
111.1684082031249
 31
0.0
  0
LINE
  5
C2
330
A
100
AcDbEntity
  8
部品
 62
     0
100
AcDbLine
 10
24.89270968967014
 20
109.4396592881944
 30
0.0
 11
22.83960503472222
 21
110.4931694878471
 31
0.0
  0
SPLINE
  5
C1
330
A
100
AcDbEntity
  8
部品
 62
     0
100
AcDbSpline
210
0.0
220
0.0
230
1.0
 70
     8
 71
     3
 72
     8
 73
     4
 74
     0
 42
0.0000000001
 43
0.0000000001
 40
0.0
 40
0.0
 40
0.0
 40
0.0
 40
1.0
 40
1.0
 40
1.0
 40
1.0
 10
22.62239176432291
 20
111.1684082031249
 30
0.0
 10
22.49595675998262
 20
110.9220838758679
 30
0.0
 10
22.59310845269097
 20
110.6196044921874
 30
0.0
 10
22.83960503472222
 20
110.4931694878471
 30
0.0
  0
SPLINE
  5
C0
330
A
100
AcDbEntity
  8
部品
 62
     0
100
AcDbSpline
210
0.0
220
0.0
230
1.0
 70
     8
 71
     3
 72
     8
 73
     4
 74
     0
 42
0.0000000001
 43
0.0000000001
 40
0.0
 40
0.0
 40
0.0
 40
0.0
 40
1.0
 40
1.0
 40
1.0
 40
1.0
 10
25.10716688368054
 20
109.8578938802083
 30
0.0
 10
24.81640082465276
 20
109.2908311631944
 30
0.0
 10
24.66464436848958
 20
108.6631347656249
 30
0.0
 10
24.66464436848958
 20
108.0257921006944
 30
0.0
  0
LINE
  5
BF
330
A
100
AcDbEntity
  8
部品
 62
     0
100
AcDbLine
 10
28.09854329427082
 20
115.6883734809027
 30
0.0
 11
26.04543863932291
 21
116.7415391710069
 31
0.0
  0
SPLINE
  5
BE
330
A
100
AcDbEntity
  8
部品
 62
     0
100
AcDbSpline
210
0.0
220
0.0
230
1.0
 70
     8
 71
     3
 72
     8
 73
     4
 74
     0
 42
0.0000000001
 43
0.0000000001
 40
0.0
 40
0.0
 40
0.0
 40
0.0
 40
1.0
 40
1.0
 40
1.0
 40
1.0
 10
26.04543863932291
 20
116.7415391710069
 30
0.0
 10
25.79911431206596
 20
116.8679741753472
 30
0.0
 10
25.49663492838541
 20
116.7708224826387
 30
0.0
 10
25.37019992404513
 20
116.5241536458333
 30
0.0
  0
LINE
  5
BD
330
A
100
AcDbEntity
  8
部品
 62
     0
100
AcDbLine
 10
54.56204427083331
 20
108.0257921006944
 30
0.0
 11
54.56204427083331
 21
104.324037000868
 31
0.0
  0
LINE
  5
BB
330
A
100
AcDbEntity
  8
部品
 62
     0
100
AcDbLine
 10
41.3189249674479
 20
77.12363009982637
 30
0.0
 11
37.90776367187499
 21
77.12363009982637
 31
0.0
  0
LINE
  5
BA
330
A
100
AcDbEntity
  8
部品
 62
     0
100
AcDbLine
 10
41.61985405815971
 20
76.82252875434027
 30
0.0
 11
37.60683458116318
 21
76.82252875434027
 31
0.0
  0
LINE
  5
B9
330
A
100
AcDbEntity
  8
部品
 62
     0
100
AcDbLine
 10
37.90776367187499
 20
77.12363009982637
 30
0.0
 11
37.60683458116318
 21
76.82252875434027
 31
0.0
  0
LINE
  5
B8
330
A
100
AcDbEntity
  8
部品
 62
     0
100
AcDbLine
 10
38.5097941080729
 20
77.57080349392359
 30
0.0
 11
38.5097941080729
 21
77.12363009982637
 31
0.0
  0
LINE
  5
B7
330
A
100
AcDbEntity
  8
部品
 62
     0
100
AcDbLine
 10
41.3189249674479
 20
77.12363009982637
 30
0.0
 11
41.61985405815971
 21
76.82252875434027
 31
0.0
  0
LINE
  5
B6
330
A
100
AcDbEntity
  8
部品
 62
     0
100
AcDbLine
 10
40.71689453124998
 20
77.57080349392359
 30
0.0
 11
40.71689453124998
 21
77.12363009982637
 31
0.0
  0
LINE
  5
AA
330
A
100
AcDbEntity
  8
部品
 62
     0
100
AcDbLine
 10
54.11952175564234
 20
109.8578938802083
 30
0.0
 11
50.94228244357638
 21
116.0504530164929
 31
0.0
  0
SPLINE
  5
A9
330
A
100
AcDbEntity
  8
部品
 62
     0
100
AcDbSpline
210
0.0
220
0.0
230
1.0
 70
     8
 71
     3
 72
     8
 73
     4
 74
     0
 42
0.0000000001
 43
0.0000000001
 40
0.0
 40
0.0
 40
0.0
 40
0.0
 40
1.0
 40
1.0
 40
1.0
 40
1.0
 10
49.06728922526041
 20
117.7826470269097
 30
0.0
 10
43.01666802300347
 20
120.3034233940971
 30
0.0
 10
36.21002061631944
 20
120.3034233940971
 30
0.0
 10
30.15957166883679
 20
117.7826470269097
 30
0.0
  0
SPLINE
  5
A8
330
A
100
AcDbEntity
  8
部品
 62
     0
100
AcDbSpline
210
0.0
220
0.0
230
1.0
 70
     8
 71
     3
 72
     8
 73
     4
 74
     0
 42
0.0000000001
 43
0.0000000001
 40
0.0
 40
0.0
 40
0.0
 40
0.0
 40
1.0
 40
1.0
 40
1.0
 40
1.0
 10
50.94228244357638
 20
116.0504530164929
 30
0.0
 10
50.54161783854166
 20
116.8314561631944
 30
0.0
 10
49.87740342881943
 20
117.4450276692708
 30
0.0
 10
49.06728922526041
 20
117.7826470269097
 30
0.0
  0
SPLINE
  5
A7
330
A
100
AcDbEntity
  8
部品
 62
     0
100
AcDbSpline
210
0.0
220
0.0
230
1.0
 70
     8
 71
     3
 72
     8
 73
     4
 74
     0
 42
0.0000000001
 43
0.0000000001
 40
0.0
 40
0.0
 40
0.0
 40
0.0
 40
1.0
 40
1.0
 40
1.0
 40
1.0
 10
54.56204427083331
 20
108.0257921006944
 30
0.0
 10
54.56204427083331
 20
108.6631347656249
 30
0.0
 10
54.41028781467013
 20
109.2908311631944
 30
0.0
 10
54.11952175564234
 20
109.8578938802083
 30
0.0
  0
LINE
  5
A6
330
A
100
AcDbEntity
  8
部品
 62
     0
100
AcDbLine
 10
98.30442165798608
 20
95.09324815538194
 30
0.0
 11
98.30442165798608
 21
112.4499837239582
 31
0.0
  0
LINE
  5
A5
330
A
100
AcDbEntity
  8
部品
 62
     0
100
AcDbLine
 10
98.50509847005207
 20
95.09324815538194
 30
0.0
 11
98.50509847005207
 21
112.4499837239582
 31
0.0
  0
LINE
  5
A4
330
A
100
AcDbEntity
  8
部品
 62
     0
100
AcDbLine
 10
96.79943169487849
 20
95.09324815538194
 30
0.0
 11
96.79943169487849
 21
112.4499837239582
 31
0.0
  0
SPLINE
  5
A3
330
A
100
AcDbEntity
  8
部品
 62
     0
100
AcDbSpline
210
0.0
220
0.0
230
1.0
 70
     8
 71
     3
 72
     8
 73
     4
 74
     0
 42
0.0000000001
 43
0.0000000001
 40
0.0
 40
0.0
 40
0.0
 40
0.0
 40
1.0
 40
1.0
 40
1.0
 40
1.0
 10
95.52440185546872
 20
95.09324815538194
 30
0.0
 10
95.52440185546872
 20
92.53870985243056
 30
0.0
 10
95.95555555555554
 20
90.00208604600695
 30
0.0
 10
96.79943169487849
 20
87.59086371527777
 30
0.0
  0
LINE
  5
A2
330
A
100
AcDbEntity
  8
部品
 62
     0
100
AcDbLine
 10
96.79943169487849
 20
95.09324815538194
 30
0.0
 11
96.79943169487849
 21
77.73685709635415
 31
0.0
  0
LINE
  5
A1
330
A
100
AcDbEntity
  8
部品
 62
     0
100
AcDbLine
 10
98.30442165798608
 20
95.09324815538194
 30
0.0
 11
98.30442165798608
 21
77.73685709635415
 31
0.0
  0
LINE
  5
A0
330
A
100
AcDbEntity
  8
部品
 62
     0
100
AcDbLine
 10
98.50509847005207
 20
95.09324815538194
 30
0.0
 11
98.50509847005207
 21
77.73685709635415
 31
0.0
  0
SPLINE
  5
9F
330
A
100
AcDbEntity
  8
部品
 62
     0
100
AcDbSpline
210
0.0
220
0.0
230
1.0
 70
     8
 71
     3
 72
     8
 73
     4
 74
     0
 42
0.0000000001
 43
0.0000000001
 40
0.0
 40
0.0
 40
0.0
 40
0.0
 40
1.0
 40
1.0
 40
1.0
 40
1.0
 10
98.50509847005207
 20
77.73685709635415
 30
0.0
 10
98.50509847005207
 20
77.62592502170138
 30
0.0
 10
98.59484320746529
 20
77.53600802951388
 30
0.0
 10
98.70577528211805
 20
77.53600802951388
 30
0.0
  0
SPLINE
  5
9E
330
A
100
AcDbEntity
  8
部品
 62
     0
100
AcDbSpline
210
0.0
220
0.0
230
1.0
 70
     8
 71
     3
 72
     8
 73
     4
 74
     0
 42
0.0000000001
 43
0.0000000001
 40
0.0
 40
0.0
 40
0.0
 40
0.0
 40
1.0
 40
1.0
 40
1.0
 40
1.0
 10
98.10374484592012
 20
77.53600802951388
 30
0.0
 10
98.21467692057293
 20
77.53600802951388
 30
0.0
 10
98.30442165798608
 20
77.62592502170138
 30
0.0
 10
98.30442165798608
 20
77.73685709635415
 30
0.0
  0
LINE
  5
9D
330
A
100
AcDbEntity
  8
部品
 62
     0
100
AcDbLine
 10
98.30442165798608
 20
78.23846299913194
 30
0.0
 11
98.50509847005207
 21
78.23846299913194
 31
0.0
  0
SPLINE
  5
9C
330
A
100
AcDbEntity
  8
部品
 62
     0
100
AcDbSpline
210
0.0
220
0.0
230
1.0
 70
     8
 71
     3
 72
     8
 73
     4
 74
     0
 42
0.0000000001
 43
0.0000000001
 40
0.0
 40
0.0
 40
0.0
 40
0.0
 40
1.0
 40
1.0
 40
1.0
 40
1.0
 10
96.79943169487849
 20
77.73685709635415
 30
0.0
 10
96.79943169487849
 20
77.62592502170138
 30
0.0
 10
96.88934868706596
 20
77.53600802951388
 30
0.0
 10
97.00028076171877
 20
77.53600802951388
 30
0.0
  0
LINE
  5
9B
330
A
100
AcDbEntity
  8
部品
 62
     0
100
AcDbLine
 10
97.00028076171877
 20
77.53600802951388
 30
0.0
 11
98.10374484592012
 21
77.53600802951388
 31
0.0
  0
LINE
  5
9A
330
A
100
AcDbEntity
  8
部品
 62
     0
100
AcDbLine
 10
108.3372287326388
 20
76.4828423394097
 30
0.0
 11
112.350075954861
 21
76.4828423394097
 31
0.0
  0
LINE
  5
99
330
A
100
AcDbEntity
  8
部品
 62
     0
100
AcDbLine
 10
107.8352783203124
 20
77.13499891493055
 30
0.0
 11
112.8516818576388
 21
77.13499891493055
 31
0.0
  0
LINE
  5
98
330
A
100
AcDbEntity
  8
部品
 62
     0
100
AcDbLine
 10
108.6379855685762
 20
76.78359917534722
 30
0.0
 11
112.0493191189235
 21
76.78359917534722
 31
0.0
  0
LINE
  5
97
330
A
100
AcDbEntity
  8
部品
 62
     0
100
AcDbLine
 10
107.8352783203124
 20
77.13499891493055
 30
0.0
 11
107.8352783203124
 21
77.53600802951388
 31
0.0
  0
LINE
  5
96
330
A
100
AcDbEntity
  8
部品
 62
     0
100
AcDbLine
 10
108.6379855685762
 20
76.78359917534722
 30
0.0
 11
108.3372287326388
 21
76.4828423394097
 31
0.0
  0
LINE
  5
95
330
A
100
AcDbEntity
  8
部品
 62
     0
100
AcDbLine
 10
109.5409450954859
 20
76.78359917534722
 30
0.0
 11
109.5409450954859
 21
77.13499891493055
 31
0.0
  0
LINE
  5
94
330
A
100
AcDbEntity
  8
部品
 62
     0
100
AcDbLine
 10
112.8516818576388
 20
77.13499891493055
 30
0.0
 11
112.8516818576388
 21
77.53600802951388
 31
0.0
  0
LINE
  5
93
330
A
100
AcDbEntity
  8
部品
 62
     0
100
AcDbLine
 10
112.0493191189235
 20
76.78359917534722
 30
0.0
 11
112.350075954861
 21
76.4828423394097
 31
0.0
  0
LINE
  5
92
330
A
100
AcDbEntity
  8
部品
 62
     0
100
AcDbLine
 10
111.1463595920137
 20
76.78359917534722
 30
0.0
 11
111.1463595920137
 21
77.13499891493055
 31
0.0
  0
SPLINE
  5
91
330
A
100
AcDbEntity
  8
部品
 62
     0
100
AcDbSpline
210
0.0
220
0.0
230
1.0
 70
     8
 71
     3
 72
     8
 73
     4
 74
     0
 42
0.0000000001
 43
0.0000000001
 40
0.0
 40
0.0
 40
0.0
 40
0.0
 40
1.0
 40
1.0
 40
1.0
 40
1.0
 10
96.79943169487849
 20
102.5959771050346
 30
0.0
 10
95.95555555555554
 20
100.1847547743055
 30
0.0
 10
95.52440185546872
 20
97.64813096788195
 30
0.0
 10
95.52440185546872
 20
95.09324815538194
 30
0.0
  0
LINE
  5
90
330
A
100
AcDbEntity
  8
部品
 62
     0
100
AcDbLine
 10
97.00028076171877
 20
112.6504882812499
 30
0.0
 11
98.10374484592012
 21
112.6504882812499
 31
0.0
  0
LINE
  5
8F
330
A
100
AcDbEntity
  8
部品
 62
     0
100
AcDbLine
 10
98.30442165798608
 20
111.9480333116319
 30
0.0
 11
98.50509847005207
 21
111.9480333116319
 31
0.0
  0
SPLINE
  5
8E
330
A
100
AcDbEntity
  8
部品
 62
     0
100
AcDbSpline
210
0.0
220
0.0
230
1.0
 70
     8
 71
     3
 72
     8
 73
     4
 74
     0
 42
0.0000000001
 43
0.0000000001
 40
0.0
 40
0.0
 40
0.0
 40
0.0
 40
1.0
 40
1.0
 40
1.0
 40
1.0
 10
98.30442165798608
 20
112.4499837239582
 30
0.0
 10
98.30442165798608
 20
112.5605712890624
 30
0.0
 10
98.21467692057293
 20
112.6504882812499
 30
0.0
 10
98.10374484592012
 20
112.6504882812499
 30
0.0
  0
SPLINE
  5
8D
330
A
100
AcDbEntity
  8
部品
 62
     0
100
AcDbSpline
210
0.0
220
0.0
230
1.0
 70
     8
 71
     3
 72
     8
 73
     4
 74
     0
 42
0.0000000001
 43
0.0000000001
 40
0.0
 40
0.0
 40
0.0
 40
0.0
 40
1.0
 40
1.0
 40
1.0
 40
1.0
 10
97.00028076171877
 20
112.6504882812499
 30
0.0
 10
96.88934868706596
 20
112.6504882812499
 30
0.0
 10
96.79943169487849
 20
112.5605712890624
 30
0.0
 10
96.79943169487849
 20
112.4499837239582
 30
0.0
  0
SPLINE
  5
8C
330
A
100
AcDbEntity
  8
部品
 62
     0
100
AcDbSpline
210
0.0
220
0.0
230
1.0
 70
     8
 71
     3
 72
     8
 73
     4
 74
     0
 42
0.0000000001
 43
0.0000000001
 40
0.0
 40
0.0
 40
0.0
 40
0.0
 40
1.0
 40
1.0
 40
1.0
 40
1.0
 10
98.70577528211805
 20
112.6504882812499
 30
0.0
 10
98.59484320746529
 20
112.6504882812499
 30
0.0
 10
98.50509847005207
 20
112.5605712890624
 30
0.0
 10
98.50509847005207
 20
112.4499837239582
 30
0.0
  0
LINE
  5
8B
330
A
100
AcDbEntity
  8
部品
 62
     0
100
AcDbLine
 10
133.9205078124998
 20
72.40832790798609
 30
0.0
 11
133.9205078124998
 21
76.82252875434027
 31
0.0
  0
LINE
  5
8A
330
A
100
AcDbEntity
  8
部品
 62
     0
100
AcDbLine
 10
132.1145887586804
 20
72.40832790798609
 30
0.0
 11
132.1145887586804
 21
76.82252875434027
 31
0.0
  0
LINE
  5
89
330
A
100
AcDbEntity
  8
部品
 62
     0
100
AcDbLine
 10
132.4156901041666
 20
72.40832790798609
 30
0.0
 11
132.4156901041666
 21
76.82252875434027
 31
0.0
  0
LINE
  5
88
330
A
100
AcDbEntity
  8
部品
 62
     0
100
AcDbLine
 10
135.7264268663193
 20
72.40832790798609
 30
0.0
 11
135.7264268663193
 21
76.82252875434027
 31
0.0
  0
LINE
  5
87
330
A
100
AcDbEntity
  8
部品
 62
     0
100
AcDbLine
 10
135.4253255208333
 20
72.40832790798609
 30
0.0
 11
135.4253255208333
 21
76.82252875434027
 31
0.0
  0
LINE
  5
86
330
A
100
AcDbEntity
  8
部品
 62
     0
100
AcDbLine
 10
132.7164469401041
 20
72.40832790798609
 30
0.0
 11
132.7164469401041
 21
76.82252875434027
 31
0.0
  0
LINE
  5
85
330
A
100
AcDbEntity
  8
部品
 62
     0
100
AcDbLine
 10
133.117800564236
 20
72.40832790798609
 30
0.0
 11
133.117800564236
 21
76.82252875434027
 31
0.0
  0
LINE
  5
84
330
A
100
AcDbEntity
  8
部品
 62
     0
100
AcDbLine
 10
133.5191541883679
 20
72.40832790798609
 30
0.0
 11
133.5191541883679
 21
76.82252875434027
 31
0.0
  0
LINE
  5
83
330
A
100
AcDbEntity
  8
部品
 62
     0
100
AcDbLine
 10
135.1242241753471
 20
72.40832790798609
 30
0.0
 11
135.1242241753471
 21
76.82252875434027
 31
0.0
  0
LINE
  5
82
330
A
100
AcDbEntity
  8
部品
 62
     0
100
AcDbLine
 10
134.7228705512152
 20
72.40832790798609
 30
0.0
 11
134.7228705512152
 21
76.82252875434027
 31
0.0
  0
LINE
  5
81
330
A
100
AcDbEntity
  8
部品
 62
     0
100
AcDbLine
 10
134.3215169270833
 20
72.40832790798609
 30
0.0
 11
134.3215169270833
 21
76.82252875434027
 31
0.0
  0
LINE
  5
80
330
A
100
AcDbEntity
  8
部品
 62
     0
100
AcDbLine
 10
131.9137396918402
 20
72.40832790798609
 30
0.0
 11
131.9137396918402
 21
76.82252875434027
 31
0.0
  0
LINE
  5
7F
330
A
100
AcDbEntity
  8
部品
 62
     0
100
AcDbLine
 10
135.926931423611
 20
72.40832790798609
 30
0.0
 11
135.926931423611
 21
76.82252875434027
 31
0.0
  0
LINE
  5
7E
330
A
100
AcDbEntity
  8
部品
 62
     0
100
AcDbLine
 10
131.9137396918402
 20
72.40832790798609
 30
0.0
 11
135.926931423611
 21
72.40832790798609
 31
0.0
  0
LINE
  5
7D
330
A
100
AcDbEntity
  8
部品
 62
     0
100
AcDbLine
 10
135.926931423611
 20
72.40832790798609
 30
0.0
 11
135.6258300781248
 21
72.10722656249997
 31
0.0
  0
LINE
  5
7C
330
A
100
AcDbEntity
  8
部品
 62
     0
100
AcDbLine
 10
132.2148410373263
 20
72.10722656249997
 30
0.0
 11
135.6258300781248
 21
72.10722656249997
 31
0.0
  0
LINE
  5
7B
330
A
100
AcDbEntity
  8
部品
 62
     0
100
AcDbLine
 10
132.2148410373263
 20
72.10722656249997
 30
0.0
 11
131.9137396918402
 21
72.40832790798609
 31
0.0
  0
LINE
  5
7A
330
A
100
AcDbEntity
  8
部品
 62
     0
100
AcDbLine
 10
145.9094401041665
 20
107.8349338107638
 30
0.0
 11
145.9094401041665
 21
82.35190700954859
 31
0.0
  0
LINE
  5
79
330
A
100
AcDbEntity
  8
部品
 62
     0
100
AcDbLine
 10
143.9705403645833
 20
107.8349338107638
 30
0.0
 11
143.9705403645833
 21
82.35190700954859
 31
0.0
  0
LINE
  5
78
330
A
100
AcDbEntity
  8
部品
 62
     0
100
AcDbLine
 10
143.651869032118
 20
82.903466796875
 30
0.0
 11
143.651869032118
 21
107.2830295138887
 31
0.0
  0
LINE
  5
77
330
A
100
AcDbEntity
  8
部品
 62
     0
100
AcDbLine
 10
142.4481526692708
 20
112.3493869357637
 30
0.0
 11
142.4481526692708
 21
95.09324815538194
 31
0.0
  0
LINE
  5
76
330
A
100
AcDbEntity
  8
部品
 62
     0
100
AcDbLine
 10
120.3761149088541
 20
95.09324815538194
 30
0.0
 11
120.3761149088541
 21
112.6504882812499
 31
0.0
  0
LINE
  5
75
330
A
100
AcDbEntity
  8
部品
 62
     0
100
AcDbLine
 10
120.1756103515623
 20
95.09324815538194
 30
0.0
 11
120.1756103515623
 21
112.4499837239582
 31
0.0
  0
LINE
  5
74
330
A
100
AcDbEntity
  8
部品
 62
     0
100
AcDbLine
 10
146.4613444010415
 20
107.2830295138887
 30
0.0
 11
146.4613444010415
 21
95.09324815538194
 31
0.0
  0
LINE
  5
73
330
A
100
AcDbEntity
  8
部品
 62
     0
100
AcDbLine
 10
142.9497585720485
 20
95.09324815538194
 30
0.0
 11
142.9497585720485
 21
109.9416097005208
 31
0.0
  0
LINE
  5
72
330
A
100
AcDbEntity
  8
部品
 62
     0
100
AcDbLine
 10
131.9137396918402
 20
76.82252875434027
 30
0.0
 11
135.926931423611
 21
76.82252875434027
 31
0.0
  0
LINE
  5
71
330
A
100
AcDbEntity
  8
部品
 62
     0
100
AcDbLine
 10
120.3761149088541
 20
104.3233479817707
 30
0.0
 11
142.4481526692708
 21
104.3233479817707
 31
0.0
  0
LINE
  5
70
330
A
100
AcDbEntity
  8
部品
 62
     0
100
AcDbLine
 10
135.6258300781248
 20
77.12363009982637
 30
0.0
 11
135.926931423611
 21
76.82252875434027
 31
0.0
  0
LINE
  5
6F
330
A
100
AcDbEntity
  8
部品
 62
     0
100
AcDbLine
 10
120.5769639756944
 20
77.53600802951388
 30
0.0
 11
142.247648111979
 21
77.53600802951388
 31
0.0
  0
LINE
  5
6E
330
A
100
AcDbEntity
  8
部品
 62
     0
100
AcDbLine
 10
120.1756103515623
 20
95.09324815538194
 30
0.0
 11
120.1756103515623
 21
77.73685709635415
 31
0.0
  0
LINE
  5
6D
330
A
100
AcDbEntity
  8
部品
 62
     0
100
AcDbLine
 10
120.3761149088541
 20
95.09324815538194
 30
0.0
 11
120.3761149088541
 21
77.73685709635415
 31
0.0
  0
SPLINE
  5
6C
330
A
100
AcDbEntity
  8
部品
 62
     0
100
AcDbSpline
210
0.0
220
0.0
230
1.0
 70
     8
 71
     3
 72
     8
 73
     4
 74
     0
 42
0.0000000001
 43
0.0000000001
 40
0.0
 40
0.0
 40
0.0
 40
0.0
 40
1.0
 40
1.0
 40
1.0
 40
1.0
 10
120.3761149088541
 20
77.73685709635415
 30
0.0
 10
120.3761149088541
 20
77.62592502170138
 30
0.0
 10
120.4660319010416
 20
77.53600802951388
 30
0.0
 10
120.5769639756944
 20
77.53600802951388
 30
0.0
  0
SPLINE
  5
6B
330
A
100
AcDbEntity
  8
部品
 62
     0
100
AcDbSpline
210
0.0
220
0.0
230
1.0
 70
     8
 71
     3
 72
     8
 73
     4
 74
     0
 42
0.0000000001
 43
0.0000000001
 40
0.0
 40
0.0
 40
0.0
 40
0.0
 40
1.0
 40
1.0
 40
1.0
 40
1.0
 10
119.9751057942707
 20
77.53600802951388
 30
0.0
 10
120.0856933593749
 20
77.53600802951388
 30
0.0
 10
120.1756103515623
 20
77.62592502170138
 30
0.0
 10
120.1756103515623
 20
77.73685709635415
 30
0.0
  0
LINE
  5
6A
330
A
100
AcDbEntity
  8
部品
 62
     0
100
AcDbLine
 10
120.3761149088541
 20
78.79036729600693
 30
0.0
 11
120.3761149088541
 21
77.73685709635415
 31
0.0
  0
LINE
  5
69
330
A
100
AcDbEntity
  8
部品
 62
     0
100
AcDbLine
 10
120.1756103515623
 20
78.94057345920137
 30
0.0
 11
120.3761149088541
 21
78.94057345920137
 31
0.0
  0
LINE
  5
68
330
A
100
AcDbEntity
  8
部品
 62
     0
100
AcDbLine
 10
132.2148410373263
 20
77.12363009982637
 30
0.0
 11
135.6258300781248
 21
77.12363009982637
 31
0.0
  0
LINE
  5
67
330
A
100
AcDbEntity
  8
部品
 62
     0
100
AcDbLine
 10
132.2148410373263
 20
77.12363009982637
 30
0.0
 11
131.9137396918402
 21
76.82252875434027
 31
0.0
  0
LINE
  5
66
330
A
100
AcDbEntity
  8
部品
 62
     0
100
AcDbLine
 10
132.8166992187499
 20
77.53600802951388
 30
0.0
 11
132.8166992187499
 21
77.12363009982637
 31
0.0
  0
LINE
  5
65
330
A
100
AcDbEntity
  8
部品
 62
     0
100
AcDbLine
 10
135.0239718967013
 20
77.53600802951388
 30
0.0
 11
135.0239718967013
 21
77.12363009982637
 31
0.0
  0
LINE
  5
64
330
A
100
AcDbEntity
  8
部品
 62
     0
100
AcDbLine
 10
147.4111572265625
 20
95.09324815538194
 30
0.0
 11
147.4111572265625
 21
89.31961263020832
 31
0.0
  0
LINE
  5
63
330
A
100
AcDbEntity
  8
部品
 62
     0
100
AcDbLine
 10
147.3639594184026
 20
89.95488823784722
 30
0.0
 11
147.3639594184026
 21
91.25885687934028
 31
0.0
  0
LINE
  5
62
330
A
100
AcDbEntity
  8
部品
 62
     0
100
AcDbLine
 10
146.4613444010415
 20
92.76401909722222
 30
0.0
 11
146.4613444010415
 21
89.75403917100695
 31
0.0
  0
LINE
  5
61
330
A
100
AcDbEntity
  8
部品
 62
     0
100
AcDbLine
 10
146.4613444010415
 20
82.903466796875
 30
0.0
 11
146.4613444010415
 21
95.09324815538194
 31
0.0
  0
LINE
  5
60
330
A
100
AcDbEntity
  8
部品
 62
     0
100
AcDbLine
 10
142.9497585720485
 20
95.09324815538194
 30
0.0
 11
142.9497585720485
 21
80.24488661024305
 31
0.0
  0
LINE
  5
5F
330
A
100
AcDbEntity
  8
部品
 62
     0
100
AcDbLine
 10
142.4481526692708
 20
95.09324815538194
 30
0.0
 11
142.4481526692708
 21
77.73685709635415
 31
0.0
  0
LINE
  5
5E
330
A
100
AcDbEntity
  8
部品
 62
     0
100
AcDbLine
 10
147.4111572265625
 20
89.31961263020832
 30
0.0
 11
147.1110894097221
 21
89.05709635416666
 31
0.0
  0
LINE
  5
5D
330
A
100
AcDbEntity
  8
部品
 62
     0
100
AcDbLine
 10
146.4613444010415
 20
89.75403917100695
 30
0.0
 11
147.163454861111
 21
89.75403917100695
 31
0.0
  0
LINE
  5
5C
330
A
100
AcDbEntity
  8
部品
 62
     0
100
AcDbLine
 10
146.4613444010415
 20
82.903466796875
 30
0.0
 11
145.9094401041665
 21
82.35190700954859
 31
0.0
  0
LINE
  5
5B
330
A
100
AcDbEntity
  8
部品
 62
     0
100
AcDbLine
 10
143.651869032118
 20
82.903466796875
 30
0.0
 11
143.9705403645833
 21
82.35190700954859
 31
0.0
  0
SPLINE
  5
5A
330
A
100
AcDbEntity
  8
部品
 62
     0
100
AcDbSpline
210
0.0
220
0.0
230
1.0
 70
     8
 71
     3
 72
     8
 73
     4
 74
     0
 42
0.0000000001
 43
0.0000000001
 40
0.0
 40
0.0
 40
0.0
 40
0.0
 40
1.0
 40
1.0
 40
1.0
 40
1.0
 10
142.247648111979
 20
77.53600802951388
 30
0.0
 10
142.3582356770833
 20
77.53600802951388
 30
0.0
 10
142.4481526692708
 20
77.62592502170138
 30
0.0
 10
142.4481526692708
 20
77.73685709635415
 30
0.0
  0
LINE
  5
59
330
A
100
AcDbEntity
  8
部品
 62
     0
100
AcDbLine
 10
143.9705403645833
 20
82.35190700954859
 30
0.0
 11
145.9094401041665
 21
82.35190700954859
 31
0.0
  0
LINE
  5
58
330
A
100
AcDbEntity
  8
部品
 62
     0
100
AcDbLine
 10
142.4481526692708
 20
80.04438205295137
 30
0.0
 11
142.7492540147569
 21
80.04438205295137
 31
0.0
  0
LINE
  5
57
330
A
100
AcDbEntity
  8
部品
 62
     0
100
AcDbLine
 10
142.7492540147569
 20
80.04438205295137
 30
0.0
 11
142.9497585720485
 21
80.24488661024305
 31
0.0
  0
LINE
  5
56
330
A
100
AcDbEntity
  8
部品
 62
     0
100
AcDbLine
 10
143.651869032118
 20
82.903466796875
 30
0.0
 11
146.4613444010415
 21
82.903466796875
 31
0.0
  0
LINE
  5
55
330
A
100
AcDbEntity
  8
部品
 62
     0
100
AcDbLine
 10
142.9497585720485
 20
82.903466796875
 30
0.0
 11
143.651869032118
 21
82.903466796875
 31
0.0
  0
LINE
  5
54
330
A
100
AcDbEntity
  8
部品
 62
     0
100
AcDbLine
 10
147.1110894097221
 20
89.05709635416666
 30
0.0
 11
146.4613444010415
 21
88.94237467447915
 31
0.0
  0
SPLINE
  5
53
330
A
100
AcDbEntity
  8
部品
 62
     0
100
AcDbSpline
210
0.0
220
0.0
230
1.0
 70
     8
 71
     3
 72
     8
 73
     4
 74
     0
 42
0.0000000001
 43
0.0000000001
 40
0.0
 40
0.0
 40
0.0
 40
0.0
 40
1.0
 40
1.0
 40
1.0
 40
1.0
 10
147.163454861111
 20
89.75403917100695
 30
0.0
 10
147.2743869357638
 20
89.75403917100695
 30
0.0
 10
147.3639594184026
 20
89.84395616319444
 30
0.0
 10
147.3639594184026
 20
89.95488823784722
 30
0.0
  0
LINE
  5
52
330
A
100
AcDbEntity
  8
部品
 62
     0
100
AcDbLine
 10
147.4111572265625
 20
100.8668836805554
 30
0.0
 11
147.1110894097221
 21
101.1297444661457
 31
0.0
  0
LINE
  5
51
330
A
100
AcDbEntity
  8
部品
 62
     0
100
AcDbLine
 10
146.4613444010415
 20
92.76401909722222
 30
0.0
 11
147.163454861111
 21
92.76401909722222
 31
0.0
  0
LINE
  5
50
330
A
100
AcDbEntity
  8
部品
 62
     0
100
AcDbLine
 10
146.4613444010415
 20
104.8752522786458
 30
0.0
 11
147.163454861111
 21
104.8752522786458
 31
0.0
  0
LINE
  5
4F
330
A
100
AcDbEntity
  8
部品
 62
     0
100
AcDbLine
 10
146.4613444010415
 20
101.8652723524305
 30
0.0
 11
147.163454861111
 21
101.8652723524305
 31
0.0
  0
LINE
  5
4E
330
A
100
AcDbEntity
  8
部品
 62
     0
100
AcDbLine
 10
146.4613444010415
 20
104.8752522786458
 30
0.0
 11
146.4613444010415
 21
101.8652723524305
 31
0.0
  0
LINE
  5
4D
330
A
100
AcDbEntity
  8
部品
 62
     0
100
AcDbLine
 10
147.1110894097221
 20
101.1297444661457
 30
0.0
 11
146.4613444010415
 21
101.2441216362846
 31
0.0
  0
LINE
  5
4C
330
A
100
AcDbEntity
  8
部品
 62
     0
100
AcDbLine
 10
147.4111572265625
 20
95.09324815538194
 30
0.0
 11
147.4111572265625
 21
100.8668836805554
 31
0.0
  0
SPLINE
  5
4B
330
A
100
AcDbEntity
  8
部品
 62
     0
100
AcDbSpline
210
0.0
220
0.0
230
1.0
 70
     8
 71
     3
 72
     8
 73
     4
 74
     0
 42
0.0000000001
 43
0.0000000001
 40
0.0
 40
0.0
 40
0.0
 40
0.0
 40
1.0
 40
1.0
 40
1.0
 40
1.0
 10
147.5207112630208
 20
95.09324815538194
 30
0.0
 10
147.5207112630208
 20
96.49746907552085
 30
0.0
 10
147.484193250868
 20
97.90134548611108
 30
0.0
 10
147.4111572265625
 20
99.30349934895833
 30
0.0
  0
SPLINE
  5
4A
330
A
100
AcDbEntity
  8
部品
 62
     0
100
AcDbSpline
210
0.0
220
0.0
230
1.0
 70
     8
 71
     3
 72
     8
 73
     4
 74
     0
 42
0.0000000001
 43
0.0000000001
 40
0.0
 40
0.0
 40
0.0
 40
0.0
 40
1.0
 40
1.0
 40
1.0
 40
1.0
 10
147.4111572265625
 20
90.88299696180555
 30
0.0
 10
147.484193250868
 20
92.28515082465277
 30
0.0
 10
147.5207112630208
 20
93.68937174479166
 30
0.0
 10
147.5207112630208
 20
95.09324815538194
 30
0.0
  0
LINE
  5
49
330
A
100
AcDbEntity
  8
部品
 62
     0
100
AcDbLine
 10
147.3639594184026
 20
92.56317003038194
 30
0.0
 11
147.3639594184026
 21
91.25885687934028
 31
0.0
  0
SPLINE
  5
48
330
A
100
AcDbEntity
  8
部品
 62
     0
100
AcDbSpline
210
0.0
220
0.0
230
1.0
 70
     8
 71
     3
 72
     8
 73
     4
 74
     0
 42
0.0000000001
 43
0.0000000001
 40
0.0
 40
0.0
 40
0.0
 40
0.0
 40
1.0
 40
1.0
 40
1.0
 40
1.0
 10
147.3639594184026
 20
92.56317003038194
 30
0.0
 10
147.3639594184026
 20
92.67410210503472
 30
0.0
 10
147.2743869357638
 20
92.76401909722222
 30
0.0
 10
147.163454861111
 20
92.76401909722222
 30
0.0
  0
LINE
  5
47
330
A
100
AcDbEntity
  8
部品
 62
     0
100
AcDbLine
 10
147.3639594184026
 20
102.0661214192708
 30
0.0
 11
147.3639594184026
 21
103.3704345703124
 31
0.0
  0
SPLINE
  5
46
330
A
100
AcDbEntity
  8
部品
 62
     0
100
AcDbSpline
210
0.0
220
0.0
230
1.0
 70
     8
 71
     3
 72
     8
 73
     4
 74
     0
 42
0.0000000001
 43
0.0000000001
 40
0.0
 40
0.0
 40
0.0
 40
0.0
 40
1.0
 40
1.0
 40
1.0
 40
1.0
 10
147.163454861111
 20
101.8652723524305
 30
0.0
 10
147.2743869357638
 20
101.8652723524305
 30
0.0
 10
147.3639594184026
 20
101.955189344618
 30
0.0
 10
147.3639594184026
 20
102.0661214192708
 30
0.0
  0
SPLINE
  5
45
330
A
100
AcDbEntity
  8
部品
 62
     0
100
AcDbSpline
210
0.0
220
0.0
230
1.0
 70
     8
 71
     3
 72
     8
 73
     4
 74
     0
 42
0.0000000001
 43
0.0000000001
 40
0.0
 40
0.0
 40
0.0
 40
0.0
 40
1.0
 40
1.0
 40
1.0
 40
1.0
 10
147.3639594184026
 20
104.6744032118055
 30
0.0
 10
147.3639594184026
 20
104.7853352864583
 30
0.0
 10
147.2743869357638
 20
104.8752522786458
 30
0.0
 10
147.163454861111
 20
104.8752522786458
 30
0.0
  0
LINE
  5
44
330
A
100
AcDbEntity
  8
部品
 62
     0
100
AcDbLine
 10
147.3639594184026
 20
104.6744032118055
 30
0.0
 11
147.3639594184026
 21
103.3704345703124
 31
0.0
  0
LINE
  5
43
330
A
100
AcDbEntity
  8
部品
 62
     0
100
AcDbLine
 10
138.7360622829859
 20
117.7826470269097
 30
0.0
 11
124.0861382378471
 21
117.7826470269097
 31
0.0
  0
LINE
  5
42
330
A
100
AcDbEntity
  8
部品
 62
     0
100
AcDbLine
 10
138.7360622829859
 20
108.0257921006944
 30
0.0
 11
124.0861382378471
 21
108.0257921006944
 31
0.0
  0
LINE
  5
41
330
A
100
AcDbEntity
  8
部品
 62
     0
100
AcDbLine
 10
124.0861382378471
 20
119.6733154296873
 30
0.0
 11
138.7360622829859
 21
119.6733154296873
 31
0.0
  0
LINE
  5
40
330
A
100
AcDbEntity
  8
部品
 62
     0
100
AcDbLine
 10
120.3761149088541
 20
112.6504882812499
 30
0.0
 11
121.9677490234374
 21
118.0865044487847
 31
0.0
  0
LINE
  5
3F
330
A
100
AcDbEntity
  8
部品
 62
     0
100
AcDbLine
 10
120.1756103515623
 20
111.2459228515624
 30
0.0
 11
120.3761149088541
 21
111.2459228515624
 31
0.0
  0
SPLINE
  5
3E
330
A
100
AcDbEntity
  8
部品
 62
     0
100
AcDbSpline
210
0.0
220
0.0
230
1.0
 70
     8
 71
     3
 72
     8
 73
     4
 74
     0
 42
0.0000000001
 43
0.0000000001
 40
0.0
 40
0.0
 40
0.0
 40
0.0
 40
1.0
 40
1.0
 40
1.0
 40
1.0
 10
120.1756103515623
 20
112.4499837239582
 30
0.0
 10
120.1756103515623
 20
112.5605712890624
 30
0.0
 10
120.0856933593749
 20
112.6504882812499
 30
0.0
 10
119.9751057942707
 20
112.6504882812499
 30
0.0
  0
SPLINE
  5
3D
330
A
100
AcDbEntity
  8
部品
 62
     0
100
AcDbSpline
210
0.0
220
0.0
230
1.0
 70
     8
 71
     3
 72
     8
 73
     4
 74
     0
 42
0.0000000001
 43
0.0000000001
 40
0.0
 40
0.0
 40
0.0
 40
0.0
 40
1.0
 40
1.0
 40
1.0
 40
1.0
 10
124.0861382378471
 20
119.6733154296873
 30
0.0
 10
123.1060085720484
 20
119.6733154296873
 30
0.0
 10
122.2433566623262
 20
119.0270155164929
 30
0.0
 10
121.9677490234374
 20
118.0865044487847
 30
0.0
  0
LINE
  5
3C
330
A
100
AcDbEntity
  8
部品
 62
     0
100
AcDbLine
 10
142.4481526692708
 20
112.1488823784722
 30
0.0
 11
142.4481526692708
 21
115.9612250434027
 31
0.0
  0
LINE
  5
3B
330
A
100
AcDbEntity
  8
部品
 62
     0
100
AcDbLine
 10
143.651869032118
 20
107.2830295138887
 30
0.0
 11
146.4613444010415
 21
107.2830295138887
 31
0.0
  0
LINE
  5
3A
330
A
100
AcDbEntity
  8
部品
 62
     0
100
AcDbLine
 10
143.9705403645833
 20
107.8349338107638
 30
0.0
 11
145.9094401041665
 21
107.8349338107638
 31
0.0
  0
LINE
  5
39
330
A
100
AcDbEntity
  8
部品
 62
     0
100
AcDbLine
 10
142.7492540147569
 20
110.142458767361
 30
0.0
 11
142.9497585720485
 21
109.9416097005208
 31
0.0
  0
LINE
  5
38
330
A
100
AcDbEntity
  8
部品
 62
     0
100
AcDbLine
 10
142.4481526692708
 20
110.142458767361
 30
0.0
 11
142.7492540147569
 21
110.142458767361
 31
0.0
  0
LINE
  5
37
330
A
100
AcDbEntity
  8
部品
 62
     0
100
AcDbLine
 10
142.9497585720485
 20
107.2830295138887
 30
0.0
 11
143.651869032118
 21
107.2830295138887
 31
0.0
  0
LINE
  5
36
330
A
100
AcDbEntity
  8
部品
 62
     0
100
AcDbLine
 10
143.651869032118
 20
107.2830295138887
 30
0.0
 11
143.9705403645833
 21
107.8349338107638
 31
0.0
  0
LINE
  5
35
330
A
100
AcDbEntity
  8
部品
 62
     0
100
AcDbLine
 10
146.4613444010415
 20
107.2830295138887
 30
0.0
 11
145.9094401041665
 21
107.8349338107638
 31
0.0
  0
SPLINE
  5
34
330
A
100
AcDbEntity
  8
部品
 62
     0
100
AcDbSpline
210
0.0
220
0.0
230
1.0
 70
     8
 71
     3
 72
     8
 73
     4
 74
     0
 42
0.0000000001
 43
0.0000000001
 40
0.0
 40
0.0
 40
0.0
 40
0.0
 40
1.0
 40
1.0
 40
1.0
 40
1.0
 10
142.4481526692708
 20
115.9612250434027
 30
0.0
 10
142.4481526692708
 20
118.0114013671873
 30
0.0
 10
140.7862386067708
 20
119.6733154296873
 30
0.0
 10
138.7360622829859
 20
119.6733154296873
 30
0.0
  0
LINE
  5
33
330
A
100
AcDbEntity
  8
部品
 62
     0
100
AcDbLine
 10
100.8307101779513
 20
96.19705674913193
 30
0.0
 11
100.8307101779513
 21
111.1456705729165
 31
0.0
  0
LINE
  5
32
330
A
100
AcDbEntity
  8
部品
 62
     0
100
AcDbLine
 10
109.8599609374999
 20
95.19350043402777
 30
0.0
 11
101.8339219835069
 21
95.19350043402777
 31
0.0
  0
LINE
  5
31
330
A
100
AcDbEntity
  8
部品
 62
     0
100
AcDbLine
 10
101.8339219835069
 20
112.1488823784722
 30
0.0
 11
109.8599609374999
 21
112.1488823784722
 31
0.0
  0
LINE
  5
30
330
A
100
AcDbEntity
  8
部品
 62
     0
100
AcDbLine
 10
110.8631727430555
 20
111.1456705729165
 30
0.0
 11
110.8631727430555
 21
96.19705674913193
 31
0.0
  0
SPLINE
  5
2F
330
A
100
AcDbEntity
  8
部品
 62
     0
100
AcDbSpline
210
0.0
220
0.0
230
1.0
 70
     8
 71
     3
 72
     8
 73
     4
 74
     0
 42
0.0000000001
 43
0.0000000001
 40
0.0
 40
0.0
 40
0.0
 40
0.0
 40
1.0
 40
1.0
 40
1.0
 40
1.0
 10
101.8339219835069
 20
112.1488823784722
 30
0.0
 10
101.2797783745658
 20
112.1488823784722
 30
0.0
 10
100.8307101779513
 20
111.6996419270833
 30
0.0
 10
100.8307101779513
 20
111.1456705729165
 30
0.0
  0
SPLINE
  5
2E
330
A
100
AcDbEntity
  8
部品
 62
     0
100
AcDbSpline
210
0.0
220
0.0
230
1.0
 70
     8
 71
     3
 72
     8
 73
     4
 74
     0
 42
0.0000000001
 43
0.0000000001
 40
0.0
 40
0.0
 40
0.0
 40
0.0
 40
1.0
 40
1.0
 40
1.0
 40
1.0
 10
110.8631727430555
 20
111.1456705729165
 30
0.0
 10
110.8631727430555
 20
111.6996419270833
 30
0.0
 10
110.4139322916666
 20
112.1488823784722
 30
0.0
 10
109.8599609374999
 20
112.1488823784722
 30
0.0
  0
SPLINE
  5
2D
330
A
100
AcDbEntity
  8
部品
 62
     0
100
AcDbSpline
210
0.0
220
0.0
230
1.0
 70
     8
 71
     3
 72
     8
 73
     4
 74
     0
 42
0.0000000001
 43
0.0000000001
 40
0.0
 40
0.0
 40
0.0
 40
0.0
 40
1.0
 40
1.0
 40
1.0
 40
1.0
 10
109.8599609374999
 20
95.19350043402777
 30
0.0
 10
110.4139322916666
 20
95.19350043402777
 30
0.0
 10
110.8631727430555
 20
95.64274088541663
 30
0.0
 10
110.8631727430555
 20
96.19705674913193
 30
0.0
  0
SPLINE
  5
2C
330
A
100
AcDbEntity
  8
部品
 62
     0
100
AcDbSpline
210
0.0
220
0.0
230
1.0
 70
     8
 71
     3
 72
     8
 73
     4
 74
     0
 42
0.0000000001
 43
0.0000000001
 40
0.0
 40
0.0
 40
0.0
 40
0.0
 40
1.0
 40
1.0
 40
1.0
 40
1.0
 10
100.8307101779513
 20
96.19705674913193
 30
0.0
 10
100.8307101779513
 20
95.64274088541663
 30
0.0
 10
101.2797783745658
 20
95.19350043402777
 30
0.0
 10
101.8339219835069
 20
95.19350043402777
 30
0.0
  0
LINE
  5
2B
330
A
100
AcDbEntity
  8
部品
 62
     0
100
AcDbLine
 10
103.9464545355902
 20
95.19350043402777
 30
0.0
 11
103.9464545355902
 21
112.1488823784722
 31
0.0
  0
ENDSEC
  0
SECTION
  2
OBJECTS
  0
DICTIONARY
  5
19
330
0
100
AcDbDictionary
281
     1
  3
ACAD_GROUP
350
1A
  3
ACAD_MLINESTYLE
350
1B
  3
ACAD_LAYOUT
350
1E
  3
ACAD_PLOTSETTINGS
350
22
  3
ACAD_PLOTSTYLENAME
350
1F
  3
ACAD_WIPEOUT_VARS
350
23
  0
DICTIONARY
  5
1A
102
{ACAD_REACTORS
330
19
102
}
330
19
100
AcDbDictionary
281
     1
  0
DICTIONARY
  5
1B
102
{ACAD_REACTORS
330
19
102
}
330
19
100
AcDbDictionary
281
     1
  3
Standard
350
1C
  0
DICTIONARY
  5
1E
102
{ACAD_REACTORS
330
19
102
}
330
19
100
AcDbDictionary
281
     1
  3
Layout1
350
21
  3
Model
350
20
  0
DICTIONARY
  5
22
102
{ACAD_REACTORS
330
19
102
}
330
19
100
AcDbDictionary
281
     1
  0
ACDBDICTIONARYWDFLT
  5
1F
102
{ACAD_REACTORS
330
19
102
}
330
19
100
AcDbDictionary
281
     1
  3
Normal
350
1D
100
AcDbDictionaryWithDefault
340
1D
  0
ACAD_PROXY_OBJECT
  5
23
330
19
100
AcDbProxyObject
 90
      499
 91
      521
 95
   393239
 70
     0
 93
       10
310
4040
 94
        0
  0
MLINESTYLE
  5
1C
102
{ACAD_REACTORS
330
1B
102
}
330
1B
100
AcDbMlineStyle
  2
STANDARD
 70
     0
  3

 62
     0
 51
90.00000000000019
 52
90.00000000000019
 71
     2
 49
0.5
 62
   256
  6
BYLAYER
 49
-0.5
 62
   256
  6
BYLAYER
  0
LAYOUT
  5
21
102
{ACAD_REACTORS
330
1E
102
}
330
1E
100
AcDbPlotSettings
  1

  2

  4

  6

 40
0.0
 41
0.0
 42
0.0
 43
0.0
 44
0.0
 45
0.0
 46
0.0
 47
0.0
 48
0.0
 49
0.0
140
0.0
141
0.0
142
1.0
143
1.0
 70
     0
 72
     0
 73
     0
 74
     0
  7

 75
     0
147
1.0
148
0.0
149
0.0
100
AcDbLayout
  1
Layout1
 70
     0
 71
     1
 10
0.0
 20
0.0
 11
12.0
 21
9.0
 12
0.0
 22
0.0
 32
0.0
 14
1.000000000000000E+20
 24
1.000000000000000E+20
 34
1.000000000000000E+20
 15
-1.000000000000000E+20
 25
-1.000000000000000E+20
 35
-1.000000000000000E+20
146
0.0
 13
0.0
 23
0.0
 33
0.0
 16
1.0
 26
0.0
 36
0.0
 17
0.0
 27
1.0
 37
0.0
 76
     0
330
B
  0
LAYOUT
  5
20
102
{ACAD_REACTORS
330
1E
102
}
330
1E
100
AcDbPlotSettings
  1

  2

  4

  6

 40
0.0
 41
0.0
 42
0.0
 43
0.0
 44
0.0
 45
0.0
 46
0.0
 47
0.0
 48
0.0
 49
0.0
140
0.0
141
0.0
142
1.0
143
1.0
 70
  1024
 72
     0
 73
     0
 74
     0
  7

 75
     0
147
1.0
148
0.0
149
0.0
100
AcDbLayout
  1
Model
 70
     0
 71
     0
 10
0.0
 20
0.0
 11
0.0
 21
0.0
 12
0.0
 22
0.0
 32
0.0
 14
0.0
 24
0.0
 34
0.0
 15
0.0
 25
0.0
 35
0.0
146
0.0
 13
0.0
 23
0.0
 33
0.0
 16
0.0
 26
0.0
 36
0.0
 17
0.0
 27
0.0
 37
0.0
 76
     0
330
A
  0
ACDBPLACEHOLDER
  5
1D
102
{ACAD_REACTORS
330
1F
102
}
330
1F
  0
ENDSEC
  0
EOF
